  0
SECTION
  2
HEADER
  9
$ACADVER
  1
AC1006
  9
$EXTMIN
 10
2.730640
 20
4.070880
  9
$EXTMAX
 10
5.769280
 20
6.928680
  9
$LTSCALE
 40
0.044000
  9
$PDMODE
 70
    35
  9
$PDSIZE
 40
0.035200
  0
ENDSEC
  0
SECTION
  2
TABLES
  0
TABLE
  2
LTYPE
 70
     9
  0
LTYPE
  2
CONTINUOUS
 70
    64
  3
Solid line
 72
    65
 73
     0
 40
0.000000
  0
LTYPE
  2
DASHED
 70
    64
  3
__ __ __ __ __ __ __ __ __ __ __ __ __ __ __
 72
    65
 73
     2
 40
0.000330
 49
0.000220
 49
-0.000110
  0
LTYPE
  2
HIDDEN
 70
    64
  3
 _ _ _ _ _ _ _ _ _ _ _ _ _ _ _ _ _ _ _ _ _ _
 72
    65
 73
     2
 40
0.000165
 49
0.000110
 49
-0.000055
  0
LTYPE
  2
CENTER
 70
    64
  3
____ _ ____ _ ____ _ ____ _ ____ _ ____ _ ____
 72
    65
 73
     4
 40
0.000880
 49
0.000550
 49
-0.000110
 49
0.000110
 49
-0.000110
  0
LTYPE
  2
PHANTOM
 70
    64
  3
_____ _ _ _____ _ _ _____ _ _ _____ _ _ ____
 72
    65
 73
     6
 40
0.001100
 49
0.000550
 49
-0.000110
 49
0.000110
 49
-0.000110
 49
0.000110
 49
-0.000110
  0
LTYPE
  2
DOT
 70
    64
  3
...............................................
 72
    65
 73
     2
 40
0.000110
 49
0.000000
 49
-0.000110
  0
LTYPE
  2
DASHDOT
 70
    64
  3
__ . __ . __ . __ . __ . __ . __ . __ . __ . __
 72
    65
 73
     4
 40
0.000440
 49
0.000220
 49
-0.000110
 49
0.000000
 49
-0.000110
  0
LTYPE
  2
BORDER
 70
    64
  3
__ __ . __ __ . __ __ . __ __ . __ __ . __ __
 72
    65
 73
     6
 40
0.000770
 49
0.000220
 49
-0.000110
 49
0.000220
 49
-0.000110
 49
0.000000
 49
-0.000110
  0
LTYPE
  2
DIVIDE
 70
    64
  3
__ . . __ . . __ . . __ . . __ . . __ . . __
 72
    65
 73
     6
 40
0.000550
 49
0.000220
 49
-0.000110
 49
0.000000
 49
-0.000110
 49
0.000000
 49
-0.000110
  0
LTYPE
  2
DOTDOT
 70
    64
  3
 . .  . .  . .  . .  . .  . . 
 72
    65
 73
     5
 40
0.000242
 49
-0.000110
 49
0.000000
 49
-0.000110
 49
0.000000
 49
-0.000110
  0
ENDTAB
  0
TABLE
  2
STYLE
 70
     2
  0
STYLE
 70
     0
  2
SN0
 40
0.000000
 41
0.000440
 50
0.000000
 71
     0
 42
0.000000
  3
ROMAND
  0
STYLE
 70
    68
  2
SV0
 40
0.000000
 41
0.000440
 50
0.000000
 71
     0
 42
0.000000
  3
ROMAND
  0
ENDTAB
  0
TABLE
  2
LAYER
 70
     3
  0
LAYER
  2
FOREGROUND
 70
    64
 62
     7
  6
CONTINUOUS
  0
LAYER
  2
BACKGROUND
 70
    65
 62
    -7
  6
CONTINUOUS
  0
LAYER
  2
0
 70
    64
 62
     7
  6
CONTINUOUS
  0
ENDTAB
  0
ENDSEC
  0
SECTION
  2
ENTITIES
  0
POLYLINE
  8
FOREGROUND
  6
CONTINUOUS
 66
     1
 40
0.000000
 41
0.000000
  0
VERTEX
  8
FOREGROUND
  6
CONTINUOUS
 10
0.000000
 20
10.999560
  0
VERTEX
  8
FOREGROUND
  6
CONTINUOUS
 10
8.499920
 20
10.999560
  0
VERTEX
  8
FOREGROUND
  6
CONTINUOUS
 10
8.499920
 20
-0.000440
  0
VERTEX
  8
FOREGROUND
  6
CONTINUOUS
 10
0.000000
 20
-0.000440
  0
VERTEX
  8
FOREGROUND
  6
CONTINUOUS
 10
0.000000
 20
10.999560
  0
SEQEND
  8
0
  0
POLYLINE
  8
FOREGROUND
  6
CONTINUOUS
 66
     1
 40
0.000000
 41
0.000000
  0
VERTEX
  8
FOREGROUND
  6
CONTINUOUS
 10
0.000000
 20
10.999560
  0
VERTEX
  8
FOREGROUND
  6
CONTINUOUS
 10
8.499920
 20
10.999560
  0
VERTEX
  8
FOREGROUND
  6
CONTINUOUS
 10
8.499920
 20
-0.000440
  0
VERTEX
  8
FOREGROUND
  6
CONTINUOUS
 10
0.000000
 20
-0.000440
  0
VERTEX
  8
FOREGROUND
  6
CONTINUOUS
 10
0.000000
 20
10.999560
  0
SEQEND
  8
0
  0
SOLID
  8
0
 62
    15
 10
4.485360
 20
5.054280
 11
5.139200
 21
5.430480
 12
4.531120
 22
5.053840
 13
5.184960
 23
5.430040
  0
POLYLINE
  8
0
  6
CONTINUOUS
 66
     1
 40
0.000000
 41
0.000000
  0
VERTEX
  8
0
  6
CONTINUOUS
 10
4.485360
 20
5.054280
  0
VERTEX
  8
0
  6
CONTINUOUS
 10
5.139200
 20
5.430480
  0
VERTEX
  8
0
  6
CONTINUOUS
 10
5.184960
 20
5.430040
  0
VERTEX
  8
0
  6
CONTINUOUS
 10
4.531120
 20
5.053840
  0
VERTEX
  8
0
  6
CONTINUOUS
 10
4.485360
 20
5.054280
  0
SEQEND
  8
0
  0
SOLID
  8
0
 62
    15
 10
3.499320
 20
5.362280
 11
4.153160
 21
5.738480
 12
3.531000
 22
5.358760
 13
4.184840
 23
5.734520
  0
POLYLINE
  8
0
  6
CONTINUOUS
 66
     1
 40
0.000000
 41
0.000000
  0
VERTEX
  8
0
  6
CONTINUOUS
 10
3.499320
 20
5.362280
  0
VERTEX
  8
0
  6
CONTINUOUS
 10
4.153160
 20
5.738480
  0
VERTEX
  8
0
  6
CONTINUOUS
 10
4.184840
 20
5.734520
  0
VERTEX
  8
0
  6
CONTINUOUS
 10
3.531000
 20
5.358760
  0
VERTEX
  8
0
  6
CONTINUOUS
 10
3.499320
 20
5.362280
  0
SEQEND
  8
0
  0
SOLID
  8
0
 62
    15
 10
3.531000
 20
5.358760
 11
4.184840
 21
5.734520
 12
3.557840
 22
5.348640
 13
4.211680
 23
5.724840
  0
POLYLINE
  8
0
  6
CONTINUOUS
 66
     1
 40
0.000000
 41
0.000000
  0
VERTEX
  8
0
  6
CONTINUOUS
 10
3.531000
 20
5.358760
  0
VERTEX
  8
0
  6
CONTINUOUS
 10
4.184840
 20
5.734520
  0
VERTEX
  8
0
  6
CONTINUOUS
 10
4.211680
 20
5.724840
  0
VERTEX
  8
0
  6
CONTINUOUS
 10
3.557840
 20
5.348640
  0
VERTEX
  8
0
  6
CONTINUOUS
 10
3.531000
 20
5.358760
  0
SEQEND
  8
0
  0
SOLID
  8
0
 62
    15
 10
3.557840
 20
5.348640
 11
4.211680
 21
5.724840
 12
3.580280
 22
5.333240
 13
4.234120
 23
5.709440
  0
POLYLINE
  8
0
  6
CONTINUOUS
 66
     1
 40
0.000000
 41
0.000000
  0
VERTEX
  8
0
  6
CONTINUOUS
 10
3.557840
 20
5.348640
  0
VERTEX
  8
0
  6
CONTINUOUS
 10
4.211680
 20
5.724840
  0
VERTEX
  8
0
  6
CONTINUOUS
 10
4.234120
 20
5.709440
  0
VERTEX
  8
0
  6
CONTINUOUS
 10
3.580280
 20
5.333240
  0
VERTEX
  8
0
  6
CONTINUOUS
 10
3.557840
 20
5.348640
  0
SEQEND
  8
0
  0
SOLID
  8
0
 62
    15
 10
3.580280
 20
5.333240
 11
4.234120
 21
5.709440
 12
3.600520
 22
5.313440
 13
4.254360
 23
5.689640
  0
POLYLINE
  8
0
  6
CONTINUOUS
 66
     1
 40
0.000000
 41
0.000000
  0
VERTEX
  8
0
  6
CONTINUOUS
 10
3.580280
 20
5.333240
  0
VERTEX
  8
0
  6
CONTINUOUS
 10
4.234120
 20
5.709440
  0
VERTEX
  8
0
  6
CONTINUOUS
 10
4.254360
 20
5.689640
  0
VERTEX
  8
0
  6
CONTINUOUS
 10
3.600520
 20
5.313440
  0
VERTEX
  8
0
  6
CONTINUOUS
 10
3.580280
 20
5.333240
  0
SEQEND
  8
0
  0
SOLID
  8
0
 62
    15
 10
3.600520
 20
5.313440
 11
4.254360
 21
5.689640
 12
3.637480
 22
5.263720
 13
4.291320
 23
5.639920
  0
POLYLINE
  8
0
  6
CONTINUOUS
 66
     1
 40
0.000000
 41
0.000000
  0
VERTEX
  8
0
  6
CONTINUOUS
 10
3.600520
 20
5.313440
  0
VERTEX
  8
0
  6
CONTINUOUS
 10
4.254360
 20
5.689640
  0
VERTEX
  8
0
  6
CONTINUOUS
 10
4.291320
 20
5.639920
  0
VERTEX
  8
0
  6
CONTINUOUS
 10
3.637480
 20
5.263720
  0
VERTEX
  8
0
  6
CONTINUOUS
 10
3.600520
 20
5.313440
  0
SEQEND
  8
0
  0
SOLID
  8
0
 62
    15
 10
3.637480
 20
5.263720
 11
4.291320
 21
5.639920
 12
3.647160
 22
5.250080
 13
4.301000
 23
5.626280
  0
POLYLINE
  8
0
  6
CONTINUOUS
 66
     1
 40
0.000000
 41
0.000000
  0
VERTEX
  8
0
  6
CONTINUOUS
 10
3.637480
 20
5.263720
  0
VERTEX
  8
0
  6
CONTINUOUS
 10
4.291320
 20
5.639920
  0
VERTEX
  8
0
  6
CONTINUOUS
 10
4.301000
 20
5.626280
  0
VERTEX
  8
0
  6
CONTINUOUS
 10
3.647160
 20
5.250080
  0
VERTEX
  8
0
  6
CONTINUOUS
 10
3.637480
 20
5.263720
  0
SEQEND
  8
0
  0
SOLID
  8
0
 62
    15
 10
3.647160
 20
5.250080
 11
4.301000
 21
5.626280
 12
3.656840
 22
5.236000
 13
4.310680
 23
5.612200
  0
POLYLINE
  8
0
  6
CONTINUOUS
 66
     1
 40
0.000000
 41
0.000000
  0
VERTEX
  8
0
  6
CONTINUOUS
 10
3.647160
 20
5.250080
  0
VERTEX
  8
0
  6
CONTINUOUS
 10
4.301000
 20
5.626280
  0
VERTEX
  8
0
  6
CONTINUOUS
 10
4.310680
 20
5.612200
  0
VERTEX
  8
0
  6
CONTINUOUS
 10
3.656840
 20
5.236000
  0
VERTEX
  8
0
  6
CONTINUOUS
 10
3.647160
 20
5.250080
  0
SEQEND
  8
0
  0
SOLID
  8
0
 62
    15
 10
3.656840
 20
5.236000
 11
4.310680
 21
5.612200
 12
3.678400
 22
5.206960
 13
4.332680
 23
5.583160
  0
POLYLINE
  8
0
  6
CONTINUOUS
 66
     1
 40
0.000000
 41
0.000000
  0
VERTEX
  8
0
  6
CONTINUOUS
 10
3.656840
 20
5.236000
  0
VERTEX
  8
0
  6
CONTINUOUS
 10
4.310680
 20
5.612200
  0
VERTEX
  8
0
  6
CONTINUOUS
 10
4.332680
 20
5.583160
  0
VERTEX
  8
0
  6
CONTINUOUS
 10
3.678400
 20
5.206960
  0
VERTEX
  8
0
  6
CONTINUOUS
 10
3.656840
 20
5.236000
  0
SEQEND
  8
0
  0
SOLID
  8
0
 62
    15
 10
3.678400
 20
5.206960
 11
4.332680
 21
5.583160
 12
3.703480
 22
5.178360
 13
4.357760
 23
5.554560
  0
POLYLINE
  8
0
  6
CONTINUOUS
 66
     1
 40
0.000000
 41
0.000000
  0
VERTEX
  8
0
  6
CONTINUOUS
 10
3.678400
 20
5.206960
  0
VERTEX
  8
0
  6
CONTINUOUS
 10
4.332680
 20
5.583160
  0
VERTEX
  8
0
  6
CONTINUOUS
 10
4.357760
 20
5.554560
  0
VERTEX
  8
0
  6
CONTINUOUS
 10
3.703480
 20
5.178360
  0
VERTEX
  8
0
  6
CONTINUOUS
 10
3.678400
 20
5.206960
  0
SEQEND
  8
0
  0
SOLID
  8
0
 62
    15
 10
3.703480
 20
5.178360
 11
4.357760
 21
5.554560
 12
3.733400
 22
5.150200
 13
4.387240
 23
5.526400
  0
POLYLINE
  8
0
  6
CONTINUOUS
 66
     1
 40
0.000000
 41
0.000000
  0
VERTEX
  8
0
  6
CONTINUOUS
 10
3.703480
 20
5.178360
  0
VERTEX
  8
0
  6
CONTINUOUS
 10
4.357760
 20
5.554560
  0
VERTEX
  8
0
  6
CONTINUOUS
 10
4.387240
 20
5.526400
  0
VERTEX
  8
0
  6
CONTINUOUS
 10
3.733400
 20
5.150200
  0
VERTEX
  8
0
  6
CONTINUOUS
 10
3.703480
 20
5.178360
  0
SEQEND
  8
0
  0
SOLID
  8
0
 62
    15
 10
3.733400
 20
5.150200
 11
4.387240
 21
5.526400
 12
3.769040
 22
5.124240
 13
4.422880
 23
5.500440
  0
POLYLINE
  8
0
  6
CONTINUOUS
 66
     1
 40
0.000000
 41
0.000000
  0
VERTEX
  8
0
  6
CONTINUOUS
 10
3.733400
 20
5.150200
  0
VERTEX
  8
0
  6
CONTINUOUS
 10
4.387240
 20
5.526400
  0
VERTEX
  8
0
  6
CONTINUOUS
 10
4.422880
 20
5.500440
  0
VERTEX
  8
0
  6
CONTINUOUS
 10
3.769040
 20
5.124240
  0
VERTEX
  8
0
  6
CONTINUOUS
 10
3.733400
 20
5.150200
  0
SEQEND
  8
0
  0
SOLID
  8
0
 62
    15
 10
3.769040
 20
5.124240
 11
4.422880
 21
5.500440
 12
3.811720
 22
5.100920
 13
4.465560
 23
5.477120
  0
POLYLINE
  8
0
  6
CONTINUOUS
 66
     1
 40
0.000000
 41
0.000000
  0
VERTEX
  8
0
  6
CONTINUOUS
 10
3.769040
 20
5.124240
  0
VERTEX
  8
0
  6
CONTINUOUS
 10
4.422880
 20
5.500440
  0
VERTEX
  8
0
  6
CONTINUOUS
 10
4.465560
 20
5.477120
  0
VERTEX
  8
0
  6
CONTINUOUS
 10
3.811720
 20
5.100920
  0
VERTEX
  8
0
  6
CONTINUOUS
 10
3.769040
 20
5.124240
  0
SEQEND
  8
0
  0
SOLID
  8
0
 62
    15
 10
3.811720
 20
5.100920
 11
4.465560
 21
5.477120
 12
3.862760
 22
5.081560
 13
4.516600
 23
5.457320
  0
POLYLINE
  8
0
  6
CONTINUOUS
 66
     1
 40
0.000000
 41
0.000000
  0
VERTEX
  8
0
  6
CONTINUOUS
 10
3.811720
 20
5.100920
  0
VERTEX
  8
0
  6
CONTINUOUS
 10
4.465560
 20
5.477120
  0
VERTEX
  8
0
  6
CONTINUOUS
 10
4.516600
 20
5.457320
  0
VERTEX
  8
0
  6
CONTINUOUS
 10
3.862760
 20
5.081560
  0
VERTEX
  8
0
  6
CONTINUOUS
 10
3.811720
 20
5.100920
  0
SEQEND
  8
0
  0
SOLID
  8
0
 62
    15
 10
3.862760
 20
5.081560
 11
4.516600
 21
5.457320
 12
3.923480
 22
5.066160
 13
4.577320
 23
5.442360
  0
POLYLINE
  8
0
  6
CONTINUOUS
 66
     1
 40
0.000000
 41
0.000000
  0
VERTEX
  8
0
  6
CONTINUOUS
 10
3.862760
 20
5.081560
  0
VERTEX
  8
0
  6
CONTINUOUS
 10
4.516600
 20
5.457320
  0
VERTEX
  8
0
  6
CONTINUOUS
 10
4.577320
 20
5.442360
  0
VERTEX
  8
0
  6
CONTINUOUS
 10
3.923480
 20
5.066160
  0
VERTEX
  8
0
  6
CONTINUOUS
 10
3.862760
 20
5.081560
  0
SEQEND
  8
0
  0
SOLID
  8
0
 62
    15
 10
3.923480
 20
5.066160
 11
4.577320
 21
5.442360
 12
3.994760
 22
5.056480
 13
4.649040
 23
5.432680
  0
POLYLINE
  8
0
  6
CONTINUOUS
 66
     1
 40
0.000000
 41
0.000000
  0
VERTEX
  8
0
  6
CONTINUOUS
 10
3.923480
 20
5.066160
  0
VERTEX
  8
0
  6
CONTINUOUS
 10
4.577320
 20
5.442360
  0
VERTEX
  8
0
  6
CONTINUOUS
 10
4.649040
 20
5.432680
  0
VERTEX
  8
0
  6
CONTINUOUS
 10
3.994760
 20
5.056480
  0
VERTEX
  8
0
  6
CONTINUOUS
 10
3.923480
 20
5.066160
  0
SEQEND
  8
0
  0
SOLID
  8
0
 62
    15
 10
3.994760
 20
5.056480
 11
4.649040
 21
5.432680
 12
4.078360
 22
5.053400
 13
4.732200
 23
5.429600
  0
POLYLINE
  8
0
  6
CONTINUOUS
 66
     1
 40
0.000000
 41
0.000000
  0
VERTEX
  8
0
  6
CONTINUOUS
 10
3.994760
 20
5.056480
  0
VERTEX
  8
0
  6
CONTINUOUS
 10
4.649040
 20
5.432680
  0
VERTEX
  8
0
  6
CONTINUOUS
 10
4.732200
 20
5.429600
  0
VERTEX
  8
0
  6
CONTINUOUS
 10
4.078360
 20
5.053400
  0
VERTEX
  8
0
  6
CONTINUOUS
 10
3.994760
 20
5.056480
  0
SEQEND
  8
0
  0
SOLID
  8
0
 62
    15
 10
4.078360
 20
5.053400
 11
4.732200
 21
5.429600
 12
4.376680
 22
5.054280
 13
5.030520
 23
5.430480
  0
POLYLINE
  8
0
  6
CONTINUOUS
 66
     1
 40
0.000000
 41
0.000000
  0
VERTEX
  8
0
  6
CONTINUOUS
 10
4.078360
 20
5.053400
  0
VERTEX
  8
0
  6
CONTINUOUS
 10
4.732200
 20
5.429600
  0
VERTEX
  8
0
  6
CONTINUOUS
 10
5.030520
 20
5.430480
  0
VERTEX
  8
0
  6
CONTINUOUS
 10
4.376680
 20
5.054280
  0
VERTEX
  8
0
  6
CONTINUOUS
 10
4.078360
 20
5.053400
  0
SEQEND
  8
0
  0
SOLID
  8
0
 62
    15
 10
4.376680
 20
5.054280
 11
5.030520
 21
5.430480
 12
4.433880
 22
5.054280
 13
5.088160
 23
5.430480
  0
POLYLINE
  8
0
  6
CONTINUOUS
 66
     1
 40
0.000000
 41
0.000000
  0
VERTEX
  8
0
  6
CONTINUOUS
 10
4.376680
 20
5.054280
  0
VERTEX
  8
0
  6
CONTINUOUS
 10
5.030520
 20
5.430480
  0
VERTEX
  8
0
  6
CONTINUOUS
 10
5.088160
 20
5.430480
  0
VERTEX
  8
0
  6
CONTINUOUS
 10
4.433880
 20
5.054280
  0
VERTEX
  8
0
  6
CONTINUOUS
 10
4.376680
 20
5.054280
  0
SEQEND
  8
0
  0
SOLID
  8
0
 62
    15
 10
4.433880
 20
5.054280
 11
5.088160
 21
5.430480
 12
4.485360
 22
5.054280
 13
5.139200
 23
5.430480
  0
POLYLINE
  8
0
  6
CONTINUOUS
 66
     1
 40
0.000000
 41
0.000000
  0
VERTEX
  8
0
  6
CONTINUOUS
 10
4.433880
 20
5.054280
  0
VERTEX
  8
0
  6
CONTINUOUS
 10
5.088160
 20
5.430480
  0
VERTEX
  8
0
  6
CONTINUOUS
 10
5.139200
 20
5.430480
  0
VERTEX
  8
0
  6
CONTINUOUS
 10
4.485360
 20
5.054280
  0
VERTEX
  8
0
  6
CONTINUOUS
 10
4.433880
 20
5.054280
  0
SEQEND
  8
0
  0
SOLID
  8
0
 62
    15
 10
2.731520
 20
5.362280
 11
3.385360
 21
5.738480
 12
3.499320
 22
5.362280
 13
4.153160
 23
5.738480
  0
POLYLINE
  8
0
  6
CONTINUOUS
 66
     1
 40
0.000000
 41
0.000000
  0
VERTEX
  8
0
  6
CONTINUOUS
 10
2.731520
 20
5.362280
  0
VERTEX
  8
0
  6
CONTINUOUS
 10
3.385360
 20
5.738480
  0
VERTEX
  8
0
  6
CONTINUOUS
 10
4.153160
 20
5.738480
  0
VERTEX
  8
0
  6
CONTINUOUS
 10
3.499320
 20
5.362280
  0
VERTEX
  8
0
  6
CONTINUOUS
 10
2.731520
 20
5.362280
  0
SEQEND
  8
0
  0
SOLID
  8
0
 62
    15
 10
4.531120
 20
5.053840
 11
5.184960
 21
5.430040
 12
4.571600
 22
5.053400
 13
5.225880
 23
5.429600
  0
POLYLINE
  8
0
  6
CONTINUOUS
 66
     1
 40
0.000000
 41
0.000000
  0
VERTEX
  8
0
  6
CONTINUOUS
 10
4.531120
 20
5.053840
  0
VERTEX
  8
0
  6
CONTINUOUS
 10
5.184960
 20
5.430040
  0
VERTEX
  8
0
  6
CONTINUOUS
 10
5.225880
 20
5.429600
  0
VERTEX
  8
0
  6
CONTINUOUS
 10
4.571600
 20
5.053400
  0
VERTEX
  8
0
  6
CONTINUOUS
 10
4.531120
 20
5.053840
  0
SEQEND
  8
0
  0
SOLID
  8
0
 62
    15
 10
4.571600
 20
5.053400
 11
5.225880
 21
5.429600
 12
4.607680
 22
5.052520
 13
5.261520
 23
5.428720
  0
POLYLINE
  8
0
  6
CONTINUOUS
 66
     1
 40
0.000000
 41
0.000000
  0
VERTEX
  8
0
  6
CONTINUOUS
 10
4.571600
 20
5.053400
  0
VERTEX
  8
0
  6
CONTINUOUS
 10
5.225880
 20
5.429600
  0
VERTEX
  8
0
  6
CONTINUOUS
 10
5.261520
 20
5.428720
  0
VERTEX
  8
0
  6
CONTINUOUS
 10
4.607680
 20
5.052520
  0
VERTEX
  8
0
  6
CONTINUOUS
 10
4.571600
 20
5.053400
  0
SEQEND
  8
0
  0
SOLID
  8
0
 62
    15
 10
4.607680
 20
5.052520
 11
5.261520
 21
5.428720
 12
4.638920
 22
5.051640
 13
5.293200
 23
5.427840
  0
POLYLINE
  8
0
  6
CONTINUOUS
 66
     1
 40
0.000000
 41
0.000000
  0
VERTEX
  8
0
  6
CONTINUOUS
 10
4.607680
 20
5.052520
  0
VERTEX
  8
0
  6
CONTINUOUS
 10
5.261520
 20
5.428720
  0
VERTEX
  8
0
  6
CONTINUOUS
 10
5.293200
 20
5.427840
  0
VERTEX
  8
0
  6
CONTINUOUS
 10
4.638920
 20
5.051640
  0
VERTEX
  8
0
  6
CONTINUOUS
 10
4.607680
 20
5.052520
  0
SEQEND
  8
0
  0
SOLID
  8
0
 62
    15
 10
4.638920
 20
5.051640
 11
5.293200
 21
5.427840
 12
4.690840
 22
5.048560
 13
5.345120
 23
5.424320
  0
POLYLINE
  8
0
  6
CONTINUOUS
 66
     1
 40
0.000000
 41
0.000000
  0
VERTEX
  8
0
  6
CONTINUOUS
 10
4.638920
 20
5.051640
  0
VERTEX
  8
0
  6
CONTINUOUS
 10
5.293200
 20
5.427840
  0
VERTEX
  8
0
  6
CONTINUOUS
 10
5.345120
 20
5.424320
  0
VERTEX
  8
0
  6
CONTINUOUS
 10
4.690840
 20
5.048560
  0
VERTEX
  8
0
  6
CONTINUOUS
 10
4.638920
 20
5.051640
  0
SEQEND
  8
0
  0
SOLID
  8
0
 62
    15
 10
4.690840
 20
5.048560
 11
5.345120
 21
5.424320
 12
4.730880
 22
5.043720
 13
5.384720
 23
5.419480
  0
POLYLINE
  8
0
  6
CONTINUOUS
 66
     1
 40
0.000000
 41
0.000000
  0
VERTEX
  8
0
  6
CONTINUOUS
 10
4.690840
 20
5.048560
  0
VERTEX
  8
0
  6
CONTINUOUS
 10
5.345120
 20
5.424320
  0
VERTEX
  8
0
  6
CONTINUOUS
 10
5.384720
 20
5.419480
  0
VERTEX
  8
0
  6
CONTINUOUS
 10
4.730880
 20
5.043720
  0
VERTEX
  8
0
  6
CONTINUOUS
 10
4.690840
 20
5.048560
  0
SEQEND
  8
0
  0
SOLID
  8
0
 62
    15
 10
4.730880
 20
5.043720
 11
5.384720
 21
5.419480
 12
4.762120
 22
5.036680
 13
5.415960
 23
5.412880
  0
POLYLINE
  8
0
  6
CONTINUOUS
 66
     1
 40
0.000000
 41
0.000000
  0
VERTEX
  8
0
  6
CONTINUOUS
 10
4.730880
 20
5.043720
  0
VERTEX
  8
0
  6
CONTINUOUS
 10
5.384720
 20
5.419480
  0
VERTEX
  8
0
  6
CONTINUOUS
 10
5.415960
 20
5.412880
  0
VERTEX
  8
0
  6
CONTINUOUS
 10
4.762120
 20
5.036680
  0
VERTEX
  8
0
  6
CONTINUOUS
 10
4.730880
 20
5.043720
  0
SEQEND
  8
0
  0
SOLID
  8
0
 62
    15
 10
4.762120
 20
5.036680
 11
5.415960
 21
5.412880
 12
4.796440
 22
5.026120
 13
5.450280
 23
5.402320
  0
POLYLINE
  8
0
  6
CONTINUOUS
 66
     1
 40
0.000000
 41
0.000000
  0
VERTEX
  8
0
  6
CONTINUOUS
 10
4.762120
 20
5.036680
  0
VERTEX
  8
0
  6
CONTINUOUS
 10
5.415960
 20
5.412880
  0
VERTEX
  8
0
  6
CONTINUOUS
 10
5.450280
 20
5.402320
  0
VERTEX
  8
0
  6
CONTINUOUS
 10
4.796440
 20
5.026120
  0
VERTEX
  8
0
  6
CONTINUOUS
 10
4.762120
 20
5.036680
  0
SEQEND
  8
0
  0
SOLID
  8
0
 62
    15
 10
4.796440
 20
5.026120
 11
5.450280
 21
5.402320
 12
4.840440
 22
5.007640
 13
5.494720
 23
5.383840
  0
POLYLINE
  8
0
  6
CONTINUOUS
 66
     1
 40
0.000000
 41
0.000000
  0
VERTEX
  8
0
  6
CONTINUOUS
 10
4.796440
 20
5.026120
  0
VERTEX
  8
0
  6
CONTINUOUS
 10
5.450280
 20
5.402320
  0
VERTEX
  8
0
  6
CONTINUOUS
 10
5.494720
 20
5.383840
  0
VERTEX
  8
0
  6
CONTINUOUS
 10
4.840440
 20
5.007640
  0
VERTEX
  8
0
  6
CONTINUOUS
 10
4.796440
 20
5.026120
  0
SEQEND
  8
0
  0
SOLID
  8
0
 62
    15
 10
4.840440
 20
5.007640
 11
5.494720
 21
5.383840
 12
4.891480
 22
4.977720
 13
5.545320
 23
5.353920
  0
POLYLINE
  8
0
  6
CONTINUOUS
 66
     1
 40
0.000000
 41
0.000000
  0
VERTEX
  8
0
  6
CONTINUOUS
 10
4.840440
 20
5.007640
  0
VERTEX
  8
0
  6
CONTINUOUS
 10
5.494720
 20
5.383840
  0
VERTEX
  8
0
  6
CONTINUOUS
 10
5.545320
 20
5.353920
  0
VERTEX
  8
0
  6
CONTINUOUS
 10
4.891480
 20
4.977720
  0
VERTEX
  8
0
  6
CONTINUOUS
 10
4.840440
 20
5.007640
  0
SEQEND
  8
0
  0
SOLID
  8
0
 62
    15
 10
4.891480
 20
4.977720
 11
5.545320
 21
5.353920
 12
4.917880
 22
4.957480
 13
5.571720
 23
5.333680
  0
POLYLINE
  8
0
  6
CONTINUOUS
 66
     1
 40
0.000000
 41
0.000000
  0
VERTEX
  8
0
  6
CONTINUOUS
 10
4.891480
 20
4.977720
  0
VERTEX
  8
0
  6
CONTINUOUS
 10
5.545320
 20
5.353920
  0
VERTEX
  8
0
  6
CONTINUOUS
 10
5.571720
 20
5.333680
  0
VERTEX
  8
0
  6
CONTINUOUS
 10
4.917880
 20
4.957480
  0
VERTEX
  8
0
  6
CONTINUOUS
 10
4.891480
 20
4.977720
  0
SEQEND
  8
0
  0
SOLID
  8
0
 62
    15
 10
4.917880
 20
4.957480
 11
5.571720
 21
5.333680
 12
4.944720
 22
4.933280
 13
5.598560
 23
5.309040
  0
POLYLINE
  8
0
  6
CONTINUOUS
 66
     1
 40
0.000000
 41
0.000000
  0
VERTEX
  8
0
  6
CONTINUOUS
 10
4.917880
 20
4.957480
  0
VERTEX
  8
0
  6
CONTINUOUS
 10
5.571720
 20
5.333680
  0
VERTEX
  8
0
  6
CONTINUOUS
 10
5.598560
 20
5.309040
  0
VERTEX
  8
0
  6
CONTINUOUS
 10
4.944720
 20
4.933280
  0
VERTEX
  8
0
  6
CONTINUOUS
 10
4.917880
 20
4.957480
  0
SEQEND
  8
0
  0
SOLID
  8
0
 62
    15
 10
4.944720
 20
4.933280
 11
5.598560
 21
5.309040
 12
4.971560
 22
4.903800
 13
5.625400
 23
5.280000
  0
POLYLINE
  8
0
  6
CONTINUOUS
 66
     1
 40
0.000000
 41
0.000000
  0
VERTEX
  8
0
  6
CONTINUOUS
 10
4.944720
 20
4.933280
  0
VERTEX
  8
0
  6
CONTINUOUS
 10
5.598560
 20
5.309040
  0
VERTEX
  8
0
  6
CONTINUOUS
 10
5.625400
 20
5.280000
  0
VERTEX
  8
0
  6
CONTINUOUS
 10
4.971560
 20
4.903800
  0
VERTEX
  8
0
  6
CONTINUOUS
 10
4.944720
 20
4.933280
  0
SEQEND
  8
0
  0
SOLID
  8
0
 62
    15
 10
4.971560
 20
4.903800
 11
5.625400
 21
5.280000
 12
4.997520
 22
4.869920
 13
5.651360
 23
5.246120
  0
POLYLINE
  8
0
  6
CONTINUOUS
 66
     1
 40
0.000000
 41
0.000000
  0
VERTEX
  8
0
  6
CONTINUOUS
 10
4.971560
 20
4.903800
  0
VERTEX
  8
0
  6
CONTINUOUS
 10
5.625400
 20
5.280000
  0
VERTEX
  8
0
  6
CONTINUOUS
 10
5.651360
 20
5.246120
  0
VERTEX
  8
0
  6
CONTINUOUS
 10
4.997520
 20
4.869920
  0
VERTEX
  8
0
  6
CONTINUOUS
 10
4.971560
 20
4.903800
  0
SEQEND
  8
0
  0
SOLID
  8
0
 62
    15
 10
4.997520
 20
4.869920
 11
5.651360
 21
5.246120
 12
5.022600
 22
4.830320
 13
5.676440
 23
5.206520
  0
POLYLINE
  8
0
  6
CONTINUOUS
 66
     1
 40
0.000000
 41
0.000000
  0
VERTEX
  8
0
  6
CONTINUOUS
 10
4.997520
 20
4.869920
  0
VERTEX
  8
0
  6
CONTINUOUS
 10
5.651360
 20
5.246120
  0
VERTEX
  8
0
  6
CONTINUOUS
 10
5.676440
 20
5.206520
  0
VERTEX
  8
0
  6
CONTINUOUS
 10
5.022600
 20
4.830320
  0
VERTEX
  8
0
  6
CONTINUOUS
 10
4.997520
 20
4.869920
  0
SEQEND
  8
0
  0
SOLID
  8
0
 62
    15
 10
5.022600
 20
4.830320
 11
5.676440
 21
5.206520
 12
5.045920
 22
4.785000
 13
5.699760
 23
5.160760
  0
POLYLINE
  8
0
  6
CONTINUOUS
 66
     1
 40
0.000000
 41
0.000000
  0
VERTEX
  8
0
  6
CONTINUOUS
 10
5.022600
 20
4.830320
  0
VERTEX
  8
0
  6
CONTINUOUS
 10
5.676440
 20
5.206520
  0
VERTEX
  8
0
  6
CONTINUOUS
 10
5.699760
 20
5.160760
  0
VERTEX
  8
0
  6
CONTINUOUS
 10
5.045920
 20
4.785000
  0
VERTEX
  8
0
  6
CONTINUOUS
 10
5.022600
 20
4.830320
  0
SEQEND
  8
0
  0
SOLID
  8
0
 62
    15
 10
5.045920
 20
4.785000
 11
5.699760
 21
5.160760
 12
5.067040
 22
4.733080
 13
5.721320
 23
5.109280
  0
POLYLINE
  8
0
  6
CONTINUOUS
 66
     1
 40
0.000000
 41
0.000000
  0
VERTEX
  8
0
  6
CONTINUOUS
 10
5.045920
 20
4.785000
  0
VERTEX
  8
0
  6
CONTINUOUS
 10
5.699760
 20
5.160760
  0
VERTEX
  8
0
  6
CONTINUOUS
 10
5.721320
 20
5.109280
  0
VERTEX
  8
0
  6
CONTINUOUS
 10
5.067040
 20
4.733080
  0
VERTEX
  8
0
  6
CONTINUOUS
 10
5.045920
 20
4.785000
  0
SEQEND
  8
0
  0
SOLID
  8
0
 62
    15
 10
5.067040
 20
4.733080
 11
5.721320
 21
5.109280
 12
5.086400
 22
4.674560
 13
5.740240
 23
5.050320
  0
POLYLINE
  8
0
  6
CONTINUOUS
 66
     1
 40
0.000000
 41
0.000000
  0
VERTEX
  8
0
  6
CONTINUOUS
 10
5.067040
 20
4.733080
  0
VERTEX
  8
0
  6
CONTINUOUS
 10
5.721320
 20
5.109280
  0
VERTEX
  8
0
  6
CONTINUOUS
 10
5.740240
 20
5.050320
  0
VERTEX
  8
0
  6
CONTINUOUS
 10
5.086400
 20
4.674560
  0
VERTEX
  8
0
  6
CONTINUOUS
 10
5.067040
 20
4.733080
  0
SEQEND
  8
0
  0
SOLID
  8
0
 62
    15
 10
5.086400
 20
4.674560
 11
5.740240
 21
5.050320
 12
5.102240
 22
4.608560
 13
5.756080
 23
4.984760
  0
POLYLINE
  8
0
  6
CONTINUOUS
 66
     1
 40
0.000000
 41
0.000000
  0
VERTEX
  8
0
  6
CONTINUOUS
 10
5.086400
 20
4.674560
  0
VERTEX
  8
0
  6
CONTINUOUS
 10
5.740240
 20
5.050320
  0
VERTEX
  8
0
  6
CONTINUOUS
 10
5.756080
 20
4.984760
  0
VERTEX
  8
0
  6
CONTINUOUS
 10
5.102240
 20
4.608560
  0
VERTEX
  8
0
  6
CONTINUOUS
 10
5.086400
 20
4.674560
  0
SEQEND
  8
0
  0
SOLID
  8
0
 62
    15
 10
5.102240
 20
4.608560
 11
5.756080
 21
4.984760
 12
5.115000
 22
4.535080
 13
5.768840
 23
4.911280
  0
POLYLINE
  8
0
  6
CONTINUOUS
 66
     1
 40
0.000000
 41
0.000000
  0
VERTEX
  8
0
  6
CONTINUOUS
 10
5.102240
 20
4.608560
  0
VERTEX
  8
0
  6
CONTINUOUS
 10
5.756080
 20
4.984760
  0
VERTEX
  8
0
  6
CONTINUOUS
 10
5.768840
 20
4.911280
  0
VERTEX
  8
0
  6
CONTINUOUS
 10
5.115000
 20
4.535080
  0
VERTEX
  8
0
  6
CONTINUOUS
 10
5.102240
 20
4.608560
  0
SEQEND
  8
0
  0
SOLID
  8
0
 62
    15
 10
2.731080
 20
4.535080
 11
3.385360
 21
4.911280
 12
2.731080
 22
4.535080
 13
2.731520
 23
4.535080
  0
POLYLINE
  8
0
  6
CONTINUOUS
 66
     1
 40
0.000000
 41
0.000000
  0
VERTEX
  8
0
  6
CONTINUOUS
 10
2.731080
 20
4.535080
  0
VERTEX
  8
0
  6
CONTINUOUS
 10
3.385360
 20
4.911280
  0
VERTEX
  8
0
  6
CONTINUOUS
 10
2.731520
 20
4.535080
  0
VERTEX
  8
0
  6
CONTINUOUS
 10
2.731080
 20
4.535080
  0
SEQEND
  8
0
  0
POLYLINE
  8
0
  6
CONTINUOUS
 66
     1
 40
0.000000
 41
0.000000
  0
VERTEX
  8
0
  6
CONTINUOUS
 10
2.731520
 20
4.535080
  0
VERTEX
  8
0
  6
CONTINUOUS
 10
2.731520
 20
5.362280
  0
VERTEX
  8
0
  6
CONTINUOUS
 10
3.499320
 20
5.362280
  0
VERTEX
  8
0
  6
CONTINUOUS
 10
3.531000
 20
5.358760
  0
VERTEX
  8
0
  6
CONTINUOUS
 10
3.557840
 20
5.348640
  0
VERTEX
  8
0
  6
CONTINUOUS
 10
3.580280
 20
5.333240
  0
VERTEX
  8
0
  6
CONTINUOUS
 10
3.600520
 20
5.313440
  0
VERTEX
  8
0
  6
CONTINUOUS
 10
3.637480
 20
5.263720
  0
VERTEX
  8
0
  6
CONTINUOUS
 10
3.647160
 20
5.250080
  0
VERTEX
  8
0
  6
CONTINUOUS
 10
3.656840
 20
5.236000
  0
VERTEX
  8
0
  6
CONTINUOUS
 10
3.678400
 20
5.206960
  0
VERTEX
  8
0
  6
CONTINUOUS
 10
3.703480
 20
5.178360
  0
VERTEX
  8
0
  6
CONTINUOUS
 10
3.733400
 20
5.150200
  0
VERTEX
  8
0
  6
CONTINUOUS
 10
3.769040
 20
5.124240
  0
VERTEX
  8
0
  6
CONTINUOUS
 10
3.811720
 20
5.100920
  0
VERTEX
  8
0
  6
CONTINUOUS
 10
3.862760
 20
5.081560
  0
VERTEX
  8
0
  6
CONTINUOUS
 10
3.923480
 20
5.066160
  0
VERTEX
  8
0
  6
CONTINUOUS
 10
3.994760
 20
5.056480
  0
VERTEX
  8
0
  6
CONTINUOUS
 10
4.078360
 20
5.053400
  0
VERTEX
  8
0
  6
CONTINUOUS
 10
4.376680
 20
5.054280
  0
VERTEX
  8
0
  6
CONTINUOUS
 10
4.433880
 20
5.054280
  0
VERTEX
  8
0
  6
CONTINUOUS
 10
4.485360
 20
5.054280
  0
VERTEX
  8
0
  6
CONTINUOUS
 10
4.531120
 20
5.053840
  0
VERTEX
  8
0
  6
CONTINUOUS
 10
4.571600
 20
5.053400
  0
VERTEX
  8
0
  6
CONTINUOUS
 10
4.607680
 20
5.052520
  0
VERTEX
  8
0
  6
CONTINUOUS
 10
4.638920
 20
5.051640
  0
VERTEX
  8
0
  6
CONTINUOUS
 10
4.690840
 20
5.048560
  0
VERTEX
  8
0
  6
CONTINUOUS
 10
4.730880
 20
5.043720
  0
VERTEX
  8
0
  6
CONTINUOUS
 10
4.762120
 20
5.036680
  0
VERTEX
  8
0
  6
CONTINUOUS
 10
4.796440
 20
5.026120
  0
VERTEX
  8
0
  6
CONTINUOUS
 10
4.840440
 20
5.007640
  0
VERTEX
  8
0
  6
CONTINUOUS
 10
4.891480
 20
4.977720
  0
VERTEX
  8
0
  6
CONTINUOUS
 10
4.917880
 20
4.957480
  0
VERTEX
  8
0
  6
CONTINUOUS
 10
4.944720
 20
4.933280
  0
VERTEX
  8
0
  6
CONTINUOUS
 10
4.971560
 20
4.903800
  0
VERTEX
  8
0
  6
CONTINUOUS
 10
4.997520
 20
4.869920
  0
VERTEX
  8
0
  6
CONTINUOUS
 10
5.022600
 20
4.830320
  0
VERTEX
  8
0
  6
CONTINUOUS
 10
5.045920
 20
4.785000
  0
VERTEX
  8
0
  6
CONTINUOUS
 10
5.067040
 20
4.733080
  0
VERTEX
  8
0
  6
CONTINUOUS
 10
5.086400
 20
4.674560
  0
VERTEX
  8
0
  6
CONTINUOUS
 10
5.102240
 20
4.608560
  0
VERTEX
  8
0
  6
CONTINUOUS
 10
5.115000
 20
4.535080
  0
VERTEX
  8
0
  6
CONTINUOUS
 10
2.731080
 20
4.535080
  0
VERTEX
  8
0
  6
CONTINUOUS
 10
2.731520
 20
4.535080
  0
SEQEND
  8
0
  0
TEXT
  8
0
 10
3.954720
 20
4.306280
 40
0.138023
  1
BA  904
 41
1.000000
  7
SN0
 71
     0
 72
     5
 11
4.544672
 21
4.306280
  0
TEXT
  8
0
 10
3.706560
 20
4.114880
 40
0.138023
  1
13/16" x 2-3/8"
 41
1.000000
  7
SN0
 71
     0
 72
     5
 11
4.791658
 21
4.114880
  0
POLYLINE
  8
0
  6
CONTINUOUS
 66
     1
 40
0.000000
 41
0.000000
  0
VERTEX
  8
0
  6
CONTINUOUS
 10
2.910600
 20
6.101040
  0
VERTEX
  8
0
  6
CONTINUOUS
 10
2.910600
 20
6.928240
  0
VERTEX
  8
0
  6
CONTINUOUS
 10
3.678400
 20
6.928240
  0
VERTEX
  8
0
  6
CONTINUOUS
 10
3.695120
 20
6.927360
  0
VERTEX
  8
0
  6
CONTINUOUS
 10
3.710080
 20
6.924720
  0
VERTEX
  8
0
  6
CONTINUOUS
 10
3.724160
 20
6.920320
  0
VERTEX
  8
0
  6
CONTINUOUS
 10
3.748800
 20
6.907560
  0
VERTEX
  8
0
  6
CONTINUOUS
 10
3.769920
 20
6.889960
  0
VERTEX
  8
0
  6
CONTINUOUS
 10
3.798520
 20
6.856080
  0
VERTEX
  8
0
  6
CONTINUOUS
 10
3.857920
 20
6.772920
  0
VERTEX
  8
0
  6
CONTINUOUS
 10
3.883000
 20
6.744320
  0
VERTEX
  8
0
  6
CONTINUOUS
 10
3.912480
 20
6.716160
  0
VERTEX
  8
0
  6
CONTINUOUS
 10
3.948120
 20
6.690200
  0
VERTEX
  8
0
  6
CONTINUOUS
 10
3.991240
 20
6.666880
  0
VERTEX
  8
0
  6
CONTINUOUS
 10
4.042280
 20
6.647080
  0
VERTEX
  8
0
  6
CONTINUOUS
 10
4.102560
 20
6.632120
  0
VERTEX
  8
0
  6
CONTINUOUS
 10
4.174280
 20
6.622440
  0
VERTEX
  8
0
  6
CONTINUOUS
 10
4.235440
 20
6.619360
  0
VERTEX
  8
0
  6
CONTINUOUS
 10
4.710200
 20
6.619800
  0
VERTEX
  8
0
  6
CONTINUOUS
 10
4.832520
 20
6.616720
  0
VERTEX
  8
0
  6
CONTINUOUS
 10
4.891480
 20
6.611880
  0
VERTEX
  8
0
  6
CONTINUOUS
 10
4.926240
 20
6.606160
  0
VERTEX
  8
0
  6
CONTINUOUS
 10
4.965840
 20
6.595160
  0
VERTEX
  8
0
  6
CONTINUOUS
 10
5.008080
 20
6.579320
  0
VERTEX
  8
0
  6
CONTINUOUS
 10
5.044600
 20
6.560400
  0
VERTEX
  8
0
  6
CONTINUOUS
 10
5.083760
 20
6.534000
  0
VERTEX
  8
0
  6
CONTINUOUS
 10
5.123800
 20
6.498800
  0
VERTEX
  8
0
  6
CONTINUOUS
 10
5.163840
 20
6.453480
  0
VERTEX
  8
0
  6
CONTINUOUS
 10
5.189360
 20
6.416520
  0
VERTEX
  8
0
  6
CONTINUOUS
 10
5.213560
 20
6.374280
  0
VERTEX
  8
0
  6
CONTINUOUS
 10
5.236000
 20
6.325440
  0
VERTEX
  8
0
  6
CONTINUOUS
 10
5.256240
 20
6.270440
  0
VERTEX
  8
0
  6
CONTINUOUS
 10
5.273840
 20
6.208400
  0
VERTEX
  8
0
  6
CONTINUOUS
 10
5.288360
 20
6.138880
  0
VERTEX
  8
0
  6
CONTINUOUS
 10
5.294080
 20
6.101040
  0
VERTEX
  8
0
  6
CONTINUOUS
 10
2.910600
 20
6.101040
  0
SEQEND
  8
0
  0
TEXT
  8
0
 10
3.485680
 20
6.362400
 40
0.138023
  1
BA  904
 41
1.000000
  7
SN0
 71
     0
 72
     5
 11
4.075632
 21
6.362400
  0
TEXT
  8
0
 10
3.237520
 20
6.170560
 40
0.138023
  1
13/16" x 2-3/8"
 41
1.000000
  7
SN0
 71
     0
 72
     5
 11
4.322618
 21
6.170560
  0
ENDSEC
  0
EOF
