  0
SECTION
  2
HEADER
  9
$ACADVER
  1
AC1006
  9
$EXTMIN
 10
1.564640
 20
0.766920
  9
$EXTMAX
 10
7.289040
 20
7.258680
  9
$LTSCALE
 40
0.044000
  9
$PDMODE
 70
    35
  9
$PDSIZE
 40
0.035200
  0
ENDSEC
  0
SECTION
  2
TABLES
  0
TABLE
  2
LTYPE
 70
     9
  0
LTYPE
  2
CONTINUOUS
 70
    64
  3
Solid line
 72
    65
 73
     0
 40
0.000000
  0
LTYPE
  2
DASHED
 70
    64
  3
__ __ __ __ __ __ __ __ __ __ __ __ __ __ __
 72
    65
 73
     2
 40
0.000330
 49
0.000220
 49
-0.000110
  0
LTYPE
  2
HIDDEN
 70
    64
  3
 _ _ _ _ _ _ _ _ _ _ _ _ _ _ _ _ _ _ _ _ _ _
 72
    65
 73
     2
 40
0.000165
 49
0.000110
 49
-0.000055
  0
LTYPE
  2
CENTER
 70
    64
  3
____ _ ____ _ ____ _ ____ _ ____ _ ____ _ ____
 72
    65
 73
     4
 40
0.000880
 49
0.000550
 49
-0.000110
 49
0.000110
 49
-0.000110
  0
LTYPE
  2
PHANTOM
 70
    64
  3
_____ _ _ _____ _ _ _____ _ _ _____ _ _ ____
 72
    65
 73
     6
 40
0.001100
 49
0.000550
 49
-0.000110
 49
0.000110
 49
-0.000110
 49
0.000110
 49
-0.000110
  0
LTYPE
  2
DOT
 70
    64
  3
...............................................
 72
    65
 73
     2
 40
0.000110
 49
0.000000
 49
-0.000110
  0
LTYPE
  2
DASHDOT
 70
    64
  3
__ . __ . __ . __ . __ . __ . __ . __ . __ . __
 72
    65
 73
     4
 40
0.000440
 49
0.000220
 49
-0.000110
 49
0.000000
 49
-0.000110
  0
LTYPE
  2
BORDER
 70
    64
  3
__ __ . __ __ . __ __ . __ __ . __ __ . __ __
 72
    65
 73
     6
 40
0.000770
 49
0.000220
 49
-0.000110
 49
0.000220
 49
-0.000110
 49
0.000000
 49
-0.000110
  0
LTYPE
  2
DIVIDE
 70
    64
  3
__ . . __ . . __ . . __ . . __ . . __ . . __
 72
    65
 73
     6
 40
0.000550
 49
0.000220
 49
-0.000110
 49
0.000000
 49
-0.000110
 49
0.000000
 49
-0.000110
  0
LTYPE
  2
DOTDOT
 70
    64
  3
 . .  . .  . .  . .  . .  . . 
 72
    65
 73
     5
 40
0.000242
 49
-0.000110
 49
0.000000
 49
-0.000110
 49
0.000000
 49
-0.000110
  0
ENDTAB
  0
TABLE
  2
STYLE
 70
     2
  0
STYLE
 70
     0
  2
SN0
 40
0.000000
 41
0.000440
 50
0.000000
 71
     0
 42
0.000000
  3
ROMAND
  0
STYLE
 70
    68
  2
SV0
 40
0.000000
 41
0.000440
 50
0.000000
 71
     0
 42
0.000000
  3
ROMAND
  0
ENDTAB
  0
TABLE
  2
LAYER
 70
     3
  0
LAYER
  2
FOREGROUND
 70
    64
 62
     7
  6
CONTINUOUS
  0
LAYER
  2
BACKGROUND
 70
    65
 62
    -7
  6
CONTINUOUS
  0
LAYER
  2
0
 70
    64
 62
     7
  6
CONTINUOUS
  0
ENDTAB
  0
ENDSEC
  0
SECTION
  2
ENTITIES
  0
POLYLINE
  8
FOREGROUND
  6
CONTINUOUS
 66
     1
 40
0.000000
 41
0.000000
  0
VERTEX
  8
FOREGROUND
  6
CONTINUOUS
 10
0.000000
 20
8.025600
  0
VERTEX
  8
FOREGROUND
  6
CONTINUOUS
 10
8.499920
 20
8.025600
  0
VERTEX
  8
FOREGROUND
  6
CONTINUOUS
 10
8.499920
 20
-2.974400
  0
VERTEX
  8
FOREGROUND
  6
CONTINUOUS
 10
0.000000
 20
-2.974400
  0
VERTEX
  8
FOREGROUND
  6
CONTINUOUS
 10
0.000000
 20
8.025600
  0
SEQEND
  8
0
  0
POLYLINE
  8
FOREGROUND
  6
CONTINUOUS
 66
     1
 40
0.000000
 41
0.000000
  0
VERTEX
  8
FOREGROUND
  6
CONTINUOUS
 10
0.000000
 20
8.025600
  0
VERTEX
  8
FOREGROUND
  6
CONTINUOUS
 10
8.499920
 20
8.025600
  0
VERTEX
  8
FOREGROUND
  6
CONTINUOUS
 10
8.499920
 20
-2.974400
  0
VERTEX
  8
FOREGROUND
  6
CONTINUOUS
 10
0.000000
 20
-2.974400
  0
VERTEX
  8
FOREGROUND
  6
CONTINUOUS
 10
0.000000
 20
8.025600
  0
SEQEND
  8
0
  0
SOLID
  8
0
 62
    15
 10
5.160760
 20
3.432000
 11
5.813720
 21
3.799840
 12
5.390000
 22
3.317160
 13
6.043400
 23
3.685440
  0
POLYLINE
  8
0
  6
CONTINUOUS
 66
     1
 40
0.000000
 41
0.000000
  0
VERTEX
  8
0
  6
CONTINUOUS
 10
5.160760
 20
3.432000
  0
VERTEX
  8
0
  6
CONTINUOUS
 10
5.813720
 20
3.799840
  0
VERTEX
  8
0
  6
CONTINUOUS
 10
6.043400
 20
3.685440
  0
VERTEX
  8
0
  6
CONTINUOUS
 10
5.390000
 20
3.317160
  0
VERTEX
  8
0
  6
CONTINUOUS
 10
5.160760
 20
3.432000
  0
SEQEND
  8
0
  0
SOLID
  8
0
 62
    15
 10
2.086920
 20
3.106840
 11
2.739880
 21
3.474680
 12
2.153800
 22
3.128400
 13
2.806760
 23
3.496240
  0
POLYLINE
  8
0
  6
CONTINUOUS
 66
     1
 40
0.000000
 41
0.000000
  0
VERTEX
  8
0
  6
CONTINUOUS
 10
2.086920
 20
3.106840
  0
VERTEX
  8
0
  6
CONTINUOUS
 10
2.739880
 20
3.474680
  0
VERTEX
  8
0
  6
CONTINUOUS
 10
2.806760
 20
3.496240
  0
VERTEX
  8
0
  6
CONTINUOUS
 10
2.153800
 20
3.128400
  0
VERTEX
  8
0
  6
CONTINUOUS
 10
2.086920
 20
3.106840
  0
SEQEND
  8
0
  0
SOLID
  8
0
 62
    15
 10
2.153800
 20
3.128400
 11
2.806760
 21
3.496240
 12
2.203080
 22
3.137640
 13
2.856040
 23
3.505920
  0
POLYLINE
  8
0
  6
CONTINUOUS
 66
     1
 40
0.000000
 41
0.000000
  0
VERTEX
  8
0
  6
CONTINUOUS
 10
2.153800
 20
3.128400
  0
VERTEX
  8
0
  6
CONTINUOUS
 10
2.806760
 20
3.496240
  0
VERTEX
  8
0
  6
CONTINUOUS
 10
2.856040
 20
3.505920
  0
VERTEX
  8
0
  6
CONTINUOUS
 10
2.203080
 20
3.137640
  0
VERTEX
  8
0
  6
CONTINUOUS
 10
2.153800
 20
3.128400
  0
SEQEND
  8
0
  0
SOLID
  8
0
 62
    15
 10
2.203080
 20
3.137640
 11
2.856040
 21
3.505920
 12
2.265120
 22
3.148640
 13
2.918520
 23
3.516480
  0
POLYLINE
  8
0
  6
CONTINUOUS
 66
     1
 40
0.000000
 41
0.000000
  0
VERTEX
  8
0
  6
CONTINUOUS
 10
2.203080
 20
3.137640
  0
VERTEX
  8
0
  6
CONTINUOUS
 10
2.856040
 20
3.505920
  0
VERTEX
  8
0
  6
CONTINUOUS
 10
2.918520
 20
3.516480
  0
VERTEX
  8
0
  6
CONTINUOUS
 10
2.265120
 20
3.148640
  0
VERTEX
  8
0
  6
CONTINUOUS
 10
2.203080
 20
3.137640
  0
SEQEND
  8
0
  0
SOLID
  8
0
 62
    15
 10
2.265120
 20
3.148640
 11
2.918520
 21
3.516480
 12
2.416920
 22
3.181640
 13
3.069880
 23
3.549480
  0
POLYLINE
  8
0
  6
CONTINUOUS
 66
     1
 40
0.000000
 41
0.000000
  0
VERTEX
  8
0
  6
CONTINUOUS
 10
2.265120
 20
3.148640
  0
VERTEX
  8
0
  6
CONTINUOUS
 10
2.918520
 20
3.516480
  0
VERTEX
  8
0
  6
CONTINUOUS
 10
3.069880
 20
3.549480
  0
VERTEX
  8
0
  6
CONTINUOUS
 10
2.416920
 20
3.181640
  0
VERTEX
  8
0
  6
CONTINUOUS
 10
2.265120
 20
3.148640
  0
SEQEND
  8
0
  0
SOLID
  8
0
 62
    15
 10
2.416920
 20
3.181640
 11
3.069880
 21
3.549480
 12
2.557280
 22
3.221680
 13
3.210240
 23
3.589520
  0
POLYLINE
  8
0
  6
CONTINUOUS
 66
     1
 40
0.000000
 41
0.000000
  0
VERTEX
  8
0
  6
CONTINUOUS
 10
2.416920
 20
3.181640
  0
VERTEX
  8
0
  6
CONTINUOUS
 10
3.069880
 20
3.549480
  0
VERTEX
  8
0
  6
CONTINUOUS
 10
3.210240
 20
3.589520
  0
VERTEX
  8
0
  6
CONTINUOUS
 10
2.557280
 20
3.221680
  0
VERTEX
  8
0
  6
CONTINUOUS
 10
2.416920
 20
3.181640
  0
SEQEND
  8
0
  0
SOLID
  8
0
 62
    15
 10
2.557280
 20
3.221680
 11
3.210240
 21
3.589520
 12
2.810720
 22
3.319360
 13
3.464120
 23
3.687640
  0
POLYLINE
  8
0
  6
CONTINUOUS
 66
     1
 40
0.000000
 41
0.000000
  0
VERTEX
  8
0
  6
CONTINUOUS
 10
2.557280
 20
3.221680
  0
VERTEX
  8
0
  6
CONTINUOUS
 10
3.210240
 20
3.589520
  0
VERTEX
  8
0
  6
CONTINUOUS
 10
3.464120
 20
3.687640
  0
VERTEX
  8
0
  6
CONTINUOUS
 10
2.810720
 20
3.319360
  0
VERTEX
  8
0
  6
CONTINUOUS
 10
2.557280
 20
3.221680
  0
SEQEND
  8
0
  0
SOLID
  8
0
 62
    15
 10
3.323760
 20
3.598320
 11
3.977160
 21
3.966600
 12
3.400760
 22
3.637480
 13
4.053720
 23
4.005760
  0
POLYLINE
  8
0
  6
CONTINUOUS
 66
     1
 40
0.000000
 41
0.000000
  0
VERTEX
  8
0
  6
CONTINUOUS
 10
3.323760
 20
3.598320
  0
VERTEX
  8
0
  6
CONTINUOUS
 10
3.977160
 20
3.966600
  0
VERTEX
  8
0
  6
CONTINUOUS
 10
4.053720
 20
4.005760
  0
VERTEX
  8
0
  6
CONTINUOUS
 10
3.400760
 20
3.637480
  0
VERTEX
  8
0
  6
CONTINUOUS
 10
3.323760
 20
3.598320
  0
SEQEND
  8
0
  0
SOLID
  8
0
 62
    15
 10
3.400760
 20
3.637480
 11
4.053720
 21
4.005760
 12
3.489640
 22
3.674000
 13
4.143040
 23
4.041840
  0
POLYLINE
  8
0
  6
CONTINUOUS
 66
     1
 40
0.000000
 41
0.000000
  0
VERTEX
  8
0
  6
CONTINUOUS
 10
3.400760
 20
3.637480
  0
VERTEX
  8
0
  6
CONTINUOUS
 10
4.053720
 20
4.005760
  0
VERTEX
  8
0
  6
CONTINUOUS
 10
4.143040
 20
4.041840
  0
VERTEX
  8
0
  6
CONTINUOUS
 10
3.489640
 20
3.674000
  0
VERTEX
  8
0
  6
CONTINUOUS
 10
3.400760
 20
3.637480
  0
SEQEND
  8
0
  0
SOLID
  8
0
 62
    15
 10
2.810720
 20
3.319360
 11
3.464120
 21
3.687640
 12
3.039960
 22
3.434200
 13
3.693360
 23
3.802040
  0
POLYLINE
  8
0
  6
CONTINUOUS
 66
     1
 40
0.000000
 41
0.000000
  0
VERTEX
  8
0
  6
CONTINUOUS
 10
2.810720
 20
3.319360
  0
VERTEX
  8
0
  6
CONTINUOUS
 10
3.464120
 20
3.687640
  0
VERTEX
  8
0
  6
CONTINUOUS
 10
3.693360
 20
3.802040
  0
VERTEX
  8
0
  6
CONTINUOUS
 10
3.039960
 20
3.434200
  0
VERTEX
  8
0
  6
CONTINUOUS
 10
2.810720
 20
3.319360
  0
SEQEND
  8
0
  0
SOLID
  8
0
 62
    15
 10
3.039960
 20
3.434200
 11
3.693360
 21
3.802040
 12
3.259520
 22
3.556960
 13
3.912920
 23
3.925240
  0
POLYLINE
  8
0
  6
CONTINUOUS
 66
     1
 40
0.000000
 41
0.000000
  0
VERTEX
  8
0
  6
CONTINUOUS
 10
3.039960
 20
3.434200
  0
VERTEX
  8
0
  6
CONTINUOUS
 10
3.693360
 20
3.802040
  0
VERTEX
  8
0
  6
CONTINUOUS
 10
3.912920
 20
3.925240
  0
VERTEX
  8
0
  6
CONTINUOUS
 10
3.259520
 20
3.556960
  0
VERTEX
  8
0
  6
CONTINUOUS
 10
3.039960
 20
3.434200
  0
SEQEND
  8
0
  0
SOLID
  8
0
 62
    15
 10
3.489640
 20
3.674000
 11
4.143040
 21
4.041840
 12
3.590400
 22
3.705680
 13
4.243800
 23
4.073960
  0
POLYLINE
  8
0
  6
CONTINUOUS
 66
     1
 40
0.000000
 41
0.000000
  0
VERTEX
  8
0
  6
CONTINUOUS
 10
3.489640
 20
3.674000
  0
VERTEX
  8
0
  6
CONTINUOUS
 10
4.143040
 20
4.041840
  0
VERTEX
  8
0
  6
CONTINUOUS
 10
4.243800
 20
4.073960
  0
VERTEX
  8
0
  6
CONTINUOUS
 10
3.590400
 20
3.705680
  0
VERTEX
  8
0
  6
CONTINUOUS
 10
3.489640
 20
3.674000
  0
SEQEND
  8
0
  0
SOLID
  8
0
 62
    15
 10
3.590400
 20
3.705680
 11
4.243800
 21
4.073960
 12
3.702600
 22
3.732080
 13
4.355560
 23
4.099920
  0
POLYLINE
  8
0
  6
CONTINUOUS
 66
     1
 40
0.000000
 41
0.000000
  0
VERTEX
  8
0
  6
CONTINUOUS
 10
3.590400
 20
3.705680
  0
VERTEX
  8
0
  6
CONTINUOUS
 10
4.243800
 20
4.073960
  0
VERTEX
  8
0
  6
CONTINUOUS
 10
4.355560
 20
4.099920
  0
VERTEX
  8
0
  6
CONTINUOUS
 10
3.702600
 20
3.732080
  0
VERTEX
  8
0
  6
CONTINUOUS
 10
3.590400
 20
3.705680
  0
SEQEND
  8
0
  0
SOLID
  8
0
 62
    15
 10
3.702600
 20
3.732080
 11
4.355560
 21
4.099920
 12
3.824920
 22
3.751440
 13
4.477880
 23
4.119280
  0
POLYLINE
  8
0
  6
CONTINUOUS
 66
     1
 40
0.000000
 41
0.000000
  0
VERTEX
  8
0
  6
CONTINUOUS
 10
3.702600
 20
3.732080
  0
VERTEX
  8
0
  6
CONTINUOUS
 10
4.355560
 20
4.099920
  0
VERTEX
  8
0
  6
CONTINUOUS
 10
4.477880
 20
4.119280
  0
VERTEX
  8
0
  6
CONTINUOUS
 10
3.824920
 20
3.751440
  0
VERTEX
  8
0
  6
CONTINUOUS
 10
3.702600
 20
3.732080
  0
SEQEND
  8
0
  0
SOLID
  8
0
 62
    15
 10
3.824920
 20
3.751440
 11
4.477880
 21
4.119280
 12
3.956920
 22
3.762880
 13
4.610320
 23
4.130720
  0
POLYLINE
  8
0
  6
CONTINUOUS
 66
     1
 40
0.000000
 41
0.000000
  0
VERTEX
  8
0
  6
CONTINUOUS
 10
3.824920
 20
3.751440
  0
VERTEX
  8
0
  6
CONTINUOUS
 10
4.477880
 20
4.119280
  0
VERTEX
  8
0
  6
CONTINUOUS
 10
4.610320
 20
4.130720
  0
VERTEX
  8
0
  6
CONTINUOUS
 10
3.956920
 20
3.762880
  0
VERTEX
  8
0
  6
CONTINUOUS
 10
3.824920
 20
3.751440
  0
SEQEND
  8
0
  0
SOLID
  8
0
 62
    15
 10
3.956920
 20
3.762880
 11
4.610320
 21
4.130720
 12
4.098160
 22
3.765080
 13
4.751560
 23
4.132920
  0
POLYLINE
  8
0
  6
CONTINUOUS
 66
     1
 40
0.000000
 41
0.000000
  0
VERTEX
  8
0
  6
CONTINUOUS
 10
3.956920
 20
3.762880
  0
VERTEX
  8
0
  6
CONTINUOUS
 10
4.610320
 20
4.130720
  0
VERTEX
  8
0
  6
CONTINUOUS
 10
4.751560
 20
4.132920
  0
VERTEX
  8
0
  6
CONTINUOUS
 10
4.098160
 20
3.765080
  0
VERTEX
  8
0
  6
CONTINUOUS
 10
3.956920
 20
3.762880
  0
SEQEND
  8
0
  0
SOLID
  8
0
 62
    15
 10
4.098160
 20
3.765080
 11
4.751560
 21
4.132920
 12
4.102560
 22
3.762880
 13
4.755520
 23
4.130720
  0
POLYLINE
  8
0
  6
CONTINUOUS
 66
     1
 40
0.000000
 41
0.000000
  0
VERTEX
  8
0
  6
CONTINUOUS
 10
4.098160
 20
3.765080
  0
VERTEX
  8
0
  6
CONTINUOUS
 10
4.751560
 20
4.132920
  0
VERTEX
  8
0
  6
CONTINUOUS
 10
4.755520
 20
4.130720
  0
VERTEX
  8
0
  6
CONTINUOUS
 10
4.102560
 20
3.762880
  0
VERTEX
  8
0
  6
CONTINUOUS
 10
4.098160
 20
3.765080
  0
SEQEND
  8
0
  0
SOLID
  8
0
 62
    15
 10
4.102560
 20
3.762880
 11
4.755520
 21
4.130720
 12
4.243800
 22
3.760680
 13
4.897200
 23
4.128520
  0
POLYLINE
  8
0
  6
CONTINUOUS
 66
     1
 40
0.000000
 41
0.000000
  0
VERTEX
  8
0
  6
CONTINUOUS
 10
4.102560
 20
3.762880
  0
VERTEX
  8
0
  6
CONTINUOUS
 10
4.755520
 20
4.130720
  0
VERTEX
  8
0
  6
CONTINUOUS
 10
4.897200
 20
4.128520
  0
VERTEX
  8
0
  6
CONTINUOUS
 10
4.243800
 20
3.760680
  0
VERTEX
  8
0
  6
CONTINUOUS
 10
4.102560
 20
3.762880
  0
SEQEND
  8
0
  0
SOLID
  8
0
 62
    15
 10
4.243800
 20
3.760680
 11
4.897200
 21
4.128520
 12
4.376240
 22
3.749240
 13
5.029200
 23
4.117080
  0
POLYLINE
  8
0
  6
CONTINUOUS
 66
     1
 40
0.000000
 41
0.000000
  0
VERTEX
  8
0
  6
CONTINUOUS
 10
4.243800
 20
3.760680
  0
VERTEX
  8
0
  6
CONTINUOUS
 10
4.897200
 20
4.128520
  0
VERTEX
  8
0
  6
CONTINUOUS
 10
5.029200
 20
4.117080
  0
VERTEX
  8
0
  6
CONTINUOUS
 10
4.376240
 20
3.749240
  0
VERTEX
  8
0
  6
CONTINUOUS
 10
4.243800
 20
3.760680
  0
SEQEND
  8
0
  0
SOLID
  8
0
 62
    15
 10
4.376240
 20
3.749240
 11
5.029200
 21
4.117080
 12
4.498560
 22
3.729880
 13
5.151520
 23
4.097720
  0
POLYLINE
  8
0
  6
CONTINUOUS
 66
     1
 40
0.000000
 41
0.000000
  0
VERTEX
  8
0
  6
CONTINUOUS
 10
4.376240
 20
3.749240
  0
VERTEX
  8
0
  6
CONTINUOUS
 10
5.029200
 20
4.117080
  0
VERTEX
  8
0
  6
CONTINUOUS
 10
5.151520
 20
4.097720
  0
VERTEX
  8
0
  6
CONTINUOUS
 10
4.498560
 20
3.729880
  0
VERTEX
  8
0
  6
CONTINUOUS
 10
4.376240
 20
3.749240
  0
SEQEND
  8
0
  0
SOLID
  8
0
 62
    15
 10
4.498560
 20
3.729880
 11
5.151520
 21
4.097720
 12
4.610320
 22
3.703480
 13
5.263720
 23
4.071760
  0
POLYLINE
  8
0
  6
CONTINUOUS
 66
     1
 40
0.000000
 41
0.000000
  0
VERTEX
  8
0
  6
CONTINUOUS
 10
4.498560
 20
3.729880
  0
VERTEX
  8
0
  6
CONTINUOUS
 10
5.151520
 20
4.097720
  0
VERTEX
  8
0
  6
CONTINUOUS
 10
5.263720
 20
4.071760
  0
VERTEX
  8
0
  6
CONTINUOUS
 10
4.610320
 20
3.703480
  0
VERTEX
  8
0
  6
CONTINUOUS
 10
4.498560
 20
3.729880
  0
SEQEND
  8
0
  0
SOLID
  8
0
 62
    15
 10
4.610320
 20
3.703480
 11
5.263720
 21
4.071760
 12
4.711080
 22
3.671800
 13
5.364480
 23
4.039640
  0
POLYLINE
  8
0
  6
CONTINUOUS
 66
     1
 40
0.000000
 41
0.000000
  0
VERTEX
  8
0
  6
CONTINUOUS
 10
4.610320
 20
3.703480
  0
VERTEX
  8
0
  6
CONTINUOUS
 10
5.263720
 20
4.071760
  0
VERTEX
  8
0
  6
CONTINUOUS
 10
5.364480
 20
4.039640
  0
VERTEX
  8
0
  6
CONTINUOUS
 10
4.711080
 20
3.671800
  0
VERTEX
  8
0
  6
CONTINUOUS
 10
4.610320
 20
3.703480
  0
SEQEND
  8
0
  0
SOLID
  8
0
 62
    15
 10
4.711080
 20
3.671800
 11
5.364480
 21
4.039640
 12
4.799960
 22
3.635280
 13
5.453360
 23
4.003560
  0
POLYLINE
  8
0
  6
CONTINUOUS
 66
     1
 40
0.000000
 41
0.000000
  0
VERTEX
  8
0
  6
CONTINUOUS
 10
4.711080
 20
3.671800
  0
VERTEX
  8
0
  6
CONTINUOUS
 10
5.364480
 20
4.039640
  0
VERTEX
  8
0
  6
CONTINUOUS
 10
5.453360
 20
4.003560
  0
VERTEX
  8
0
  6
CONTINUOUS
 10
4.799960
 20
3.635280
  0
VERTEX
  8
0
  6
CONTINUOUS
 10
4.711080
 20
3.671800
  0
SEQEND
  8
0
  0
SOLID
  8
0
 62
    15
 10
4.799960
 20
3.635280
 11
5.453360
 21
4.003560
 12
4.876960
 22
3.596120
 13
5.530360
 23
3.964400
  0
POLYLINE
  8
0
  6
CONTINUOUS
 66
     1
 40
0.000000
 41
0.000000
  0
VERTEX
  8
0
  6
CONTINUOUS
 10
4.799960
 20
3.635280
  0
VERTEX
  8
0
  6
CONTINUOUS
 10
5.453360
 20
4.003560
  0
VERTEX
  8
0
  6
CONTINUOUS
 10
5.530360
 20
3.964400
  0
VERTEX
  8
0
  6
CONTINUOUS
 10
4.876960
 20
3.596120
  0
VERTEX
  8
0
  6
CONTINUOUS
 10
4.799960
 20
3.635280
  0
SEQEND
  8
0
  0
SOLID
  8
0
 62
    15
 10
4.876960
 20
3.596120
 11
5.530360
 21
3.964400
 12
4.941200
 22
3.554760
 13
5.594160
 23
3.923040
  0
POLYLINE
  8
0
  6
CONTINUOUS
 66
     1
 40
0.000000
 41
0.000000
  0
VERTEX
  8
0
  6
CONTINUOUS
 10
4.876960
 20
3.596120
  0
VERTEX
  8
0
  6
CONTINUOUS
 10
5.530360
 20
3.964400
  0
VERTEX
  8
0
  6
CONTINUOUS
 10
5.594160
 20
3.923040
  0
VERTEX
  8
0
  6
CONTINUOUS
 10
4.941200
 20
3.554760
  0
VERTEX
  8
0
  6
CONTINUOUS
 10
4.876960
 20
3.596120
  0
SEQEND
  8
0
  0
SOLID
  8
0
 62
    15
 10
4.941200
 20
3.554760
 11
5.594160
 21
3.923040
 12
5.160760
 22
3.432000
 13
5.813720
 23
3.799840
  0
POLYLINE
  8
0
  6
CONTINUOUS
 66
     1
 40
0.000000
 41
0.000000
  0
VERTEX
  8
0
  6
CONTINUOUS
 10
4.941200
 20
3.554760
  0
VERTEX
  8
0
  6
CONTINUOUS
 10
5.594160
 20
3.923040
  0
VERTEX
  8
0
  6
CONTINUOUS
 10
5.813720
 20
3.799840
  0
VERTEX
  8
0
  6
CONTINUOUS
 10
5.160760
 20
3.432000
  0
VERTEX
  8
0
  6
CONTINUOUS
 10
4.941200
 20
3.554760
  0
SEQEND
  8
0
  0
SOLID
  8
0
 62
    15
 10
1.873520
 20
2.957240
 11
2.526920
 21
3.325080
 12
2.036760
 22
3.010040
 13
2.690160
 23
3.378320
  0
POLYLINE
  8
0
  6
CONTINUOUS
 66
     1
 40
0.000000
 41
0.000000
  0
VERTEX
  8
0
  6
CONTINUOUS
 10
1.873520
 20
2.957240
  0
VERTEX
  8
0
  6
CONTINUOUS
 10
2.526920
 20
3.325080
  0
VERTEX
  8
0
  6
CONTINUOUS
 10
2.690160
 20
3.378320
  0
VERTEX
  8
0
  6
CONTINUOUS
 10
2.036760
 20
3.010040
  0
VERTEX
  8
0
  6
CONTINUOUS
 10
1.873520
 20
2.957240
  0
SEQEND
  8
0
  0
SOLID
  8
0
 62
    15
 10
5.390000
 20
3.317160
 11
6.043400
 21
3.685440
 12
5.643440
 22
3.219480
 13
6.296840
 23
3.587320
  0
POLYLINE
  8
0
  6
CONTINUOUS
 66
     1
 40
0.000000
 41
0.000000
  0
VERTEX
  8
0
  6
CONTINUOUS
 10
5.390000
 20
3.317160
  0
VERTEX
  8
0
  6
CONTINUOUS
 10
6.043400
 20
3.685440
  0
VERTEX
  8
0
  6
CONTINUOUS
 10
6.296840
 20
3.587320
  0
VERTEX
  8
0
  6
CONTINUOUS
 10
5.643440
 20
3.219480
  0
VERTEX
  8
0
  6
CONTINUOUS
 10
5.390000
 20
3.317160
  0
SEQEND
  8
0
  0
SOLID
  8
0
 62
    15
 10
5.643440
 20
3.219480
 11
6.296840
 21
3.587320
 12
5.783800
 22
3.179440
 13
6.437200
 23
3.547280
  0
POLYLINE
  8
0
  6
CONTINUOUS
 66
     1
 40
0.000000
 41
0.000000
  0
VERTEX
  8
0
  6
CONTINUOUS
 10
5.643440
 20
3.219480
  0
VERTEX
  8
0
  6
CONTINUOUS
 10
6.296840
 20
3.587320
  0
VERTEX
  8
0
  6
CONTINUOUS
 10
6.437200
 20
3.547280
  0
VERTEX
  8
0
  6
CONTINUOUS
 10
5.783800
 20
3.179440
  0
VERTEX
  8
0
  6
CONTINUOUS
 10
5.643440
 20
3.219480
  0
SEQEND
  8
0
  0
SOLID
  8
0
 62
    15
 10
5.783800
 20
3.179440
 11
6.437200
 21
3.547280
 12
5.935600
 22
3.146440
 13
6.589000
 23
3.514280
  0
POLYLINE
  8
0
  6
CONTINUOUS
 66
     1
 40
0.000000
 41
0.000000
  0
VERTEX
  8
0
  6
CONTINUOUS
 10
5.783800
 20
3.179440
  0
VERTEX
  8
0
  6
CONTINUOUS
 10
6.437200
 20
3.547280
  0
VERTEX
  8
0
  6
CONTINUOUS
 10
6.589000
 20
3.514280
  0
VERTEX
  8
0
  6
CONTINUOUS
 10
5.935600
 20
3.146440
  0
VERTEX
  8
0
  6
CONTINUOUS
 10
5.783800
 20
3.179440
  0
SEQEND
  8
0
  0
SOLID
  8
0
 62
    15
 10
5.935600
 20
3.146440
 11
6.589000
 21
3.514280
 12
5.997640
 22
3.135440
 13
6.651040
 23
3.503720
  0
POLYLINE
  8
0
  6
CONTINUOUS
 66
     1
 40
0.000000
 41
0.000000
  0
VERTEX
  8
0
  6
CONTINUOUS
 10
5.935600
 20
3.146440
  0
VERTEX
  8
0
  6
CONTINUOUS
 10
6.589000
 20
3.514280
  0
VERTEX
  8
0
  6
CONTINUOUS
 10
6.651040
 20
3.503720
  0
VERTEX
  8
0
  6
CONTINUOUS
 10
5.997640
 20
3.135440
  0
VERTEX
  8
0
  6
CONTINUOUS
 10
5.935600
 20
3.146440
  0
SEQEND
  8
0
  0
SOLID
  8
0
 62
    15
 10
5.997640
 20
3.135440
 11
6.651040
 21
3.503720
 12
6.046920
 22
3.126200
 13
6.700320
 23
3.494040
  0
POLYLINE
  8
0
  6
CONTINUOUS
 66
     1
 40
0.000000
 41
0.000000
  0
VERTEX
  8
0
  6
CONTINUOUS
 10
5.997640
 20
3.135440
  0
VERTEX
  8
0
  6
CONTINUOUS
 10
6.651040
 20
3.503720
  0
VERTEX
  8
0
  6
CONTINUOUS
 10
6.700320
 20
3.494040
  0
VERTEX
  8
0
  6
CONTINUOUS
 10
6.046920
 20
3.126200
  0
VERTEX
  8
0
  6
CONTINUOUS
 10
5.997640
 20
3.135440
  0
SEQEND
  8
0
  0
SOLID
  8
0
 62
    15
 10
6.046920
 20
3.126200
 11
6.700320
 21
3.494040
 12
6.113800
 22
3.104640
 13
6.767200
 23
3.472480
  0
POLYLINE
  8
0
  6
CONTINUOUS
 66
     1
 40
0.000000
 41
0.000000
  0
VERTEX
  8
0
  6
CONTINUOUS
 10
6.046920
 20
3.126200
  0
VERTEX
  8
0
  6
CONTINUOUS
 10
6.700320
 20
3.494040
  0
VERTEX
  8
0
  6
CONTINUOUS
 10
6.767200
 20
3.472480
  0
VERTEX
  8
0
  6
CONTINUOUS
 10
6.113800
 20
3.104640
  0
VERTEX
  8
0
  6
CONTINUOUS
 10
6.046920
 20
3.126200
  0
SEQEND
  8
0
  0
SOLID
  8
0
 62
    15
 10
6.113800
 20
3.104640
 11
6.767200
 21
3.472480
 12
6.148560
 22
3.069440
 13
6.801960
 23
3.437280
  0
POLYLINE
  8
0
  6
CONTINUOUS
 66
     1
 40
0.000000
 41
0.000000
  0
VERTEX
  8
0
  6
CONTINUOUS
 10
6.113800
 20
3.104640
  0
VERTEX
  8
0
  6
CONTINUOUS
 10
6.767200
 20
3.472480
  0
VERTEX
  8
0
  6
CONTINUOUS
 10
6.801960
 20
3.437280
  0
VERTEX
  8
0
  6
CONTINUOUS
 10
6.148560
 20
3.069440
  0
VERTEX
  8
0
  6
CONTINUOUS
 10
6.113800
 20
3.104640
  0
SEQEND
  8
0
  0
SOLID
  8
0
 62
    15
 10
6.148560
 20
3.069440
 11
6.801960
 21
3.437280
 12
6.163960
 22
3.007840
 13
6.817360
 23
3.376120
  0
POLYLINE
  8
0
  6
CONTINUOUS
 66
     1
 40
0.000000
 41
0.000000
  0
VERTEX
  8
0
  6
CONTINUOUS
 10
6.148560
 20
3.069440
  0
VERTEX
  8
0
  6
CONTINUOUS
 10
6.801960
 20
3.437280
  0
VERTEX
  8
0
  6
CONTINUOUS
 10
6.817360
 20
3.376120
  0
VERTEX
  8
0
  6
CONTINUOUS
 10
6.163960
 20
3.007840
  0
VERTEX
  8
0
  6
CONTINUOUS
 10
6.148560
 20
3.069440
  0
SEQEND
  8
0
  0
SOLID
  8
0
 62
    15
 10
6.163960
 20
3.007840
 11
6.817360
 21
3.376120
 12
6.327200
 22
2.955040
 13
6.980600
 23
3.322880
  0
POLYLINE
  8
0
  6
CONTINUOUS
 66
     1
 40
0.000000
 41
0.000000
  0
VERTEX
  8
0
  6
CONTINUOUS
 10
6.163960
 20
3.007840
  0
VERTEX
  8
0
  6
CONTINUOUS
 10
6.817360
 20
3.376120
  0
VERTEX
  8
0
  6
CONTINUOUS
 10
6.980600
 20
3.322880
  0
VERTEX
  8
0
  6
CONTINUOUS
 10
6.327200
 20
2.955040
  0
VERTEX
  8
0
  6
CONTINUOUS
 10
6.163960
 20
3.007840
  0
SEQEND
  8
0
  0
SOLID
  8
0
 62
    15
 10
6.327200
 20
2.955040
 11
6.980600
 21
3.322880
 12
6.457000
 22
2.871000
 13
7.109960
 23
3.238840
  0
POLYLINE
  8
0
  6
CONTINUOUS
 66
     1
 40
0.000000
 41
0.000000
  0
VERTEX
  8
0
  6
CONTINUOUS
 10
6.327200
 20
2.955040
  0
VERTEX
  8
0
  6
CONTINUOUS
 10
6.980600
 20
3.322880
  0
VERTEX
  8
0
  6
CONTINUOUS
 10
7.109960
 20
3.238840
  0
VERTEX
  8
0
  6
CONTINUOUS
 10
6.457000
 20
2.871000
  0
VERTEX
  8
0
  6
CONTINUOUS
 10
6.327200
 20
2.955040
  0
SEQEND
  8
0
  0
SOLID
  8
0
 62
    15
 10
6.457000
 20
2.871000
 11
7.109960
 21
3.238840
 12
6.552040
 22
2.762320
 13
7.205440
 23
3.130600
  0
POLYLINE
  8
0
  6
CONTINUOUS
 66
     1
 40
0.000000
 41
0.000000
  0
VERTEX
  8
0
  6
CONTINUOUS
 10
6.457000
 20
2.871000
  0
VERTEX
  8
0
  6
CONTINUOUS
 10
7.109960
 20
3.238840
  0
VERTEX
  8
0
  6
CONTINUOUS
 10
7.205440
 20
3.130600
  0
VERTEX
  8
0
  6
CONTINUOUS
 10
6.552040
 20
2.762320
  0
VERTEX
  8
0
  6
CONTINUOUS
 10
6.457000
 20
2.871000
  0
SEQEND
  8
0
  0
SOLID
  8
0
 62
    15
 10
6.552040
 20
2.762320
 11
7.205440
 21
3.130600
 12
6.611880
 22
2.635160
 13
7.265280
 23
3.003440
  0
POLYLINE
  8
0
  6
CONTINUOUS
 66
     1
 40
0.000000
 41
0.000000
  0
VERTEX
  8
0
  6
CONTINUOUS
 10
6.552040
 20
2.762320
  0
VERTEX
  8
0
  6
CONTINUOUS
 10
7.205440
 20
3.130600
  0
VERTEX
  8
0
  6
CONTINUOUS
 10
7.265280
 20
3.003440
  0
VERTEX
  8
0
  6
CONTINUOUS
 10
6.611880
 20
2.635160
  0
VERTEX
  8
0
  6
CONTINUOUS
 10
6.552040
 20
2.762320
  0
SEQEND
  8
0
  0
SOLID
  8
0
 62
    15
 10
6.611880
 20
2.635160
 11
7.265280
 21
3.003440
 12
6.635640
 22
2.496120
 13
7.288600
 23
2.864400
  0
POLYLINE
  8
0
  6
CONTINUOUS
 66
     1
 40
0.000000
 41
0.000000
  0
VERTEX
  8
0
  6
CONTINUOUS
 10
6.611880
 20
2.635160
  0
VERTEX
  8
0
  6
CONTINUOUS
 10
7.265280
 20
3.003440
  0
VERTEX
  8
0
  6
CONTINUOUS
 10
7.288600
 20
2.864400
  0
VERTEX
  8
0
  6
CONTINUOUS
 10
6.635640
 20
2.496120
  0
VERTEX
  8
0
  6
CONTINUOUS
 10
6.611880
 20
2.635160
  0
SEQEND
  8
0
  0
SOLID
  8
0
 62
    15
 10
6.635640
 20
2.496120
 11
7.288600
 21
2.864400
 12
6.622000
 22
2.351800
 13
7.275400
 23
2.719640
  0
POLYLINE
  8
0
  6
CONTINUOUS
 66
     1
 40
0.000000
 41
0.000000
  0
VERTEX
  8
0
  6
CONTINUOUS
 10
6.635640
 20
2.496120
  0
VERTEX
  8
0
  6
CONTINUOUS
 10
7.288600
 20
2.864400
  0
VERTEX
  8
0
  6
CONTINUOUS
 10
7.275400
 20
2.719640
  0
VERTEX
  8
0
  6
CONTINUOUS
 10
6.622000
 20
2.351800
  0
VERTEX
  8
0
  6
CONTINUOUS
 10
6.635640
 20
2.496120
  0
SEQEND
  8
0
  0
SOLID
  8
0
 62
    15
 10
6.570520
 20
2.207480
 11
7.223920
 21
2.575760
 12
6.480760
 22
2.070640
 13
7.134160
 23
2.438480
  0
POLYLINE
  8
0
  6
CONTINUOUS
 66
     1
 40
0.000000
 41
0.000000
  0
VERTEX
  8
0
  6
CONTINUOUS
 10
6.570520
 20
2.207480
  0
VERTEX
  8
0
  6
CONTINUOUS
 10
7.223920
 20
2.575760
  0
VERTEX
  8
0
  6
CONTINUOUS
 10
7.134160
 20
2.438480
  0
VERTEX
  8
0
  6
CONTINUOUS
 10
6.480760
 20
2.070640
  0
VERTEX
  8
0
  6
CONTINUOUS
 10
6.570520
 20
2.207480
  0
SEQEND
  8
0
  0
SOLID
  8
0
 62
    15
 10
6.622000
 20
2.351800
 11
7.275400
 21
2.719640
 12
6.570520
 22
2.207480
 13
7.223920
 23
2.575760
  0
POLYLINE
  8
0
  6
CONTINUOUS
 66
     1
 40
0.000000
 41
0.000000
  0
VERTEX
  8
0
  6
CONTINUOUS
 10
6.622000
 20
2.351800
  0
VERTEX
  8
0
  6
CONTINUOUS
 10
7.275400
 20
2.719640
  0
VERTEX
  8
0
  6
CONTINUOUS
 10
7.223920
 20
2.575760
  0
VERTEX
  8
0
  6
CONTINUOUS
 10
6.570520
 20
2.207480
  0
VERTEX
  8
0
  6
CONTINUOUS
 10
6.622000
 20
2.351800
  0
SEQEND
  8
0
  0
SOLID
  8
0
 62
    15
 10
6.480760
 20
2.070640
 11
7.134160
 21
2.438480
 12
6.382640
 22
1.953160
 13
7.036040
 23
2.321440
  0
POLYLINE
  8
0
  6
CONTINUOUS
 66
     1
 40
0.000000
 41
0.000000
  0
VERTEX
  8
0
  6
CONTINUOUS
 10
6.480760
 20
2.070640
  0
VERTEX
  8
0
  6
CONTINUOUS
 10
7.134160
 20
2.438480
  0
VERTEX
  8
0
  6
CONTINUOUS
 10
7.036040
 20
2.321440
  0
VERTEX
  8
0
  6
CONTINUOUS
 10
6.382640
 20
1.953160
  0
VERTEX
  8
0
  6
CONTINUOUS
 10
6.480760
 20
2.070640
  0
SEQEND
  8
0
  0
SOLID
  8
0
 62
    15
 10
6.382640
 20
1.953160
 11
7.036040
 21
2.321440
 12
6.306520
 22
1.859440
 13
6.959920
 23
2.227280
  0
POLYLINE
  8
0
  6
CONTINUOUS
 66
     1
 40
0.000000
 41
0.000000
  0
VERTEX
  8
0
  6
CONTINUOUS
 10
6.382640
 20
1.953160
  0
VERTEX
  8
0
  6
CONTINUOUS
 10
7.036040
 20
2.321440
  0
VERTEX
  8
0
  6
CONTINUOUS
 10
6.959920
 20
2.227280
  0
VERTEX
  8
0
  6
CONTINUOUS
 10
6.306520
 20
1.859440
  0
VERTEX
  8
0
  6
CONTINUOUS
 10
6.382640
 20
1.953160
  0
SEQEND
  8
0
  0
SOLID
  8
0
 62
    15
 10
6.248440
 20
1.780240
 11
6.901840
 21
2.148520
 12
6.204880
 22
1.708520
 13
6.858280
 23
2.076360
  0
POLYLINE
  8
0
  6
CONTINUOUS
 66
     1
 40
0.000000
 41
0.000000
  0
VERTEX
  8
0
  6
CONTINUOUS
 10
6.248440
 20
1.780240
  0
VERTEX
  8
0
  6
CONTINUOUS
 10
6.901840
 20
2.148520
  0
VERTEX
  8
0
  6
CONTINUOUS
 10
6.858280
 20
2.076360
  0
VERTEX
  8
0
  6
CONTINUOUS
 10
6.204880
 20
1.708520
  0
VERTEX
  8
0
  6
CONTINUOUS
 10
6.248440
 20
1.780240
  0
SEQEND
  8
0
  0
SOLID
  8
0
 62
    15
 10
6.306520
 20
1.859440
 11
6.959920
 21
2.227280
 12
6.248440
 22
1.780240
 13
6.901840
 23
2.148520
  0
POLYLINE
  8
0
  6
CONTINUOUS
 66
     1
 40
0.000000
 41
0.000000
  0
VERTEX
  8
0
  6
CONTINUOUS
 10
6.306520
 20
1.859440
  0
VERTEX
  8
0
  6
CONTINUOUS
 10
6.959920
 20
2.227280
  0
VERTEX
  8
0
  6
CONTINUOUS
 10
6.901840
 20
2.148520
  0
VERTEX
  8
0
  6
CONTINUOUS
 10
6.248440
 20
1.780240
  0
VERTEX
  8
0
  6
CONTINUOUS
 10
6.306520
 20
1.859440
  0
SEQEND
  8
0
  0
SOLID
  8
0
 62
    15
 10
6.204880
 20
1.708520
 11
6.858280
 21
2.076360
 12
6.147680
 22
1.553640
 13
6.801080
 23
1.921920
  0
POLYLINE
  8
0
  6
CONTINUOUS
 66
     1
 40
0.000000
 41
0.000000
  0
VERTEX
  8
0
  6
CONTINUOUS
 10
6.204880
 20
1.708520
  0
VERTEX
  8
0
  6
CONTINUOUS
 10
6.858280
 20
2.076360
  0
VERTEX
  8
0
  6
CONTINUOUS
 10
6.801080
 20
1.921920
  0
VERTEX
  8
0
  6
CONTINUOUS
 10
6.147680
 20
1.553640
  0
VERTEX
  8
0
  6
CONTINUOUS
 10
6.204880
 20
1.708520
  0
SEQEND
  8
0
  0
SOLID
  8
0
 62
    15
 10
6.147680
 20
1.553640
 11
6.801080
 21
1.921920
 12
6.127000
 22
1.455080
 13
6.780400
 23
1.822920
  0
POLYLINE
  8
0
  6
CONTINUOUS
 66
     1
 40
0.000000
 41
0.000000
  0
VERTEX
  8
0
  6
CONTINUOUS
 10
6.147680
 20
1.553640
  0
VERTEX
  8
0
  6
CONTINUOUS
 10
6.801080
 20
1.921920
  0
VERTEX
  8
0
  6
CONTINUOUS
 10
6.780400
 20
1.822920
  0
VERTEX
  8
0
  6
CONTINUOUS
 10
6.127000
 20
1.455080
  0
VERTEX
  8
0
  6
CONTINUOUS
 10
6.147680
 20
1.553640
  0
SEQEND
  8
0
  0
SOLID
  8
0
 62
    15
 10
6.127000
 20
1.455080
 11
6.780400
 21
1.822920
 12
6.107200
 22
1.331000
 13
6.760160
 23
1.699280
  0
POLYLINE
  8
0
  6
CONTINUOUS
 66
     1
 40
0.000000
 41
0.000000
  0
VERTEX
  8
0
  6
CONTINUOUS
 10
6.127000
 20
1.455080
  0
VERTEX
  8
0
  6
CONTINUOUS
 10
6.780400
 20
1.822920
  0
VERTEX
  8
0
  6
CONTINUOUS
 10
6.760160
 20
1.699280
  0
VERTEX
  8
0
  6
CONTINUOUS
 10
6.107200
 20
1.331000
  0
VERTEX
  8
0
  6
CONTINUOUS
 10
6.127000
 20
1.455080
  0
SEQEND
  8
0
  0
SOLID
  8
0
 62
    15
 10
6.099720
 20
1.292720
 11
6.752680
 21
1.661000
 12
6.085640
 22
1.282600
 13
6.739040
 23
1.650440
  0
POLYLINE
  8
0
  6
CONTINUOUS
 66
     1
 40
0.000000
 41
0.000000
  0
VERTEX
  8
0
  6
CONTINUOUS
 10
6.099720
 20
1.292720
  0
VERTEX
  8
0
  6
CONTINUOUS
 10
6.752680
 20
1.661000
  0
VERTEX
  8
0
  6
CONTINUOUS
 10
6.739040
 20
1.650440
  0
VERTEX
  8
0
  6
CONTINUOUS
 10
6.085640
 20
1.282600
  0
VERTEX
  8
0
  6
CONTINUOUS
 10
6.099720
 20
1.292720
  0
SEQEND
  8
0
  0
SOLID
  8
0
 62
    15
 10
6.107200
 20
1.331000
 11
6.760160
 21
1.699280
 12
6.099720
 22
1.292720
 13
6.752680
 23
1.661000
  0
POLYLINE
  8
0
  6
CONTINUOUS
 66
     1
 40
0.000000
 41
0.000000
  0
VERTEX
  8
0
  6
CONTINUOUS
 10
6.107200
 20
1.331000
  0
VERTEX
  8
0
  6
CONTINUOUS
 10
6.760160
 20
1.699280
  0
VERTEX
  8
0
  6
CONTINUOUS
 10
6.752680
 20
1.661000
  0
VERTEX
  8
0
  6
CONTINUOUS
 10
6.099720
 20
1.292720
  0
VERTEX
  8
0
  6
CONTINUOUS
 10
6.107200
 20
1.331000
  0
SEQEND
  8
0
  0
POLYLINE
  8
0
  6
CONTINUOUS
 66
     1
 40
0.000000
 41
0.000000
  0
VERTEX
  8
0
  6
CONTINUOUS
 10
2.115080
 20
1.284800
  0
VERTEX
  8
0
  6
CONTINUOUS
 10
2.101000
 20
1.294920
  0
VERTEX
  8
0
  6
CONTINUOUS
 10
2.093520
 20
1.333200
  0
VERTEX
  8
0
  6
CONTINUOUS
 10
2.073720
 20
1.457280
  0
VERTEX
  8
0
  6
CONTINUOUS
 10
2.053040
 20
1.555840
  0
VERTEX
  8
0
  6
CONTINUOUS
 10
1.995840
 20
1.710720
  0
VERTEX
  8
0
  6
CONTINUOUS
 10
1.952280
 20
1.782440
  0
VERTEX
  8
0
  6
CONTINUOUS
 10
1.894200
 20
1.861640
  0
VERTEX
  8
0
  6
CONTINUOUS
 10
1.719960
 20
2.072840
  0
VERTEX
  8
0
  6
CONTINUOUS
 10
1.629760
 20
2.209680
  0
VERTEX
  8
0
  6
CONTINUOUS
 10
1.578720
 20
2.354000
  0
VERTEX
  8
0
  6
CONTINUOUS
 10
1.565080
 20
2.498320
  0
VERTEX
  8
0
  6
CONTINUOUS
 10
1.588840
 20
2.637360
  0
VERTEX
  8
0
  6
CONTINUOUS
 10
1.648680
 20
2.764520
  0
VERTEX
  8
0
  6
CONTINUOUS
 10
1.743720
 20
2.873200
  0
VERTEX
  8
0
  6
CONTINUOUS
 10
1.873520
 20
2.957240
  0
VERTEX
  8
0
  6
CONTINUOUS
 10
2.036760
 20
3.010040
  0
VERTEX
  8
0
  6
CONTINUOUS
 10
2.051720
 20
3.071640
  0
VERTEX
  8
0
  6
CONTINUOUS
 10
2.086920
 20
3.106840
  0
VERTEX
  8
0
  6
CONTINUOUS
 10
2.153800
 20
3.128400
  0
VERTEX
  8
0
  6
CONTINUOUS
 10
2.265120
 20
3.148640
  0
VERTEX
  8
0
  6
CONTINUOUS
 10
2.416920
 20
3.181640
  0
VERTEX
  8
0
  6
CONTINUOUS
 10
2.557280
 20
3.221680
  0
VERTEX
  8
0
  6
CONTINUOUS
 10
2.810720
 20
3.319360
  0
VERTEX
  8
0
  6
CONTINUOUS
 10
3.039960
 20
3.434200
  0
VERTEX
  8
0
  6
CONTINUOUS
 10
3.259520
 20
3.556960
  0
VERTEX
  8
0
  6
CONTINUOUS
 10
3.323760
 20
3.598320
  0
VERTEX
  8
0
  6
CONTINUOUS
 10
3.400760
 20
3.637480
  0
VERTEX
  8
0
  6
CONTINUOUS
 10
3.489640
 20
3.674000
  0
VERTEX
  8
0
  6
CONTINUOUS
 10
3.590400
 20
3.705680
  0
VERTEX
  8
0
  6
CONTINUOUS
 10
3.702600
 20
3.732080
  0
VERTEX
  8
0
  6
CONTINUOUS
 10
3.824920
 20
3.751440
  0
VERTEX
  8
0
  6
CONTINUOUS
 10
3.956920
 20
3.762880
  0
VERTEX
  8
0
  6
CONTINUOUS
 10
4.098160
 20
3.765080
  0
VERTEX
  8
0
  6
CONTINUOUS
 10
4.102560
 20
3.762880
  0
VERTEX
  8
0
  6
CONTINUOUS
 10
4.243800
 20
3.760680
  0
VERTEX
  8
0
  6
CONTINUOUS
 10
4.376240
 20
3.749240
  0
VERTEX
  8
0
  6
CONTINUOUS
 10
4.498560
 20
3.729880
  0
VERTEX
  8
0
  6
CONTINUOUS
 10
4.610320
 20
3.703480
  0
VERTEX
  8
0
  6
CONTINUOUS
 10
4.711080
 20
3.671800
  0
VERTEX
  8
0
  6
CONTINUOUS
 10
4.799960
 20
3.635280
  0
VERTEX
  8
0
  6
CONTINUOUS
 10
4.876960
 20
3.596120
  0
VERTEX
  8
0
  6
CONTINUOUS
 10
4.941200
 20
3.554760
  0
VERTEX
  8
0
  6
CONTINUOUS
 10
5.160760
 20
3.432000
  0
VERTEX
  8
0
  6
CONTINUOUS
 10
5.390000
 20
3.317160
  0
VERTEX
  8
0
  6
CONTINUOUS
 10
5.643440
 20
3.219480
  0
VERTEX
  8
0
  6
CONTINUOUS
 10
5.783800
 20
3.179440
  0
VERTEX
  8
0
  6
CONTINUOUS
 10
5.935600
 20
3.146440
  0
VERTEX
  8
0
  6
CONTINUOUS
 10
6.046920
 20
3.126200
  0
VERTEX
  8
0
  6
CONTINUOUS
 10
6.113800
 20
3.104640
  0
VERTEX
  8
0
  6
CONTINUOUS
 10
6.148560
 20
3.069440
  0
VERTEX
  8
0
  6
CONTINUOUS
 10
6.163960
 20
3.007840
  0
VERTEX
  8
0
  6
CONTINUOUS
 10
6.327200
 20
2.955040
  0
VERTEX
  8
0
  6
CONTINUOUS
 10
6.457000
 20
2.871000
  0
VERTEX
  8
0
  6
CONTINUOUS
 10
6.552040
 20
2.762320
  0
VERTEX
  8
0
  6
CONTINUOUS
 10
6.611880
 20
2.635160
  0
VERTEX
  8
0
  6
CONTINUOUS
 10
6.635640
 20
2.496120
  0
VERTEX
  8
0
  6
CONTINUOUS
 10
6.622000
 20
2.351800
  0
VERTEX
  8
0
  6
CONTINUOUS
 10
6.570520
 20
2.207480
  0
VERTEX
  8
0
  6
CONTINUOUS
 10
6.480760
 20
2.070640
  0
VERTEX
  8
0
  6
CONTINUOUS
 10
6.306520
 20
1.859440
  0
VERTEX
  8
0
  6
CONTINUOUS
 10
6.248440
 20
1.780240
  0
VERTEX
  8
0
  6
CONTINUOUS
 10
6.204880
 20
1.708520
  0
VERTEX
  8
0
  6
CONTINUOUS
 10
6.147680
 20
1.553640
  0
VERTEX
  8
0
  6
CONTINUOUS
 10
6.127000
 20
1.455080
  0
VERTEX
  8
0
  6
CONTINUOUS
 10
6.107200
 20
1.331000
  0
VERTEX
  8
0
  6
CONTINUOUS
 10
6.099720
 20
1.292720
  0
VERTEX
  8
0
  6
CONTINUOUS
 10
6.085640
 20
1.282600
  0
VERTEX
  8
0
  6
CONTINUOUS
 10
2.115080
 20
1.284800
  0
SEQEND
  8
0
  0
TEXT
  8
0
 10
3.622080
 20
1.002760
 40
0.138063
  1
BA  903 2-1/2" x 5"
 41
1.000000
  7
SN0
 71
     0
 72
     5
 11
5.021379
 21
1.002760
  0
TEXT
  8
0
 10
3.622080
 20
0.811360
 40
0.138063
  1
BA  301 Top
 41
1.000000
  7
SN0
 71
     0
 72
     5
 11
4.544235
 21
0.811360
  0
POLYLINE
  8
0
  6
CONTINUOUS
 66
     1
 40
0.014080
 41
0.014080
  0
VERTEX
  8
0
  6
CONTINUOUS
 10
2.506240
 20
4.770040
  0
VERTEX
  8
0
  6
CONTINUOUS
 10
2.496153
 20
4.774196
  0
VERTEX
  8
0
  6
CONTINUOUS
 10
2.489194
 20
4.790084
  0
VERTEX
  8
0
  6
CONTINUOUS
 10
2.484680
 20
4.818880
  0
VERTEX
  8
0
  6
CONTINUOUS
 10
2.475601
 20
4.877485
  0
VERTEX
  8
0
  6
CONTINUOUS
 10
2.466785
 20
4.930274
  0
VERTEX
  8
0
  6
CONTINUOUS
 10
2.457926
 20
4.977952
  0
VERTEX
  8
0
  6
CONTINUOUS
 10
2.448716
 20
5.021222
  0
VERTEX
  8
0
  6
CONTINUOUS
 10
2.438849
 20
5.060787
  0
VERTEX
  8
0
  6
CONTINUOUS
 10
2.428018
 20
5.097351
  0
VERTEX
  8
0
  6
CONTINUOUS
 10
2.415916
 20
5.131617
  0
VERTEX
  8
0
  6
CONTINUOUS
 10
2.402235
 20
5.164289
  0
VERTEX
  8
0
  6
CONTINUOUS
 10
2.386670
 20
5.196070
  0
VERTEX
  8
0
  6
CONTINUOUS
 10
2.368913
 20
5.227664
  0
VERTEX
  8
0
  6
CONTINUOUS
 10
2.348657
 20
5.259773
  0
VERTEX
  8
0
  6
CONTINUOUS
 10
2.325596
 20
5.293102
  0
VERTEX
  8
0
  6
CONTINUOUS
 10
2.299421
 20
5.328354
  0
VERTEX
  8
0
  6
CONTINUOUS
 10
2.269828
 20
5.366233
  0
VERTEX
  8
0
  6
CONTINUOUS
 10
2.236508
 20
5.407441
  0
VERTEX
  8
0
  6
CONTINUOUS
 10
2.199154
 20
5.452683
  0
VERTEX
  8
0
  6
CONTINUOUS
 10
2.157461
 20
5.502661
  0
VERTEX
  8
0
  6
CONTINUOUS
 10
2.111120
 20
5.558080
  0
VERTEX
  8
0
  6
CONTINUOUS
 10
2.084924
 20
5.591355
  0
VERTEX
  8
0
  6
CONTINUOUS
 10
2.061190
 20
5.625361
  0
VERTEX
  8
0
  6
CONTINUOUS
 10
2.039904
 20
5.660000
  0
VERTEX
  8
0
  6
CONTINUOUS
 10
2.021053
 20
5.695173
  0
VERTEX
  8
0
  6
CONTINUOUS
 10
2.004624
 20
5.730780
  0
VERTEX
  8
0
  6
CONTINUOUS
 10
1.990604
 20
5.766724
  0
VERTEX
  8
0
  6
CONTINUOUS
 10
1.978979
 20
5.802906
  0
VERTEX
  8
0
  6
CONTINUOUS
 10
1.969736
 20
5.839226
  0
VERTEX
  8
0
  6
CONTINUOUS
 10
1.962861
 20
5.875586
  0
VERTEX
  8
0
  6
CONTINUOUS
 10
1.958342
 20
5.911888
  0
VERTEX
  8
0
  6
CONTINUOUS
 10
1.956165
 20
5.948032
  0
VERTEX
  8
0
  6
CONTINUOUS
 10
1.956316
 20
5.983919
  0
VERTEX
  8
0
  6
CONTINUOUS
 10
1.958784
 20
6.019452
  0
VERTEX
  8
0
  6
CONTINUOUS
 10
1.963553
 20
6.054530
  0
VERTEX
  8
0
  6
CONTINUOUS
 10
1.970611
 20
6.089056
  0
VERTEX
  8
0
  6
CONTINUOUS
 10
1.979945
 20
6.122930
  0
VERTEX
  8
0
  6
CONTINUOUS
 10
1.991541
 20
6.156054
  0
VERTEX
  8
0
  6
CONTINUOUS
 10
2.005386
 20
6.188329
  0
VERTEX
  8
0
  6
CONTINUOUS
 10
2.021467
 20
6.219656
  0
VERTEX
  8
0
  6
CONTINUOUS
 10
2.039770
 20
6.249937
  0
VERTEX
  8
0
  6
CONTINUOUS
 10
2.060283
 20
6.279072
  0
VERTEX
  8
0
  6
CONTINUOUS
 10
2.082991
 20
6.306964
  0
VERTEX
  8
0
  6
CONTINUOUS
 10
2.107882
 20
6.333512
  0
VERTEX
  8
0
  6
CONTINUOUS
 10
2.134942
 20
6.358619
  0
VERTEX
  8
0
  6
CONTINUOUS
 10
2.164158
 20
6.382185
  0
VERTEX
  8
0
  6
CONTINUOUS
 10
2.195517
 20
6.404112
  0
VERTEX
  8
0
  6
CONTINUOUS
 10
2.229005
 20
6.424301
  0
VERTEX
  8
0
  6
CONTINUOUS
 10
2.264609
 20
6.442654
  0
VERTEX
  8
0
  6
CONTINUOUS
 10
2.302316
 20
6.459070
  0
VERTEX
  8
0
  6
CONTINUOUS
 10
2.342112
 20
6.473453
  0
VERTEX
  8
0
  6
CONTINUOUS
 10
2.383985
 20
6.485702
  0
VERTEX
  8
0
  6
CONTINUOUS
 10
2.427920
 20
6.495720
  0
VERTEX
  8
0
  6
CONTINUOUS
 10
2.436494
 20
6.540117
  0
VERTEX
  8
0
  6
CONTINUOUS
 10
2.451924
 20
6.571058
  0
VERTEX
  8
0
  6
CONTINUOUS
 10
2.477915
 20
6.592245
  0
VERTEX
  8
0
  6
CONTINUOUS
 10
2.518169
 20
6.607382
  0
VERTEX
  8
0
  6
CONTINUOUS
 10
2.576389
 20
6.620173
  0
VERTEX
  8
0
  6
CONTINUOUS
 10
2.656280
 20
6.634320
  0
VERTEX
  8
0
  6
CONTINUOUS
 10
2.708245
 20
6.644399
  0
VERTEX
  8
0
  6
CONTINUOUS
 10
2.758806
 20
6.655362
  0
VERTEX
  8
0
  6
CONTINUOUS
 10
2.808029
 20
6.667169
  0
VERTEX
  8
0
  6
CONTINUOUS
 10
2.855981
 20
6.679783
  0
VERTEX
  8
0
  6
CONTINUOUS
 10
2.902728
 20
6.693165
  0
VERTEX
  8
0
  6
CONTINUOUS
 10
2.948337
 20
6.707277
  0
VERTEX
  8
0
  6
CONTINUOUS
 10
2.992874
 20
6.722082
  0
VERTEX
  8
0
  6
CONTINUOUS
 10
3.036407
 20
6.737541
  0
VERTEX
  8
0
  6
CONTINUOUS
 10
3.079002
 20
6.753615
  0
VERTEX
  8
0
  6
CONTINUOUS
 10
3.120726
 20
6.770267
  0
VERTEX
  8
0
  6
CONTINUOUS
 10
3.161644
 20
6.787458
  0
VERTEX
  8
0
  6
CONTINUOUS
 10
3.201825
 20
6.805150
  0
VERTEX
  8
0
  6
CONTINUOUS
 10
3.241334
 20
6.823305
  0
VERTEX
  8
0
  6
CONTINUOUS
 10
3.280238
 20
6.841885
  0
VERTEX
  8
0
  6
CONTINUOUS
 10
3.318605
 20
6.860851
  0
VERTEX
  8
0
  6
CONTINUOUS
 10
3.356499
 20
6.880166
  0
VERTEX
  8
0
  6
CONTINUOUS
 10
3.393989
 20
6.899791
  0
VERTEX
  8
0
  6
CONTINUOUS
 10
3.431141
 20
6.919687
  0
VERTEX
  8
0
  6
CONTINUOUS
 10
3.468021
 20
6.939818
  0
VERTEX
  8
0
  6
CONTINUOUS
 10
3.504696
 20
6.960144
  0
VERTEX
  8
0
  6
CONTINUOUS
 10
3.541233
 20
6.980627
  0
VERTEX
  8
0
  6
CONTINUOUS
 10
3.577698
 20
7.001230
  0
VERTEX
  8
0
  6
CONTINUOUS
 10
3.614158
 20
7.021914
  0
VERTEX
  8
0
  6
CONTINUOUS
 10
3.650680
 20
7.042640
  0
VERTEX
  8
0
  6
CONTINUOUS
 10
3.676041
 20
7.060205
  0
VERTEX
  8
0
  6
CONTINUOUS
 10
3.703742
 20
7.077548
  0
VERTEX
  8
0
  6
CONTINUOUS
 10
3.733738
 20
7.094578
  0
VERTEX
  8
0
  6
CONTINUOUS
 10
3.765983
 20
7.111203
  0
VERTEX
  8
0
  6
CONTINUOUS
 10
3.800435
 20
7.127334
  0
VERTEX
  8
0
  6
CONTINUOUS
 10
3.837047
 20
7.142878
  0
VERTEX
  8
0
  6
CONTINUOUS
 10
3.875775
 20
7.157746
  0
VERTEX
  8
0
  6
CONTINUOUS
 10
3.916574
 20
7.171847
  0
VERTEX
  8
0
  6
CONTINUOUS
 10
3.959401
 20
7.185089
  0
VERTEX
  8
0
  6
CONTINUOUS
 10
4.004209
 20
7.197382
  0
VERTEX
  8
0
  6
CONTINUOUS
 10
4.050956
 20
7.208635
  0
VERTEX
  8
0
  6
CONTINUOUS
 10
4.099595
 20
7.218758
  0
VERTEX
  8
0
  6
CONTINUOUS
 10
4.150082
 20
7.227658
  0
VERTEX
  8
0
  6
CONTINUOUS
 10
4.202373
 20
7.235246
  0
VERTEX
  8
0
  6
CONTINUOUS
 10
4.256423
 20
7.241431
  0
VERTEX
  8
0
  6
CONTINUOUS
 10
4.312188
 20
7.246122
  0
VERTEX
  8
0
  6
CONTINUOUS
 10
4.369622
 20
7.249227
  0
VERTEX
  8
0
  6
CONTINUOUS
 10
4.428681
 20
7.250657
  0
VERTEX
  8
0
  6
CONTINUOUS
 10
4.489320
 20
7.250320
  0
VERTEX
  8
0
  6
CONTINUOUS
 10
4.489483
 20
7.250239
  0
VERTEX
  8
0
  6
CONTINUOUS
 10
4.490624
 20
7.249668
  0
VERTEX
  8
0
  6
CONTINUOUS
 10
4.493720
 20
7.248120
  0
VERTEX
  8
0
  6
CONTINUOUS
 10
4.554359
 20
7.248457
  0
VERTEX
  8
0
  6
CONTINUOUS
 10
4.613418
 20
7.247027
  0
VERTEX
  8
0
  6
CONTINUOUS
 10
4.670852
 20
7.243922
  0
VERTEX
  8
0
  6
CONTINUOUS
 10
4.726617
 20
7.239231
  0
VERTEX
  8
0
  6
CONTINUOUS
 10
4.780667
 20
7.233046
  0
VERTEX
  8
0
  6
CONTINUOUS
 10
4.832958
 20
7.225458
  0
VERTEX
  8
0
  6
CONTINUOUS
 10
4.883445
 20
7.216558
  0
VERTEX
  8
0
  6
CONTINUOUS
 10
4.932084
 20
7.206435
  0
VERTEX
  8
0
  6
CONTINUOUS
 10
4.978831
 20
7.195182
  0
VERTEX
  8
0
  6
CONTINUOUS
 10
5.023639
 20
7.182889
  0
VERTEX
  8
0
  6
CONTINUOUS
 10
5.066466
 20
7.169647
  0
VERTEX
  8
0
  6
CONTINUOUS
 10
5.107265
 20
7.155546
  0
VERTEX
  8
0
  6
CONTINUOUS
 10
5.145993
 20
7.140678
  0
VERTEX
  8
0
  6
CONTINUOUS
 10
5.182605
 20
7.125134
  0
VERTEX
  8
0
  6
CONTINUOUS
 10
5.217057
 20
7.109003
  0
VERTEX
  8
0
  6
CONTINUOUS
 10
5.249302
 20
7.092378
  0
VERTEX
  8
0
  6
CONTINUOUS
 10
5.279298
 20
7.075348
  0
VERTEX
  8
0
  6
CONTINUOUS
 10
5.306999
 20
7.058005
  0
VERTEX
  8
0
  6
CONTINUOUS
 10
5.332360
 20
7.040440
  0
VERTEX
  8
0
  6
CONTINUOUS
 10
5.368882
 20
7.019714
  0
VERTEX
  8
0
  6
CONTINUOUS
 10
5.405342
 20
6.999030
  0
VERTEX
  8
0
  6
CONTINUOUS
 10
5.441807
 20
6.978427
  0
VERTEX
  8
0
  6
CONTINUOUS
 10
5.478344
 20
6.957942
  0
VERTEX
  8
0
  6
CONTINUOUS
 10
5.515019
 20
6.937614
  0
VERTEX
  8
0
  6
CONTINUOUS
 10
5.551899
 20
6.917481
  0
VERTEX
  8
0
  6
CONTINUOUS
 10
5.589051
 20
6.897580
  0
VERTEX
  8
0
  6
CONTINUOUS
 10
5.626541
 20
6.877950
  0
VERTEX
  8
0
  6
CONTINUOUS
 10
5.664435
 20
6.858628
  0
VERTEX
  8
0
  6
CONTINUOUS
 10
5.702802
 20
6.839653
  0
VERTEX
  8
0
  6
CONTINUOUS
 10
5.741706
 20
6.821063
  0
VERTEX
  8
0
  6
CONTINUOUS
 10
5.781215
 20
6.802895
  0
VERTEX
  8
0
  6
CONTINUOUS
 10
5.821396
 20
6.785188
  0
VERTEX
  8
0
  6
CONTINUOUS
 10
5.862314
 20
6.767979
  0
VERTEX
  8
0
  6
CONTINUOUS
 10
5.904038
 20
6.751308
  0
VERTEX
  8
0
  6
CONTINUOUS
 10
5.946633
 20
6.735210
  0
VERTEX
  8
0
  6
CONTINUOUS
 10
5.990166
 20
6.719726
  0
VERTEX
  8
0
  6
CONTINUOUS
 10
6.034703
 20
6.704892
  0
VERTEX
  8
0
  6
CONTINUOUS
 10
6.080312
 20
6.690747
  0
VERTEX
  8
0
  6
CONTINUOUS
 10
6.127059
 20
6.677328
  0
VERTEX
  8
0
  6
CONTINUOUS
 10
6.175011
 20
6.664674
  0
VERTEX
  8
0
  6
CONTINUOUS
 10
6.224234
 20
6.652823
  0
VERTEX
  8
0
  6
CONTINUOUS
 10
6.274795
 20
6.641812
  0
VERTEX
  8
0
  6
CONTINUOUS
 10
6.326760
 20
6.631680
  0
VERTEX
  8
0
  6
CONTINUOUS
 10
6.326760
 20
6.631680
  0
VERTEX
  8
0
  6
CONTINUOUS
 10
6.406651
 20
6.617718
  0
VERTEX
  8
0
  6
CONTINUOUS
 10
6.464871
 20
6.605052
  0
VERTEX
  8
0
  6
CONTINUOUS
 10
6.505125
 20
6.589990
  0
VERTEX
  8
0
  6
CONTINUOUS
 10
6.531116
 20
6.568841
  0
VERTEX
  8
0
  6
CONTINUOUS
 10
6.546546
 20
6.537915
  0
VERTEX
  8
0
  6
CONTINUOUS
 10
6.555120
 20
6.493520
  0
VERTEX
  8
0
  6
CONTINUOUS
 10
6.599055
 20
6.483502
  0
VERTEX
  8
0
  6
CONTINUOUS
 10
6.640928
 20
6.471253
  0
VERTEX
  8
0
  6
CONTINUOUS
 10
6.680724
 20
6.456870
  0
VERTEX
  8
0
  6
CONTINUOUS
 10
6.718431
 20
6.440454
  0
VERTEX
  8
0
  6
CONTINUOUS
 10
6.754035
 20
6.422101
  0
VERTEX
  8
0
  6
CONTINUOUS
 10
6.787523
 20
6.401912
  0
VERTEX
  8
0
  6
CONTINUOUS
 10
6.818882
 20
6.379985
  0
VERTEX
  8
0
  6
CONTINUOUS
 10
6.848098
 20
6.356419
  0
VERTEX
  8
0
  6
CONTINUOUS
 10
6.875158
 20
6.331312
  0
VERTEX
  8
0
  6
CONTINUOUS
 10
6.900049
 20
6.304764
  0
VERTEX
  8
0
  6
CONTINUOUS
 10
6.922757
 20
6.276872
  0
VERTEX
  8
0
  6
CONTINUOUS
 10
6.943270
 20
6.247737
  0
VERTEX
  8
0
  6
CONTINUOUS
 10
6.961573
 20
6.217456
  0
VERTEX
  8
0
  6
CONTINUOUS
 10
6.977654
 20
6.186129
  0
VERTEX
  8
0
  6
CONTINUOUS
 10
6.991499
 20
6.153854
  0
VERTEX
  8
0
  6
CONTINUOUS
 10
7.003095
 20
6.120730
  0
VERTEX
  8
0
  6
CONTINUOUS
 10
7.012429
 20
6.086856
  0
VERTEX
  8
0
  6
CONTINUOUS
 10
7.019487
 20
6.052330
  0
VERTEX
  8
0
  6
CONTINUOUS
 10
7.024256
 20
6.017252
  0
VERTEX
  8
0
  6
CONTINUOUS
 10
7.026724
 20
5.981719
  0
VERTEX
  8
0
  6
CONTINUOUS
 10
7.026875
 20
5.945832
  0
VERTEX
  8
0
  6
CONTINUOUS
 10
7.024698
 20
5.909688
  0
VERTEX
  8
0
  6
CONTINUOUS
 10
7.020179
 20
5.873386
  0
VERTEX
  8
0
  6
CONTINUOUS
 10
7.013304
 20
5.837026
  0
VERTEX
  8
0
  6
CONTINUOUS
 10
7.004061
 20
5.800706
  0
VERTEX
  8
0
  6
CONTINUOUS
 10
6.992436
 20
5.764524
  0
VERTEX
  8
0
  6
CONTINUOUS
 10
6.978416
 20
5.728580
  0
VERTEX
  8
0
  6
CONTINUOUS
 10
6.961987
 20
5.692973
  0
VERTEX
  8
0
  6
CONTINUOUS
 10
6.943136
 20
5.657800
  0
VERTEX
  8
0
  6
CONTINUOUS
 10
6.921850
 20
5.623161
  0
VERTEX
  8
0
  6
CONTINUOUS
 10
6.898116
 20
5.589155
  0
VERTEX
  8
0
  6
CONTINUOUS
 10
6.871920
 20
5.555880
  0
VERTEX
  8
0
  6
CONTINUOUS
 10
6.825514
 20
5.500461
  0
VERTEX
  8
0
  6
CONTINUOUS
 10
6.783770
 20
5.450483
  0
VERTEX
  8
0
  6
CONTINUOUS
 10
6.746379
 20
5.405241
  0
VERTEX
  8
0
  6
CONTINUOUS
 10
6.713035
 20
5.364033
  0
VERTEX
  8
0
  6
CONTINUOUS
 10
6.683427
 20
5.326154
  0
VERTEX
  8
0
  6
CONTINUOUS
 10
6.657249
 20
5.290902
  0
VERTEX
  8
0
  6
CONTINUOUS
 10
6.634191
 20
5.257573
  0
VERTEX
  8
0
  6
CONTINUOUS
 10
6.613946
 20
5.225464
  0
VERTEX
  8
0
  6
CONTINUOUS
 10
6.596205
 20
5.193870
  0
VERTEX
  8
0
  6
CONTINUOUS
 10
6.580660
 20
5.162089
  0
VERTEX
  8
0
  6
CONTINUOUS
 10
6.567002
 20
5.129417
  0
VERTEX
  8
0
  6
CONTINUOUS
 10
6.554924
 20
5.095151
  0
VERTEX
  8
0
  6
CONTINUOUS
 10
6.544118
 20
5.058587
  0
VERTEX
  8
0
  6
CONTINUOUS
 10
6.534273
 20
5.019022
  0
VERTEX
  8
0
  6
CONTINUOUS
 10
6.525084
 20
4.975752
  0
VERTEX
  8
0
  6
CONTINUOUS
 10
6.516241
 20
4.928074
  0
VERTEX
  8
0
  6
CONTINUOUS
 10
6.507435
 20
4.875285
  0
VERTEX
  8
0
  6
CONTINUOUS
 10
6.498360
 20
4.816680
  0
VERTEX
  8
0
  6
CONTINUOUS
 10
6.493846
 20
4.787884
  0
VERTEX
  8
0
  6
CONTINUOUS
 10
6.486887
 20
4.771996
  0
VERTEX
  8
0
  6
CONTINUOUS
 10
6.476800
 20
4.767840
  0
VERTEX
  8
0
  6
CONTINUOUS
 10
2.506240
 20
4.770040
  0
SEQEND
  8
0
  0
TEXT
  8
0
 10
3.686760
 20
5.101360
 40
0.138063
  1
BA  903 2-1/2" x 5"
 41
1.000000
  7
SN0
 71
     0
 72
     5
 11
5.086059
 21
5.101360
  0
TEXT
  8
0
 10
3.686760
 20
4.909960
 40
0.138063
  1
BA  301 Top
 41
1.000000
  7
SN0
 71
     0
 72
     5
 11
4.608915
 21
4.909960
  0
ENDSEC
  0
EOF
