  0
SECTION
  2
HEADER
  9
$ACADVER
  1
AC1006
  9
$EXTMIN
 10
2.835360
 20
4.631440
  9
$EXTMAX
 10
5.664560
 20
6.368120
  9
$LTSCALE
 40
0.044000
  9
$PDMODE
 70
    35
  9
$PDSIZE
 40
0.035200
  0
ENDSEC
  0
SECTION
  2
TABLES
  0
TABLE
  2
LTYPE
 70
     9
  0
LTYPE
  2
CONTINUOUS
 70
    64
  3
Solid line
 72
    65
 73
     0
 40
0.000000
  0
LTYPE
  2
DASHED
 70
    64
  3
__ __ __ __ __ __ __ __ __ __ __ __ __ __ __
 72
    65
 73
     2
 40
0.000330
 49
0.000220
 49
-0.000110
  0
LTYPE
  2
HIDDEN
 70
    64
  3
 _ _ _ _ _ _ _ _ _ _ _ _ _ _ _ _ _ _ _ _ _ _
 72
    65
 73
     2
 40
0.000165
 49
0.000110
 49
-0.000055
  0
LTYPE
  2
CENTER
 70
    64
  3
____ _ ____ _ ____ _ ____ _ ____ _ ____ _ ____
 72
    65
 73
     4
 40
0.000880
 49
0.000550
 49
-0.000110
 49
0.000110
 49
-0.000110
  0
LTYPE
  2
PHANTOM
 70
    64
  3
_____ _ _ _____ _ _ _____ _ _ _____ _ _ ____
 72
    65
 73
     6
 40
0.001100
 49
0.000550
 49
-0.000110
 49
0.000110
 49
-0.000110
 49
0.000110
 49
-0.000110
  0
LTYPE
  2
DOT
 70
    64
  3
...............................................
 72
    65
 73
     2
 40
0.000110
 49
0.000000
 49
-0.000110
  0
LTYPE
  2
DASHDOT
 70
    64
  3
__ . __ . __ . __ . __ . __ . __ . __ . __ . __
 72
    65
 73
     4
 40
0.000440
 49
0.000220
 49
-0.000110
 49
0.000000
 49
-0.000110
  0
LTYPE
  2
BORDER
 70
    64
  3
__ __ . __ __ . __ __ . __ __ . __ __ . __ __
 72
    65
 73
     6
 40
0.000770
 49
0.000220
 49
-0.000110
 49
0.000220
 49
-0.000110
 49
0.000000
 49
-0.000110
  0
LTYPE
  2
DIVIDE
 70
    64
  3
__ . . __ . . __ . . __ . . __ . . __ . . __
 72
    65
 73
     6
 40
0.000550
 49
0.000220
 49
-0.000110
 49
0.000000
 49
-0.000110
 49
0.000000
 49
-0.000110
  0
LTYPE
  2
DOTDOT
 70
    64
  3
 . .  . .  . .  . .  . .  . . 
 72
    65
 73
     5
 40
0.000242
 49
-0.000110
 49
0.000000
 49
-0.000110
 49
0.000000
 49
-0.000110
  0
ENDTAB
  0
TABLE
  2
STYLE
 70
     2
  0
STYLE
 70
     0
  2
SN0
 40
0.000000
 41
0.000440
 50
0.000000
 71
     0
 42
0.000000
  3
ROMAND
  0
STYLE
 70
    68
  2
SV0
 40
0.000000
 41
0.000440
 50
0.000000
 71
     0
 42
0.000000
  3
ROMAND
  0
ENDTAB
  0
TABLE
  2
LAYER
 70
     3
  0
LAYER
  2
FOREGROUND
 70
    64
 62
     7
  6
CONTINUOUS
  0
LAYER
  2
BACKGROUND
 70
    65
 62
    -7
  6
CONTINUOUS
  0
LAYER
  2
0
 70
    64
 62
     7
  6
CONTINUOUS
  0
ENDTAB
  0
ENDSEC
  0
SECTION
  2
ENTITIES
  0
POLYLINE
  8
FOREGROUND
  6
CONTINUOUS
 66
     1
 40
0.000000
 41
0.000000
  0
VERTEX
  8
FOREGROUND
  6
CONTINUOUS
 10
0.000000
 20
10.999560
  0
VERTEX
  8
FOREGROUND
  6
CONTINUOUS
 10
8.499920
 20
10.999560
  0
VERTEX
  8
FOREGROUND
  6
CONTINUOUS
 10
8.499920
 20
-0.000440
  0
VERTEX
  8
FOREGROUND
  6
CONTINUOUS
 10
0.000000
 20
-0.000440
  0
VERTEX
  8
FOREGROUND
  6
CONTINUOUS
 10
0.000000
 20
10.999560
  0
SEQEND
  8
0
  0
POLYLINE
  8
FOREGROUND
  6
CONTINUOUS
 66
     1
 40
0.000000
 41
0.000000
  0
VERTEX
  8
FOREGROUND
  6
CONTINUOUS
 10
0.000000
 20
10.999560
  0
VERTEX
  8
FOREGROUND
  6
CONTINUOUS
 10
8.499920
 20
10.999560
  0
VERTEX
  8
FOREGROUND
  6
CONTINUOUS
 10
8.499920
 20
-0.000440
  0
VERTEX
  8
FOREGROUND
  6
CONTINUOUS
 10
0.000000
 20
-0.000440
  0
VERTEX
  8
FOREGROUND
  6
CONTINUOUS
 10
0.000000
 20
10.999560
  0
SEQEND
  8
0
  0
TEXT
  8
0
 10
3.167560
 20
4.865960
 40
0.138235
  1
BA  902
 41
1.000000
  7
SN0
 71
     0
 72
     5
 11
3.757590
 21
4.865960
  0
TEXT
  8
0
 10
3.035120
 20
4.674560
 40
0.138235
  1
1/2" x1-1/4"
 41
1.000000
  7
SN0
 71
     0
 72
     5
 11
3.889538
 21
4.674560
  0
SOLID
  8
0
 62
    15
 10
3.579840
 20
5.346000
 11
3.577200
 21
6.092240
 12
3.626480
 22
5.313000
 13
3.623840
 23
6.059240
  0
POLYLINE
  8
0
  6
CONTINUOUS
 66
     1
 40
0.000000
 41
0.000000
  0
VERTEX
  8
0
  6
CONTINUOUS
 10
3.579840
 20
5.346000
  0
VERTEX
  8
0
  6
CONTINUOUS
 10
3.577200
 20
6.092240
  0
VERTEX
  8
0
  6
CONTINUOUS
 10
3.623840
 20
6.059240
  0
VERTEX
  8
0
  6
CONTINUOUS
 10
3.626480
 20
5.313000
  0
VERTEX
  8
0
  6
CONTINUOUS
 10
3.579840
 20
5.346000
  0
SEQEND
  8
0
  0
SOLID
  8
0
 62
    15
 10
2.838880
 20
5.115000
 11
2.835800
 21
5.860800
 12
2.838880
 22
5.430480
 13
2.835800
 23
6.176720
  0
POLYLINE
  8
0
  6
CONTINUOUS
 66
     1
 40
0.000000
 41
0.000000
  0
VERTEX
  8
0
  6
CONTINUOUS
 10
2.838880
 20
5.115000
  0
VERTEX
  8
0
  6
CONTINUOUS
 10
2.835800
 20
5.860800
  0
VERTEX
  8
0
  6
CONTINUOUS
 10
2.835800
 20
6.176720
  0
VERTEX
  8
0
  6
CONTINUOUS
 10
2.838880
 20
5.430480
  0
VERTEX
  8
0
  6
CONTINUOUS
 10
2.838880
 20
5.115000
  0
SEQEND
  8
0
  0
SOLID
  8
0
 62
    15
 10
2.933920
 20
5.430480
 11
2.931280
 21
6.176720
 12
2.950200
 22
5.477560
 13
2.947120
 23
6.223360
  0
POLYLINE
  8
0
  6
CONTINUOUS
 66
     1
 40
0.000000
 41
0.000000
  0
VERTEX
  8
0
  6
CONTINUOUS
 10
2.933920
 20
5.430480
  0
VERTEX
  8
0
  6
CONTINUOUS
 10
2.931280
 20
6.176720
  0
VERTEX
  8
0
  6
CONTINUOUS
 10
2.947120
 20
6.223360
  0
VERTEX
  8
0
  6
CONTINUOUS
 10
2.950200
 20
5.477560
  0
VERTEX
  8
0
  6
CONTINUOUS
 10
2.933920
 20
5.430480
  0
SEQEND
  8
0
  0
SOLID
  8
0
 62
    15
 10
2.950200
 20
5.477560
 11
2.947120
 21
6.223360
 12
2.970440
 22
5.516720
 13
2.967360
 23
6.262960
  0
POLYLINE
  8
0
  6
CONTINUOUS
 66
     1
 40
0.000000
 41
0.000000
  0
VERTEX
  8
0
  6
CONTINUOUS
 10
2.950200
 20
5.477560
  0
VERTEX
  8
0
  6
CONTINUOUS
 10
2.947120
 20
6.223360
  0
VERTEX
  8
0
  6
CONTINUOUS
 10
2.967360
 20
6.262960
  0
VERTEX
  8
0
  6
CONTINUOUS
 10
2.970440
 20
5.516720
  0
VERTEX
  8
0
  6
CONTINUOUS
 10
2.950200
 20
5.477560
  0
SEQEND
  8
0
  0
SOLID
  8
0
 62
    15
 10
2.970440
 20
5.516720
 11
2.967360
 21
6.262960
 12
2.994640
 22
5.549280
 13
2.991560
 23
6.295080
  0
POLYLINE
  8
0
  6
CONTINUOUS
 66
     1
 40
0.000000
 41
0.000000
  0
VERTEX
  8
0
  6
CONTINUOUS
 10
2.970440
 20
5.516720
  0
VERTEX
  8
0
  6
CONTINUOUS
 10
2.967360
 20
6.262960
  0
VERTEX
  8
0
  6
CONTINUOUS
 10
2.991560
 20
6.295080
  0
VERTEX
  8
0
  6
CONTINUOUS
 10
2.994640
 20
5.549280
  0
VERTEX
  8
0
  6
CONTINUOUS
 10
2.970440
 20
5.516720
  0
SEQEND
  8
0
  0
SOLID
  8
0
 62
    15
 10
2.994640
 20
5.549280
 11
2.991560
 21
6.295080
 12
3.022360
 22
5.574800
 13
3.019280
 23
6.321040
  0
POLYLINE
  8
0
  6
CONTINUOUS
 66
     1
 40
0.000000
 41
0.000000
  0
VERTEX
  8
0
  6
CONTINUOUS
 10
2.994640
 20
5.549280
  0
VERTEX
  8
0
  6
CONTINUOUS
 10
2.991560
 20
6.295080
  0
VERTEX
  8
0
  6
CONTINUOUS
 10
3.019280
 20
6.321040
  0
VERTEX
  8
0
  6
CONTINUOUS
 10
3.022360
 20
5.574800
  0
VERTEX
  8
0
  6
CONTINUOUS
 10
2.994640
 20
5.549280
  0
SEQEND
  8
0
  0
SOLID
  8
0
 62
    15
 10
3.022360
 20
5.574800
 11
3.019280
 21
6.321040
 12
3.052280
 22
5.594600
 13
3.049640
 23
6.340840
  0
POLYLINE
  8
0
  6
CONTINUOUS
 66
     1
 40
0.000000
 41
0.000000
  0
VERTEX
  8
0
  6
CONTINUOUS
 10
3.022360
 20
5.574800
  0
VERTEX
  8
0
  6
CONTINUOUS
 10
3.019280
 20
6.321040
  0
VERTEX
  8
0
  6
CONTINUOUS
 10
3.049640
 20
6.340840
  0
VERTEX
  8
0
  6
CONTINUOUS
 10
3.052280
 20
5.594600
  0
VERTEX
  8
0
  6
CONTINUOUS
 10
3.022360
 20
5.574800
  0
SEQEND
  8
0
  0
SOLID
  8
0
 62
    15
 10
3.052280
 20
5.594600
 11
3.049640
 21
6.340840
 12
3.084840
 22
5.608680
 13
3.082200
 23
6.354920
  0
POLYLINE
  8
0
  6
CONTINUOUS
 66
     1
 40
0.000000
 41
0.000000
  0
VERTEX
  8
0
  6
CONTINUOUS
 10
3.052280
 20
5.594600
  0
VERTEX
  8
0
  6
CONTINUOUS
 10
3.049640
 20
6.340840
  0
VERTEX
  8
0
  6
CONTINUOUS
 10
3.082200
 20
6.354920
  0
VERTEX
  8
0
  6
CONTINUOUS
 10
3.084840
 20
5.608680
  0
VERTEX
  8
0
  6
CONTINUOUS
 10
3.052280
 20
5.594600
  0
SEQEND
  8
0
  0
SOLID
  8
0
 62
    15
 10
3.084840
 20
5.608680
 11
3.082200
 21
6.354920
 12
3.119160
 22
5.617480
 13
3.116080
 23
6.363280
  0
POLYLINE
  8
0
  6
CONTINUOUS
 66
     1
 40
0.000000
 41
0.000000
  0
VERTEX
  8
0
  6
CONTINUOUS
 10
3.084840
 20
5.608680
  0
VERTEX
  8
0
  6
CONTINUOUS
 10
3.082200
 20
6.354920
  0
VERTEX
  8
0
  6
CONTINUOUS
 10
3.116080
 20
6.363280
  0
VERTEX
  8
0
  6
CONTINUOUS
 10
3.119160
 20
5.617480
  0
VERTEX
  8
0
  6
CONTINUOUS
 10
3.084840
 20
5.608680
  0
SEQEND
  8
0
  0
SOLID
  8
0
 62
    15
 10
3.119160
 20
5.617480
 11
3.116080
 21
6.363280
 12
3.154360
 22
5.621000
 13
3.151280
 23
6.367240
  0
POLYLINE
  8
0
  6
CONTINUOUS
 66
     1
 40
0.000000
 41
0.000000
  0
VERTEX
  8
0
  6
CONTINUOUS
 10
3.119160
 20
5.617480
  0
VERTEX
  8
0
  6
CONTINUOUS
 10
3.116080
 20
6.363280
  0
VERTEX
  8
0
  6
CONTINUOUS
 10
3.151280
 20
6.367240
  0
VERTEX
  8
0
  6
CONTINUOUS
 10
3.154360
 20
5.621000
  0
VERTEX
  8
0
  6
CONTINUOUS
 10
3.119160
 20
5.617480
  0
SEQEND
  8
0
  0
SOLID
  8
0
 62
    15
 10
3.154360
 20
5.621000
 11
3.151280
 21
6.367240
 12
3.190000
 22
5.620560
 13
3.186920
 23
6.366800
  0
POLYLINE
  8
0
  6
CONTINUOUS
 66
     1
 40
0.000000
 41
0.000000
  0
VERTEX
  8
0
  6
CONTINUOUS
 10
3.154360
 20
5.621000
  0
VERTEX
  8
0
  6
CONTINUOUS
 10
3.151280
 20
6.367240
  0
VERTEX
  8
0
  6
CONTINUOUS
 10
3.186920
 20
6.366800
  0
VERTEX
  8
0
  6
CONTINUOUS
 10
3.190000
 20
5.620560
  0
VERTEX
  8
0
  6
CONTINUOUS
 10
3.154360
 20
5.621000
  0
SEQEND
  8
0
  0
SOLID
  8
0
 62
    15
 10
3.190000
 20
5.620560
 11
3.186920
 21
6.366800
 12
3.225640
 22
5.616160
 13
3.222560
 23
6.362400
  0
POLYLINE
  8
0
  6
CONTINUOUS
 66
     1
 40
0.000000
 41
0.000000
  0
VERTEX
  8
0
  6
CONTINUOUS
 10
3.190000
 20
5.620560
  0
VERTEX
  8
0
  6
CONTINUOUS
 10
3.186920
 20
6.366800
  0
VERTEX
  8
0
  6
CONTINUOUS
 10
3.222560
 20
6.362400
  0
VERTEX
  8
0
  6
CONTINUOUS
 10
3.225640
 20
5.616160
  0
VERTEX
  8
0
  6
CONTINUOUS
 10
3.190000
 20
5.620560
  0
SEQEND
  8
0
  0
SOLID
  8
0
 62
    15
 10
3.225640
 20
5.616160
 11
3.222560
 21
6.362400
 12
3.260400
 22
5.608240
 13
3.257320
 23
6.354040
  0
POLYLINE
  8
0
  6
CONTINUOUS
 66
     1
 40
0.000000
 41
0.000000
  0
VERTEX
  8
0
  6
CONTINUOUS
 10
3.225640
 20
5.616160
  0
VERTEX
  8
0
  6
CONTINUOUS
 10
3.222560
 20
6.362400
  0
VERTEX
  8
0
  6
CONTINUOUS
 10
3.257320
 20
6.354040
  0
VERTEX
  8
0
  6
CONTINUOUS
 10
3.260400
 20
5.608240
  0
VERTEX
  8
0
  6
CONTINUOUS
 10
3.225640
 20
5.616160
  0
SEQEND
  8
0
  0
SOLID
  8
0
 62
    15
 10
3.260400
 20
5.608240
 11
3.257320
 21
6.354040
 12
3.294280
 22
5.596800
 13
3.291200
 23
6.343040
  0
POLYLINE
  8
0
  6
CONTINUOUS
 66
     1
 40
0.000000
 41
0.000000
  0
VERTEX
  8
0
  6
CONTINUOUS
 10
3.260400
 20
5.608240
  0
VERTEX
  8
0
  6
CONTINUOUS
 10
3.257320
 20
6.354040
  0
VERTEX
  8
0
  6
CONTINUOUS
 10
3.291200
 20
6.343040
  0
VERTEX
  8
0
  6
CONTINUOUS
 10
3.294280
 20
5.596800
  0
VERTEX
  8
0
  6
CONTINUOUS
 10
3.260400
 20
5.608240
  0
SEQEND
  8
0
  0
SOLID
  8
0
 62
    15
 10
3.294280
 20
5.596800
 11
3.291200
 21
6.343040
 12
3.326400
 22
5.583160
 13
3.323320
 23
6.328960
  0
POLYLINE
  8
0
  6
CONTINUOUS
 66
     1
 40
0.000000
 41
0.000000
  0
VERTEX
  8
0
  6
CONTINUOUS
 10
3.294280
 20
5.596800
  0
VERTEX
  8
0
  6
CONTINUOUS
 10
3.291200
 20
6.343040
  0
VERTEX
  8
0
  6
CONTINUOUS
 10
3.323320
 20
6.328960
  0
VERTEX
  8
0
  6
CONTINUOUS
 10
3.326400
 20
5.583160
  0
VERTEX
  8
0
  6
CONTINUOUS
 10
3.294280
 20
5.596800
  0
SEQEND
  8
0
  0
SOLID
  8
0
 62
    15
 10
3.326400
 20
5.583160
 11
3.323320
 21
6.328960
 12
3.356320
 22
5.566880
 13
3.353240
 23
6.313120
  0
POLYLINE
  8
0
  6
CONTINUOUS
 66
     1
 40
0.000000
 41
0.000000
  0
VERTEX
  8
0
  6
CONTINUOUS
 10
3.326400
 20
5.583160
  0
VERTEX
  8
0
  6
CONTINUOUS
 10
3.323320
 20
6.328960
  0
VERTEX
  8
0
  6
CONTINUOUS
 10
3.353240
 20
6.313120
  0
VERTEX
  8
0
  6
CONTINUOUS
 10
3.356320
 20
5.566880
  0
VERTEX
  8
0
  6
CONTINUOUS
 10
3.326400
 20
5.583160
  0
SEQEND
  8
0
  0
SOLID
  8
0
 62
    15
 10
3.356320
 20
5.566880
 11
3.353240
 21
6.313120
 12
3.383160
 22
5.548840
 13
3.380080
 23
6.295080
  0
POLYLINE
  8
0
  6
CONTINUOUS
 66
     1
 40
0.000000
 41
0.000000
  0
VERTEX
  8
0
  6
CONTINUOUS
 10
3.356320
 20
5.566880
  0
VERTEX
  8
0
  6
CONTINUOUS
 10
3.353240
 20
6.313120
  0
VERTEX
  8
0
  6
CONTINUOUS
 10
3.380080
 20
6.295080
  0
VERTEX
  8
0
  6
CONTINUOUS
 10
3.383160
 20
5.548840
  0
VERTEX
  8
0
  6
CONTINUOUS
 10
3.356320
 20
5.566880
  0
SEQEND
  8
0
  0
SOLID
  8
0
 62
    15
 10
3.383160
 20
5.548840
 11
3.380080
 21
6.295080
 12
3.406480
 22
5.529480
 13
3.403400
 23
6.275720
  0
POLYLINE
  8
0
  6
CONTINUOUS
 66
     1
 40
0.000000
 41
0.000000
  0
VERTEX
  8
0
  6
CONTINUOUS
 10
3.383160
 20
5.548840
  0
VERTEX
  8
0
  6
CONTINUOUS
 10
3.380080
 20
6.295080
  0
VERTEX
  8
0
  6
CONTINUOUS
 10
3.403400
 20
6.275720
  0
VERTEX
  8
0
  6
CONTINUOUS
 10
3.406480
 20
5.529480
  0
VERTEX
  8
0
  6
CONTINUOUS
 10
3.383160
 20
5.548840
  0
SEQEND
  8
0
  0
SOLID
  8
0
 62
    15
 10
3.406480
 20
5.529480
 11
3.403400
 21
6.275720
 12
3.429360
 22
5.507040
 13
3.426280
 23
6.253280
  0
POLYLINE
  8
0
  6
CONTINUOUS
 66
     1
 40
0.000000
 41
0.000000
  0
VERTEX
  8
0
  6
CONTINUOUS
 10
3.406480
 20
5.529480
  0
VERTEX
  8
0
  6
CONTINUOUS
 10
3.403400
 20
6.275720
  0
VERTEX
  8
0
  6
CONTINUOUS
 10
3.426280
 20
6.253280
  0
VERTEX
  8
0
  6
CONTINUOUS
 10
3.429360
 20
5.507040
  0
VERTEX
  8
0
  6
CONTINUOUS
 10
3.406480
 20
5.529480
  0
SEQEND
  8
0
  0
SOLID
  8
0
 62
    15
 10
3.429360
 20
5.507040
 11
3.426280
 21
6.253280
 12
3.449600
 22
5.484600
 13
3.446520
 23
6.230840
  0
POLYLINE
  8
0
  6
CONTINUOUS
 66
     1
 40
0.000000
 41
0.000000
  0
VERTEX
  8
0
  6
CONTINUOUS
 10
3.429360
 20
5.507040
  0
VERTEX
  8
0
  6
CONTINUOUS
 10
3.426280
 20
6.253280
  0
VERTEX
  8
0
  6
CONTINUOUS
 10
3.446520
 20
6.230840
  0
VERTEX
  8
0
  6
CONTINUOUS
 10
3.449600
 20
5.484600
  0
VERTEX
  8
0
  6
CONTINUOUS
 10
3.429360
 20
5.507040
  0
SEQEND
  8
0
  0
SOLID
  8
0
 62
    15
 10
3.449600
 20
5.484600
 11
3.446520
 21
6.230840
 12
3.468520
 22
5.462160
 13
3.465880
 23
6.208400
  0
POLYLINE
  8
0
  6
CONTINUOUS
 66
     1
 40
0.000000
 41
0.000000
  0
VERTEX
  8
0
  6
CONTINUOUS
 10
3.449600
 20
5.484600
  0
VERTEX
  8
0
  6
CONTINUOUS
 10
3.446520
 20
6.230840
  0
VERTEX
  8
0
  6
CONTINUOUS
 10
3.465880
 20
6.208400
  0
VERTEX
  8
0
  6
CONTINUOUS
 10
3.468520
 20
5.462160
  0
VERTEX
  8
0
  6
CONTINUOUS
 10
3.449600
 20
5.484600
  0
SEQEND
  8
0
  0
SOLID
  8
0
 62
    15
 10
3.468520
 20
5.462160
 11
3.465880
 21
6.208400
 12
3.487440
 22
5.439720
 13
3.484360
 23
6.185960
  0
POLYLINE
  8
0
  6
CONTINUOUS
 66
     1
 40
0.000000
 41
0.000000
  0
VERTEX
  8
0
  6
CONTINUOUS
 10
3.468520
 20
5.462160
  0
VERTEX
  8
0
  6
CONTINUOUS
 10
3.465880
 20
6.208400
  0
VERTEX
  8
0
  6
CONTINUOUS
 10
3.484360
 20
6.185960
  0
VERTEX
  8
0
  6
CONTINUOUS
 10
3.487440
 20
5.439720
  0
VERTEX
  8
0
  6
CONTINUOUS
 10
3.468520
 20
5.462160
  0
SEQEND
  8
0
  0
SOLID
  8
0
 62
    15
 10
3.487440
 20
5.439720
 11
3.484360
 21
6.185960
 12
3.527920
 22
5.393960
 13
3.524840
 23
6.140200
  0
POLYLINE
  8
0
  6
CONTINUOUS
 66
     1
 40
0.000000
 41
0.000000
  0
VERTEX
  8
0
  6
CONTINUOUS
 10
3.487440
 20
5.439720
  0
VERTEX
  8
0
  6
CONTINUOUS
 10
3.484360
 20
6.185960
  0
VERTEX
  8
0
  6
CONTINUOUS
 10
3.524840
 20
6.140200
  0
VERTEX
  8
0
  6
CONTINUOUS
 10
3.527920
 20
5.393960
  0
VERTEX
  8
0
  6
CONTINUOUS
 10
3.487440
 20
5.439720
  0
SEQEND
  8
0
  0
SOLID
  8
0
 62
    15
 10
3.527920
 20
5.393960
 11
3.524840
 21
6.140200
 12
3.552120
 22
5.370640
 13
3.549040
 23
6.116440
  0
POLYLINE
  8
0
  6
CONTINUOUS
 66
     1
 40
0.000000
 41
0.000000
  0
VERTEX
  8
0
  6
CONTINUOUS
 10
3.527920
 20
5.393960
  0
VERTEX
  8
0
  6
CONTINUOUS
 10
3.524840
 20
6.140200
  0
VERTEX
  8
0
  6
CONTINUOUS
 10
3.549040
 20
6.116440
  0
VERTEX
  8
0
  6
CONTINUOUS
 10
3.552120
 20
5.370640
  0
VERTEX
  8
0
  6
CONTINUOUS
 10
3.527920
 20
5.393960
  0
SEQEND
  8
0
  0
SOLID
  8
0
 62
    15
 10
3.552120
 20
5.370640
 11
3.549040
 21
6.116440
 12
3.579840
 22
5.346000
 13
3.577200
 23
6.092240
  0
POLYLINE
  8
0
  6
CONTINUOUS
 66
     1
 40
0.000000
 41
0.000000
  0
VERTEX
  8
0
  6
CONTINUOUS
 10
3.552120
 20
5.370640
  0
VERTEX
  8
0
  6
CONTINUOUS
 10
3.549040
 20
6.116440
  0
VERTEX
  8
0
  6
CONTINUOUS
 10
3.577200
 20
6.092240
  0
VERTEX
  8
0
  6
CONTINUOUS
 10
3.579840
 20
5.346000
  0
VERTEX
  8
0
  6
CONTINUOUS
 10
3.552120
 20
5.370640
  0
SEQEND
  8
0
  0
SOLID
  8
0
 62
    15
 10
2.838880
 20
5.430480
 11
2.835800
 21
6.176720
 12
2.933920
 22
5.430480
 13
2.931280
 23
6.176720
  0
POLYLINE
  8
0
  6
CONTINUOUS
 66
     1
 40
0.000000
 41
0.000000
  0
VERTEX
  8
0
  6
CONTINUOUS
 10
2.838880
 20
5.430480
  0
VERTEX
  8
0
  6
CONTINUOUS
 10
2.835800
 20
6.176720
  0
VERTEX
  8
0
  6
CONTINUOUS
 10
2.931280
 20
6.176720
  0
VERTEX
  8
0
  6
CONTINUOUS
 10
2.933920
 20
5.430480
  0
VERTEX
  8
0
  6
CONTINUOUS
 10
2.838880
 20
5.430480
  0
SEQEND
  8
0
  0
SOLID
  8
0
 62
    15
 10
3.626480
 20
5.313000
 11
3.623840
 21
6.059240
 12
3.672240
 22
5.289240
 13
3.669600
 23
6.035480
  0
POLYLINE
  8
0
  6
CONTINUOUS
 66
     1
 40
0.000000
 41
0.000000
  0
VERTEX
  8
0
  6
CONTINUOUS
 10
3.626480
 20
5.313000
  0
VERTEX
  8
0
  6
CONTINUOUS
 10
3.623840
 20
6.059240
  0
VERTEX
  8
0
  6
CONTINUOUS
 10
3.669600
 20
6.035480
  0
VERTEX
  8
0
  6
CONTINUOUS
 10
3.672240
 20
5.289240
  0
VERTEX
  8
0
  6
CONTINUOUS
 10
3.626480
 20
5.313000
  0
SEQEND
  8
0
  0
SOLID
  8
0
 62
    15
 10
3.672240
 20
5.289240
 11
3.669600
 21
6.035480
 12
3.717560
 22
5.275160
 13
3.714480
 23
6.020960
  0
POLYLINE
  8
0
  6
CONTINUOUS
 66
     1
 40
0.000000
 41
0.000000
  0
VERTEX
  8
0
  6
CONTINUOUS
 10
3.672240
 20
5.289240
  0
VERTEX
  8
0
  6
CONTINUOUS
 10
3.669600
 20
6.035480
  0
VERTEX
  8
0
  6
CONTINUOUS
 10
3.714480
 20
6.020960
  0
VERTEX
  8
0
  6
CONTINUOUS
 10
3.717560
 20
5.275160
  0
VERTEX
  8
0
  6
CONTINUOUS
 10
3.672240
 20
5.289240
  0
SEQEND
  8
0
  0
SOLID
  8
0
 62
    15
 10
3.717560
 20
5.275160
 11
3.714480
 21
6.020960
 12
3.762440
 22
5.269880
 13
3.759360
 23
6.016120
  0
POLYLINE
  8
0
  6
CONTINUOUS
 66
     1
 40
0.000000
 41
0.000000
  0
VERTEX
  8
0
  6
CONTINUOUS
 10
3.717560
 20
5.275160
  0
VERTEX
  8
0
  6
CONTINUOUS
 10
3.714480
 20
6.020960
  0
VERTEX
  8
0
  6
CONTINUOUS
 10
3.759360
 20
6.016120
  0
VERTEX
  8
0
  6
CONTINUOUS
 10
3.762440
 20
5.269880
  0
VERTEX
  8
0
  6
CONTINUOUS
 10
3.717560
 20
5.275160
  0
SEQEND
  8
0
  0
SOLID
  8
0
 62
    15
 10
3.762440
 20
5.269880
 11
3.759360
 21
6.016120
 12
3.776080
 22
5.297600
 13
3.773440
 23
6.043840
  0
POLYLINE
  8
0
  6
CONTINUOUS
 66
     1
 40
0.000000
 41
0.000000
  0
VERTEX
  8
0
  6
CONTINUOUS
 10
3.762440
 20
5.269880
  0
VERTEX
  8
0
  6
CONTINUOUS
 10
3.759360
 20
6.016120
  0
VERTEX
  8
0
  6
CONTINUOUS
 10
3.773440
 20
6.043840
  0
VERTEX
  8
0
  6
CONTINUOUS
 10
3.776080
 20
5.297600
  0
VERTEX
  8
0
  6
CONTINUOUS
 10
3.762440
 20
5.269880
  0
SEQEND
  8
0
  0
SOLID
  8
0
 62
    15
 10
3.776080
 20
5.297600
 11
3.773440
 21
6.043840
 12
3.790600
 22
5.320480
 13
3.787520
 23
6.066280
  0
POLYLINE
  8
0
  6
CONTINUOUS
 66
     1
 40
0.000000
 41
0.000000
  0
VERTEX
  8
0
  6
CONTINUOUS
 10
3.776080
 20
5.297600
  0
VERTEX
  8
0
  6
CONTINUOUS
 10
3.773440
 20
6.043840
  0
VERTEX
  8
0
  6
CONTINUOUS
 10
3.787520
 20
6.066280
  0
VERTEX
  8
0
  6
CONTINUOUS
 10
3.790600
 20
5.320480
  0
VERTEX
  8
0
  6
CONTINUOUS
 10
3.776080
 20
5.297600
  0
SEQEND
  8
0
  0
SOLID
  8
0
 62
    15
 10
3.790600
 20
5.320480
 11
3.787520
 21
6.066280
 12
3.805120
 22
5.338080
 13
3.802040
 23
6.083880
  0
POLYLINE
  8
0
  6
CONTINUOUS
 66
     1
 40
0.000000
 41
0.000000
  0
VERTEX
  8
0
  6
CONTINUOUS
 10
3.790600
 20
5.320480
  0
VERTEX
  8
0
  6
CONTINUOUS
 10
3.787520
 20
6.066280
  0
VERTEX
  8
0
  6
CONTINUOUS
 10
3.802040
 20
6.083880
  0
VERTEX
  8
0
  6
CONTINUOUS
 10
3.805120
 20
5.338080
  0
VERTEX
  8
0
  6
CONTINUOUS
 10
3.790600
 20
5.320480
  0
SEQEND
  8
0
  0
SOLID
  8
0
 62
    15
 10
3.805120
 20
5.338080
 11
3.802040
 21
6.083880
 12
3.820080
 22
5.351280
 13
3.817000
 23
6.097080
  0
POLYLINE
  8
0
  6
CONTINUOUS
 66
     1
 40
0.000000
 41
0.000000
  0
VERTEX
  8
0
  6
CONTINUOUS
 10
3.805120
 20
5.338080
  0
VERTEX
  8
0
  6
CONTINUOUS
 10
3.802040
 20
6.083880
  0
VERTEX
  8
0
  6
CONTINUOUS
 10
3.817000
 20
6.097080
  0
VERTEX
  8
0
  6
CONTINUOUS
 10
3.820080
 20
5.351280
  0
VERTEX
  8
0
  6
CONTINUOUS
 10
3.805120
 20
5.338080
  0
SEQEND
  8
0
  0
SOLID
  8
0
 62
    15
 10
3.820080
 20
5.351280
 11
3.817000
 21
6.097080
 12
3.835040
 22
5.360080
 13
3.831960
 23
6.106320
  0
POLYLINE
  8
0
  6
CONTINUOUS
 66
     1
 40
0.000000
 41
0.000000
  0
VERTEX
  8
0
  6
CONTINUOUS
 10
3.820080
 20
5.351280
  0
VERTEX
  8
0
  6
CONTINUOUS
 10
3.817000
 20
6.097080
  0
VERTEX
  8
0
  6
CONTINUOUS
 10
3.831960
 20
6.106320
  0
VERTEX
  8
0
  6
CONTINUOUS
 10
3.835040
 20
5.360080
  0
VERTEX
  8
0
  6
CONTINUOUS
 10
3.820080
 20
5.351280
  0
SEQEND
  8
0
  0
SOLID
  8
0
 62
    15
 10
3.835040
 20
5.360080
 11
3.831960
 21
6.106320
 12
3.850000
 22
5.365360
 13
3.846920
 23
6.111600
  0
POLYLINE
  8
0
  6
CONTINUOUS
 66
     1
 40
0.000000
 41
0.000000
  0
VERTEX
  8
0
  6
CONTINUOUS
 10
3.835040
 20
5.360080
  0
VERTEX
  8
0
  6
CONTINUOUS
 10
3.831960
 20
6.106320
  0
VERTEX
  8
0
  6
CONTINUOUS
 10
3.846920
 20
6.111600
  0
VERTEX
  8
0
  6
CONTINUOUS
 10
3.850000
 20
5.365360
  0
VERTEX
  8
0
  6
CONTINUOUS
 10
3.835040
 20
5.360080
  0
SEQEND
  8
0
  0
SOLID
  8
0
 62
    15
 10
3.850000
 20
5.365360
 11
3.846920
 21
6.111600
 12
3.864520
 22
5.367120
 13
3.861880
 23
6.113360
  0
POLYLINE
  8
0
  6
CONTINUOUS
 66
     1
 40
0.000000
 41
0.000000
  0
VERTEX
  8
0
  6
CONTINUOUS
 10
3.850000
 20
5.365360
  0
VERTEX
  8
0
  6
CONTINUOUS
 10
3.846920
 20
6.111600
  0
VERTEX
  8
0
  6
CONTINUOUS
 10
3.861880
 20
6.113360
  0
VERTEX
  8
0
  6
CONTINUOUS
 10
3.864520
 20
5.367120
  0
VERTEX
  8
0
  6
CONTINUOUS
 10
3.850000
 20
5.365360
  0
SEQEND
  8
0
  0
SOLID
  8
0
 62
    15
 10
3.864520
 20
5.367120
 11
3.861880
 21
6.113360
 12
3.879480
 22
5.366240
 13
3.876400
 23
6.112040
  0
POLYLINE
  8
0
  6
CONTINUOUS
 66
     1
 40
0.000000
 41
0.000000
  0
VERTEX
  8
0
  6
CONTINUOUS
 10
3.864520
 20
5.367120
  0
VERTEX
  8
0
  6
CONTINUOUS
 10
3.861880
 20
6.113360
  0
VERTEX
  8
0
  6
CONTINUOUS
 10
3.876400
 20
6.112040
  0
VERTEX
  8
0
  6
CONTINUOUS
 10
3.879480
 20
5.366240
  0
VERTEX
  8
0
  6
CONTINUOUS
 10
3.864520
 20
5.367120
  0
SEQEND
  8
0
  0
SOLID
  8
0
 62
    15
 10
3.879480
 20
5.366240
 11
3.876400
 21
6.112040
 12
3.893560
 22
5.362280
 13
3.890920
 23
6.108520
  0
POLYLINE
  8
0
  6
CONTINUOUS
 66
     1
 40
0.000000
 41
0.000000
  0
VERTEX
  8
0
  6
CONTINUOUS
 10
3.879480
 20
5.366240
  0
VERTEX
  8
0
  6
CONTINUOUS
 10
3.876400
 20
6.112040
  0
VERTEX
  8
0
  6
CONTINUOUS
 10
3.890920
 20
6.108520
  0
VERTEX
  8
0
  6
CONTINUOUS
 10
3.893560
 20
5.362280
  0
VERTEX
  8
0
  6
CONTINUOUS
 10
3.879480
 20
5.366240
  0
SEQEND
  8
0
  0
SOLID
  8
0
 62
    15
 10
3.893560
 20
5.362280
 11
3.890920
 21
6.108520
 12
3.907640
 22
5.356120
 13
3.904560
 23
6.101920
  0
POLYLINE
  8
0
  6
CONTINUOUS
 66
     1
 40
0.000000
 41
0.000000
  0
VERTEX
  8
0
  6
CONTINUOUS
 10
3.893560
 20
5.362280
  0
VERTEX
  8
0
  6
CONTINUOUS
 10
3.890920
 20
6.108520
  0
VERTEX
  8
0
  6
CONTINUOUS
 10
3.904560
 20
6.101920
  0
VERTEX
  8
0
  6
CONTINUOUS
 10
3.907640
 20
5.356120
  0
VERTEX
  8
0
  6
CONTINUOUS
 10
3.893560
 20
5.362280
  0
SEQEND
  8
0
  0
SOLID
  8
0
 62
    15
 10
3.907640
 20
5.356120
 11
3.904560
 21
6.101920
 12
3.933600
 22
5.338080
 13
3.930520
 23
6.084320
  0
POLYLINE
  8
0
  6
CONTINUOUS
 66
     1
 40
0.000000
 41
0.000000
  0
VERTEX
  8
0
  6
CONTINUOUS
 10
3.907640
 20
5.356120
  0
VERTEX
  8
0
  6
CONTINUOUS
 10
3.904560
 20
6.101920
  0
VERTEX
  8
0
  6
CONTINUOUS
 10
3.930520
 20
6.084320
  0
VERTEX
  8
0
  6
CONTINUOUS
 10
3.933600
 20
5.338080
  0
VERTEX
  8
0
  6
CONTINUOUS
 10
3.907640
 20
5.356120
  0
SEQEND
  8
0
  0
SOLID
  8
0
 62
    15
 10
3.933600
 20
5.338080
 11
3.930520
 21
6.084320
 12
3.956040
 22
5.315200
 13
3.953400
 23
6.061440
  0
POLYLINE
  8
0
  6
CONTINUOUS
 66
     1
 40
0.000000
 41
0.000000
  0
VERTEX
  8
0
  6
CONTINUOUS
 10
3.933600
 20
5.338080
  0
VERTEX
  8
0
  6
CONTINUOUS
 10
3.930520
 20
6.084320
  0
VERTEX
  8
0
  6
CONTINUOUS
 10
3.953400
 20
6.061440
  0
VERTEX
  8
0
  6
CONTINUOUS
 10
3.956040
 20
5.315200
  0
VERTEX
  8
0
  6
CONTINUOUS
 10
3.933600
 20
5.338080
  0
SEQEND
  8
0
  0
SOLID
  8
0
 62
    15
 10
3.956040
 20
5.315200
 11
3.953400
 21
6.061440
 12
3.974520
 22
5.290560
 13
3.971880
 23
6.036800
  0
POLYLINE
  8
0
  6
CONTINUOUS
 66
     1
 40
0.000000
 41
0.000000
  0
VERTEX
  8
0
  6
CONTINUOUS
 10
3.956040
 20
5.315200
  0
VERTEX
  8
0
  6
CONTINUOUS
 10
3.953400
 20
6.061440
  0
VERTEX
  8
0
  6
CONTINUOUS
 10
3.971880
 20
6.036800
  0
VERTEX
  8
0
  6
CONTINUOUS
 10
3.974520
 20
5.290560
  0
VERTEX
  8
0
  6
CONTINUOUS
 10
3.956040
 20
5.315200
  0
SEQEND
  8
0
  0
SOLID
  8
0
 62
    15
 10
3.974520
 20
5.290560
 11
3.971880
 21
6.036800
 12
3.990800
 22
5.268560
 13
3.987720
 23
6.014800
  0
POLYLINE
  8
0
  6
CONTINUOUS
 66
     1
 40
0.000000
 41
0.000000
  0
VERTEX
  8
0
  6
CONTINUOUS
 10
3.974520
 20
5.290560
  0
VERTEX
  8
0
  6
CONTINUOUS
 10
3.971880
 20
6.036800
  0
VERTEX
  8
0
  6
CONTINUOUS
 10
3.987720
 20
6.014800
  0
VERTEX
  8
0
  6
CONTINUOUS
 10
3.990800
 20
5.268560
  0
VERTEX
  8
0
  6
CONTINUOUS
 10
3.974520
 20
5.290560
  0
SEQEND
  8
0
  0
SOLID
  8
0
 62
    15
 10
3.990800
 20
5.268560
 11
3.987720
 21
6.014800
 12
4.006200
 22
5.252280
 13
4.003120
 23
5.998520
  0
POLYLINE
  8
0
  6
CONTINUOUS
 66
     1
 40
0.000000
 41
0.000000
  0
VERTEX
  8
0
  6
CONTINUOUS
 10
3.990800
 20
5.268560
  0
VERTEX
  8
0
  6
CONTINUOUS
 10
3.987720
 20
6.014800
  0
VERTEX
  8
0
  6
CONTINUOUS
 10
4.003120
 20
5.998520
  0
VERTEX
  8
0
  6
CONTINUOUS
 10
4.006200
 20
5.252280
  0
VERTEX
  8
0
  6
CONTINUOUS
 10
3.990800
 20
5.268560
  0
SEQEND
  8
0
  0
SOLID
  8
0
 62
    15
 10
4.006200
 20
5.252280
 11
4.003120
 21
5.998520
 12
4.021160
 22
5.240840
 13
4.018080
 23
5.987080
  0
POLYLINE
  8
0
  6
CONTINUOUS
 66
     1
 40
0.000000
 41
0.000000
  0
VERTEX
  8
0
  6
CONTINUOUS
 10
4.006200
 20
5.252280
  0
VERTEX
  8
0
  6
CONTINUOUS
 10
4.003120
 20
5.998520
  0
VERTEX
  8
0
  6
CONTINUOUS
 10
4.018080
 20
5.987080
  0
VERTEX
  8
0
  6
CONTINUOUS
 10
4.021160
 20
5.240840
  0
VERTEX
  8
0
  6
CONTINUOUS
 10
4.006200
 20
5.252280
  0
SEQEND
  8
0
  0
SOLID
  8
0
 62
    15
 10
4.021160
 20
5.240840
 11
4.018080
 21
5.987080
 12
4.035240
 22
5.232920
 13
4.032160
 23
5.979160
  0
POLYLINE
  8
0
  6
CONTINUOUS
 66
     1
 40
0.000000
 41
0.000000
  0
VERTEX
  8
0
  6
CONTINUOUS
 10
4.021160
 20
5.240840
  0
VERTEX
  8
0
  6
CONTINUOUS
 10
4.018080
 20
5.987080
  0
VERTEX
  8
0
  6
CONTINUOUS
 10
4.032160
 20
5.979160
  0
VERTEX
  8
0
  6
CONTINUOUS
 10
4.035240
 20
5.232920
  0
VERTEX
  8
0
  6
CONTINUOUS
 10
4.021160
 20
5.240840
  0
SEQEND
  8
0
  0
SOLID
  8
0
 62
    15
 10
4.035240
 20
5.232920
 11
4.032160
 21
5.979160
 12
4.049320
 22
5.228520
 13
4.046240
 23
5.974760
  0
POLYLINE
  8
0
  6
CONTINUOUS
 66
     1
 40
0.000000
 41
0.000000
  0
VERTEX
  8
0
  6
CONTINUOUS
 10
4.035240
 20
5.232920
  0
VERTEX
  8
0
  6
CONTINUOUS
 10
4.032160
 20
5.979160
  0
VERTEX
  8
0
  6
CONTINUOUS
 10
4.046240
 20
5.974760
  0
VERTEX
  8
0
  6
CONTINUOUS
 10
4.049320
 20
5.228520
  0
VERTEX
  8
0
  6
CONTINUOUS
 10
4.035240
 20
5.232920
  0
SEQEND
  8
0
  0
SOLID
  8
0
 62
    15
 10
4.049320
 20
5.228520
 11
4.046240
 21
5.974760
 12
4.062520
 22
5.226320
 13
4.059440
 23
5.972560
  0
POLYLINE
  8
0
  6
CONTINUOUS
 66
     1
 40
0.000000
 41
0.000000
  0
VERTEX
  8
0
  6
CONTINUOUS
 10
4.049320
 20
5.228520
  0
VERTEX
  8
0
  6
CONTINUOUS
 10
4.046240
 20
5.974760
  0
VERTEX
  8
0
  6
CONTINUOUS
 10
4.059440
 20
5.972560
  0
VERTEX
  8
0
  6
CONTINUOUS
 10
4.062520
 20
5.226320
  0
VERTEX
  8
0
  6
CONTINUOUS
 10
4.049320
 20
5.228520
  0
SEQEND
  8
0
  0
SOLID
  8
0
 62
    15
 10
4.062520
 20
5.226320
 11
4.059440
 21
5.972560
 12
4.088040
 22
5.226760
 13
4.084960
 23
5.973000
  0
POLYLINE
  8
0
  6
CONTINUOUS
 66
     1
 40
0.000000
 41
0.000000
  0
VERTEX
  8
0
  6
CONTINUOUS
 10
4.062520
 20
5.226320
  0
VERTEX
  8
0
  6
CONTINUOUS
 10
4.059440
 20
5.972560
  0
VERTEX
  8
0
  6
CONTINUOUS
 10
4.084960
 20
5.973000
  0
VERTEX
  8
0
  6
CONTINUOUS
 10
4.088040
 20
5.226760
  0
VERTEX
  8
0
  6
CONTINUOUS
 10
4.062520
 20
5.226320
  0
SEQEND
  8
0
  0
SOLID
  8
0
 62
    15
 10
4.088040
 20
5.226760
 11
4.084960
 21
5.973000
 12
4.089800
 22
5.226760
 13
4.086720
 23
5.973000
  0
POLYLINE
  8
0
  6
CONTINUOUS
 66
     1
 40
0.000000
 41
0.000000
  0
VERTEX
  8
0
  6
CONTINUOUS
 10
4.088040
 20
5.226760
  0
VERTEX
  8
0
  6
CONTINUOUS
 10
4.084960
 20
5.973000
  0
VERTEX
  8
0
  6
CONTINUOUS
 10
4.086720
 20
5.973000
  0
VERTEX
  8
0
  6
CONTINUOUS
 10
4.089800
 20
5.226760
  0
VERTEX
  8
0
  6
CONTINUOUS
 10
4.088040
 20
5.226760
  0
SEQEND
  8
0
  0
POLYLINE
  8
0
  6
CONTINUOUS
 66
     1
 40
0.000000
 41
0.000000
  0
VERTEX
  8
0
  6
CONTINUOUS
 10
4.089800
 20
5.226760
  0
VERTEX
  8
0
  6
CONTINUOUS
 10
4.089800
 20
5.115000
  0
VERTEX
  8
0
  6
CONTINUOUS
 10
2.838880
 20
5.115000
  0
VERTEX
  8
0
  6
CONTINUOUS
 10
2.838880
 20
5.430480
  0
VERTEX
  8
0
  6
CONTINUOUS
 10
2.933920
 20
5.430480
  0
VERTEX
  8
0
  6
CONTINUOUS
 10
2.950200
 20
5.477560
  0
VERTEX
  8
0
  6
CONTINUOUS
 10
2.970440
 20
5.516720
  0
VERTEX
  8
0
  6
CONTINUOUS
 10
2.994640
 20
5.549280
  0
VERTEX
  8
0
  6
CONTINUOUS
 10
3.022360
 20
5.574800
  0
VERTEX
  8
0
  6
CONTINUOUS
 10
3.052280
 20
5.594600
  0
VERTEX
  8
0
  6
CONTINUOUS
 10
3.084840
 20
5.608680
  0
VERTEX
  8
0
  6
CONTINUOUS
 10
3.119160
 20
5.617480
  0
VERTEX
  8
0
  6
CONTINUOUS
 10
3.154360
 20
5.621000
  0
VERTEX
  8
0
  6
CONTINUOUS
 10
3.190000
 20
5.620560
  0
VERTEX
  8
0
  6
CONTINUOUS
 10
3.225640
 20
5.616160
  0
VERTEX
  8
0
  6
CONTINUOUS
 10
3.260400
 20
5.608240
  0
VERTEX
  8
0
  6
CONTINUOUS
 10
3.294280
 20
5.596800
  0
VERTEX
  8
0
  6
CONTINUOUS
 10
3.326400
 20
5.583160
  0
VERTEX
  8
0
  6
CONTINUOUS
 10
3.356320
 20
5.566880
  0
VERTEX
  8
0
  6
CONTINUOUS
 10
3.383160
 20
5.548840
  0
VERTEX
  8
0
  6
CONTINUOUS
 10
3.406480
 20
5.529480
  0
VERTEX
  8
0
  6
CONTINUOUS
 10
3.429360
 20
5.507040
  0
VERTEX
  8
0
  6
CONTINUOUS
 10
3.527920
 20
5.393960
  0
VERTEX
  8
0
  6
CONTINUOUS
 10
3.579840
 20
5.346000
  0
VERTEX
  8
0
  6
CONTINUOUS
 10
3.626480
 20
5.313000
  0
VERTEX
  8
0
  6
CONTINUOUS
 10
3.672240
 20
5.289240
  0
VERTEX
  8
0
  6
CONTINUOUS
 10
3.717560
 20
5.275160
  0
VERTEX
  8
0
  6
CONTINUOUS
 10
3.762440
 20
5.269880
  0
VERTEX
  8
0
  6
CONTINUOUS
 10
3.776080
 20
5.297600
  0
VERTEX
  8
0
  6
CONTINUOUS
 10
3.790600
 20
5.320480
  0
VERTEX
  8
0
  6
CONTINUOUS
 10
3.805120
 20
5.338080
  0
VERTEX
  8
0
  6
CONTINUOUS
 10
3.820080
 20
5.351280
  0
VERTEX
  8
0
  6
CONTINUOUS
 10
3.835040
 20
5.360080
  0
VERTEX
  8
0
  6
CONTINUOUS
 10
3.850000
 20
5.365360
  0
VERTEX
  8
0
  6
CONTINUOUS
 10
3.864520
 20
5.367120
  0
VERTEX
  8
0
  6
CONTINUOUS
 10
3.879480
 20
5.366240
  0
VERTEX
  8
0
  6
CONTINUOUS
 10
3.893560
 20
5.362280
  0
VERTEX
  8
0
  6
CONTINUOUS
 10
3.907640
 20
5.356120
  0
VERTEX
  8
0
  6
CONTINUOUS
 10
3.933600
 20
5.338080
  0
VERTEX
  8
0
  6
CONTINUOUS
 10
3.956040
 20
5.315200
  0
VERTEX
  8
0
  6
CONTINUOUS
 10
3.990800
 20
5.268560
  0
VERTEX
  8
0
  6
CONTINUOUS
 10
4.006200
 20
5.252280
  0
VERTEX
  8
0
  6
CONTINUOUS
 10
4.021160
 20
5.240840
  0
VERTEX
  8
0
  6
CONTINUOUS
 10
4.035240
 20
5.232920
  0
VERTEX
  8
0
  6
CONTINUOUS
 10
4.049320
 20
5.228520
  0
VERTEX
  8
0
  6
CONTINUOUS
 10
4.062520
 20
5.226320
  0
VERTEX
  8
0
  6
CONTINUOUS
 10
4.089800
 20
5.226760
  0
SEQEND
  8
0
  0
POLYLINE
  8
0
  6
CONTINUOUS
 66
     1
 40
0.014080
 41
0.014080
  0
VERTEX
  8
0
  6
CONTINUOUS
 10
5.655760
 20
5.372400
  0
VERTEX
  8
0
  6
CONTINUOUS
 10
5.630240
 20
5.371960
  0
VERTEX
  8
0
  6
CONTINUOUS
 10
5.610000
 20
5.375920
  0
VERTEX
  8
0
  6
CONTINUOUS
 10
5.588440
 20
5.386480
  0
VERTEX
  8
0
  6
CONTINUOUS
 10
5.566000
 20
5.405400
  0
VERTEX
  8
0
  6
CONTINUOUS
 10
5.542240
 20
5.436200
  0
VERTEX
  8
0
  6
CONTINUOUS
 10
5.523760
 20
5.460840
  0
VERTEX
  8
0
  6
CONTINUOUS
 10
5.500880
 20
5.483720
  0
VERTEX
  8
0
  6
CONTINUOUS
 10
5.474920
 20
5.501760
  0
VERTEX
  8
0
  6
CONTINUOUS
 10
5.454240
 20
5.510120
  0
VERTEX
  8
0
  6
CONTINUOUS
 10
5.432240
 20
5.513200
  0
VERTEX
  8
0
  6
CONTINUOUS
 10
5.417280
 20
5.511440
  0
VERTEX
  8
0
  6
CONTINUOUS
 10
5.394840
 20
5.502200
  0
VERTEX
  8
0
  6
CONTINUOUS
 10
5.379880
 20
5.491200
  0
VERTEX
  8
0
  6
CONTINUOUS
 10
5.364920
 20
5.475800
  0
VERTEX
  8
0
  6
CONTINUOUS
 10
5.343360
 20
5.443680
  0
VERTEX
  8
0
  6
CONTINUOUS
 10
5.329720
 20
5.415960
  0
VERTEX
  8
0
  6
CONTINUOUS
 10
5.307280
 20
5.417280
  0
VERTEX
  8
0
  6
CONTINUOUS
 10
5.284840
 20
5.420800
  0
VERTEX
  8
0
  6
CONTINUOUS
 10
5.262400
 20
5.426960
  0
VERTEX
  8
0
  6
CONTINUOUS
 10
5.239960
 20
5.435320
  0
VERTEX
  8
0
  6
CONTINUOUS
 10
5.217080
 20
5.445880
  0
VERTEX
  8
0
  6
CONTINUOUS
 10
5.170880
 20
5.474480
  0
VERTEX
  8
0
  6
CONTINUOUS
 10
5.133040
 20
5.504400
  0
VERTEX
  8
0
  6
CONTINUOUS
 10
5.095200
 20
5.540040
  0
VERTEX
  8
0
  6
CONTINUOUS
 10
4.997080
 20
5.652680
  0
VERTEX
  8
0
  6
CONTINUOUS
 10
4.962760
 20
5.684800
  0
VERTEX
  8
0
  6
CONTINUOUS
 10
4.937680
 20
5.703720
  0
VERTEX
  8
0
  6
CONTINUOUS
 10
4.894120
 20
5.728800
  0
VERTEX
  8
0
  6
CONTINUOUS
 10
4.845280
 20
5.748600
  0
VERTEX
  8
0
  6
CONTINUOUS
 10
4.810520
 20
5.758280
  0
VERTEX
  8
0
  6
CONTINUOUS
 10
4.775320
 20
5.764440
  0
VERTEX
  8
0
  6
CONTINUOUS
 10
4.739680
 20
5.767080
  0
VERTEX
  8
0
  6
CONTINUOUS
 10
4.721640
 20
5.767080
  0
VERTEX
  8
0
  6
CONTINUOUS
 10
4.686440
 20
5.763120
  0
VERTEX
  8
0
  6
CONTINUOUS
 10
4.652560
 20
5.754320
  0
VERTEX
  8
0
  6
CONTINUOUS
 10
4.635840
 20
5.748160
  0
VERTEX
  8
0
  6
CONTINUOUS
 10
4.604600
 20
5.731440
  0
VERTEX
  8
0
  6
CONTINUOUS
 10
4.589640
 20
5.720880
  0
VERTEX
  8
0
  6
CONTINUOUS
 10
4.562360
 20
5.694920
  0
VERTEX
  8
0
  6
CONTINUOUS
 10
4.537720
 20
5.662800
  0
VERTEX
  8
0
  6
CONTINUOUS
 10
4.517480
 20
5.623200
  0
VERTEX
  8
0
  6
CONTINUOUS
 10
4.501640
 20
5.576560
  0
VERTEX
  8
0
  6
CONTINUOUS
 10
4.406600
 20
5.576560
  0
VERTEX
  8
0
  6
CONTINUOUS
 10
4.406600
 20
5.260640
  0
VERTEX
  8
0
  6
CONTINUOUS
 10
5.657080
 20
5.260640
  0
VERTEX
  8
0
  6
CONTINUOUS
 10
5.657080
 20
5.372400
  0
VERTEX
  8
0
  6
CONTINUOUS
 10
5.655760
 20
5.372400
  0
SEQEND
  8
0
  0
TEXT
  8
0
 10
4.719440
 20
5.026560
 40
0.138235
  1
BA  902
 41
1.000000
  7
SN0
 71
     0
 72
     5
 11
5.309470
 21
5.026560
  0
TEXT
  8
0
 10
4.586560
 20
4.835160
 40
0.138235
  1
1/2" x1-1/4"
 41
1.000000
  7
SN0
 71
     0
 72
     5
 11
5.440978
 21
4.835160
  0
ENDSEC
  0
EOF
