  0
SECTION
  2
HEADER
  9
$ACADVER
  1
AC1006
  9
$EXTMIN
 10
3.593040
 20
3.587320
  9
$EXTMAX
 10
7.967080
 20
6.111600
  9
$LTSCALE
 40
0.044000
  9
$PDMODE
 70
    35
  9
$PDSIZE
 40
0.035200
  0
ENDSEC
  0
SECTION
  2
TABLES
  0
TABLE
  2
LTYPE
 70
     9
  0
LTYPE
  2
CONTINUOUS
 70
    64
  3
Solid line
 72
    65
 73
     0
 40
0.000000
  0
LTYPE
  2
DASHED
 70
    64
  3
__ __ __ __ __ __ __ __ __ __ __ __ __ __ __
 72
    65
 73
     2
 40
0.000330
 49
0.000220
 49
-0.000110
  0
LTYPE
  2
HIDDEN
 70
    64
  3
 _ _ _ _ _ _ _ _ _ _ _ _ _ _ _ _ _ _ _ _ _ _
 72
    65
 73
     2
 40
0.000165
 49
0.000110
 49
-0.000055
  0
LTYPE
  2
CENTER
 70
    64
  3
____ _ ____ _ ____ _ ____ _ ____ _ ____ _ ____
 72
    65
 73
     4
 40
0.000880
 49
0.000550
 49
-0.000110
 49
0.000110
 49
-0.000110
  0
LTYPE
  2
PHANTOM
 70
    64
  3
_____ _ _ _____ _ _ _____ _ _ _____ _ _ ____
 72
    65
 73
     6
 40
0.001100
 49
0.000550
 49
-0.000110
 49
0.000110
 49
-0.000110
 49
0.000110
 49
-0.000110
  0
LTYPE
  2
DOT
 70
    64
  3
...............................................
 72
    65
 73
     2
 40
0.000110
 49
0.000000
 49
-0.000110
  0
LTYPE
  2
DASHDOT
 70
    64
  3
__ . __ . __ . __ . __ . __ . __ . __ . __ . __
 72
    65
 73
     4
 40
0.000440
 49
0.000220
 49
-0.000110
 49
0.000000
 49
-0.000110
  0
LTYPE
  2
BORDER
 70
    64
  3
__ __ . __ __ . __ __ . __ __ . __ __ . __ __
 72
    65
 73
     6
 40
0.000770
 49
0.000220
 49
-0.000110
 49
0.000220
 49
-0.000110
 49
0.000000
 49
-0.000110
  0
LTYPE
  2
DIVIDE
 70
    64
  3
__ . . __ . . __ . . __ . . __ . . __ . . __
 72
    65
 73
     6
 40
0.000550
 49
0.000220
 49
-0.000110
 49
0.000000
 49
-0.000110
 49
0.000000
 49
-0.000110
  0
LTYPE
  2
DOTDOT
 70
    64
  3
 . .  . .  . .  . .  . .  . . 
 72
    65
 73
     5
 40
0.000242
 49
-0.000110
 49
0.000000
 49
-0.000110
 49
0.000000
 49
-0.000110
  0
ENDTAB
  0
TABLE
  2
STYLE
 70
     2
  0
STYLE
 70
     0
  2
SN0
 40
0.000000
 41
0.000440
 50
0.000000
 71
     0
 42
0.000000
  3
ROMAND
  0
STYLE
 70
    68
  2
SV0
 40
0.000000
 41
0.000440
 50
0.000000
 71
     0
 42
0.000000
  3
ROMAND
  0
ENDTAB
  0
TABLE
  2
LAYER
 70
     3
  0
LAYER
  2
FOREGROUND
 70
    64
 62
     7
  6
CONTINUOUS
  0
LAYER
  2
BACKGROUND
 70
    65
 62
    -7
  6
CONTINUOUS
  0
LAYER
  2
0
 70
    64
 62
     7
  6
CONTINUOUS
  0
ENDTAB
  0
ENDSEC
  0
SECTION
  2
ENTITIES
  0
POLYLINE
  8
FOREGROUND
  6
CONTINUOUS
 66
     1
 40
0.000000
 41
0.000000
  0
VERTEX
  8
FOREGROUND
  6
CONTINUOUS
 10
0.000000
 20
9.698920
  0
VERTEX
  8
FOREGROUND
  6
CONTINUOUS
 10
8.499920
 20
9.698920
  0
VERTEX
  8
FOREGROUND
  6
CONTINUOUS
 10
8.499920
 20
-1.301080
  0
VERTEX
  8
FOREGROUND
  6
CONTINUOUS
 10
0.000000
 20
-1.301080
  0
VERTEX
  8
FOREGROUND
  6
CONTINUOUS
 10
0.000000
 20
9.698920
  0
SEQEND
  8
0
  0
POLYLINE
  8
FOREGROUND
  6
CONTINUOUS
 66
     1
 40
0.000000
 41
0.000000
  0
VERTEX
  8
FOREGROUND
  6
CONTINUOUS
 10
0.000000
 20
9.698920
  0
VERTEX
  8
FOREGROUND
  6
CONTINUOUS
 10
8.499920
 20
9.698920
  0
VERTEX
  8
FOREGROUND
  6
CONTINUOUS
 10
8.499920
 20
-1.301080
  0
VERTEX
  8
FOREGROUND
  6
CONTINUOUS
 10
0.000000
 20
-1.301080
  0
VERTEX
  8
FOREGROUND
  6
CONTINUOUS
 10
0.000000
 20
9.698920
  0
SEQEND
  8
0
  0
SOLID
  8
0
 62
    15
 10
4.208160
 20
4.197160
 11
4.945160
 21
4.198480
 12
4.183080
 22
4.165040
 13
4.920080
 23
4.166360
  0
POLYLINE
  8
0
  6
CONTINUOUS
 66
     1
 40
0.000000
 41
0.000000
  0
VERTEX
  8
0
  6
CONTINUOUS
 10
4.208160
 20
4.197160
  0
VERTEX
  8
0
  6
CONTINUOUS
 10
4.945160
 20
4.198480
  0
VERTEX
  8
0
  6
CONTINUOUS
 10
4.920080
 20
4.166360
  0
VERTEX
  8
0
  6
CONTINUOUS
 10
4.183080
 20
4.165040
  0
VERTEX
  8
0
  6
CONTINUOUS
 10
4.208160
 20
4.197160
  0
SEQEND
  8
0
  0
SOLID
  8
0
 62
    15
 10
4.221360
 20
4.953960
 11
4.958360
 21
4.955280
 12
4.223560
 22
4.907320
 13
4.961000
 23
4.908640
  0
POLYLINE
  8
0
  6
CONTINUOUS
 66
     1
 40
0.000000
 41
0.000000
  0
VERTEX
  8
0
  6
CONTINUOUS
 10
4.221360
 20
4.953960
  0
VERTEX
  8
0
  6
CONTINUOUS
 10
4.958360
 20
4.955280
  0
VERTEX
  8
0
  6
CONTINUOUS
 10
4.961000
 20
4.908640
  0
VERTEX
  8
0
  6
CONTINUOUS
 10
4.223560
 20
4.907320
  0
VERTEX
  8
0
  6
CONTINUOUS
 10
4.221360
 20
4.953960
  0
SEQEND
  8
0
  0
SOLID
  8
0
 62
    15
 10
4.223560
 20
4.907320
 11
4.961000
 21
4.908640
 12
4.219160
 22
4.867280
 13
4.956160
 23
4.868600
  0
POLYLINE
  8
0
  6
CONTINUOUS
 66
     1
 40
0.000000
 41
0.000000
  0
VERTEX
  8
0
  6
CONTINUOUS
 10
4.223560
 20
4.907320
  0
VERTEX
  8
0
  6
CONTINUOUS
 10
4.961000
 20
4.908640
  0
VERTEX
  8
0
  6
CONTINUOUS
 10
4.956160
 20
4.868600
  0
VERTEX
  8
0
  6
CONTINUOUS
 10
4.219160
 20
4.867280
  0
VERTEX
  8
0
  6
CONTINUOUS
 10
4.223560
 20
4.907320
  0
SEQEND
  8
0
  0
SOLID
  8
0
 62
    15
 10
4.219160
 20
4.867280
 11
4.956160
 21
4.868600
 12
4.208600
 22
4.833400
 13
4.945600
 23
4.834720
  0
POLYLINE
  8
0
  6
CONTINUOUS
 66
     1
 40
0.000000
 41
0.000000
  0
VERTEX
  8
0
  6
CONTINUOUS
 10
4.219160
 20
4.867280
  0
VERTEX
  8
0
  6
CONTINUOUS
 10
4.956160
 20
4.868600
  0
VERTEX
  8
0
  6
CONTINUOUS
 10
4.945600
 20
4.834720
  0
VERTEX
  8
0
  6
CONTINUOUS
 10
4.208600
 20
4.833400
  0
VERTEX
  8
0
  6
CONTINUOUS
 10
4.219160
 20
4.867280
  0
SEQEND
  8
0
  0
SOLID
  8
0
 62
    15
 10
4.208600
 20
4.833400
 11
4.945600
 21
4.834720
 12
4.193200
 22
4.804360
 13
4.930200
 23
4.805680
  0
POLYLINE
  8
0
  6
CONTINUOUS
 66
     1
 40
0.000000
 41
0.000000
  0
VERTEX
  8
0
  6
CONTINUOUS
 10
4.208600
 20
4.833400
  0
VERTEX
  8
0
  6
CONTINUOUS
 10
4.945600
 20
4.834720
  0
VERTEX
  8
0
  6
CONTINUOUS
 10
4.930200
 20
4.805680
  0
VERTEX
  8
0
  6
CONTINUOUS
 10
4.193200
 20
4.804360
  0
VERTEX
  8
0
  6
CONTINUOUS
 10
4.208600
 20
4.833400
  0
SEQEND
  8
0
  0
SOLID
  8
0
 62
    15
 10
4.193200
 20
4.804360
 11
4.930200
 21
4.805680
 12
4.151400
 22
4.757280
 13
4.888400
 23
4.758600
  0
POLYLINE
  8
0
  6
CONTINUOUS
 66
     1
 40
0.000000
 41
0.000000
  0
VERTEX
  8
0
  6
CONTINUOUS
 10
4.193200
 20
4.804360
  0
VERTEX
  8
0
  6
CONTINUOUS
 10
4.930200
 20
4.805680
  0
VERTEX
  8
0
  6
CONTINUOUS
 10
4.888400
 20
4.758600
  0
VERTEX
  8
0
  6
CONTINUOUS
 10
4.151400
 20
4.757280
  0
VERTEX
  8
0
  6
CONTINUOUS
 10
4.193200
 20
4.804360
  0
SEQEND
  8
0
  0
SOLID
  8
0
 62
    15
 10
4.151400
 20
4.757280
 11
4.888400
 21
4.758600
 12
4.127640
 22
4.737040
 13
4.864640
 23
4.738800
  0
POLYLINE
  8
0
  6
CONTINUOUS
 66
     1
 40
0.000000
 41
0.000000
  0
VERTEX
  8
0
  6
CONTINUOUS
 10
4.151400
 20
4.757280
  0
VERTEX
  8
0
  6
CONTINUOUS
 10
4.888400
 20
4.758600
  0
VERTEX
  8
0
  6
CONTINUOUS
 10
4.864640
 20
4.738800
  0
VERTEX
  8
0
  6
CONTINUOUS
 10
4.127640
 20
4.737040
  0
VERTEX
  8
0
  6
CONTINUOUS
 10
4.151400
 20
4.757280
  0
SEQEND
  8
0
  0
SOLID
  8
0
 62
    15
 10
4.127640
 20
4.737040
 11
4.864640
 21
4.738800
 12
4.115760
 22
4.727360
 13
4.852760
 23
4.729120
  0
POLYLINE
  8
0
  6
CONTINUOUS
 66
     1
 40
0.000000
 41
0.000000
  0
VERTEX
  8
0
  6
CONTINUOUS
 10
4.127640
 20
4.737040
  0
VERTEX
  8
0
  6
CONTINUOUS
 10
4.864640
 20
4.738800
  0
VERTEX
  8
0
  6
CONTINUOUS
 10
4.852760
 20
4.729120
  0
VERTEX
  8
0
  6
CONTINUOUS
 10
4.115760
 20
4.727360
  0
VERTEX
  8
0
  6
CONTINUOUS
 10
4.127640
 20
4.737040
  0
SEQEND
  8
0
  0
SOLID
  8
0
 62
    15
 10
4.115760
 20
4.727360
 11
4.852760
 21
4.729120
 12
4.103440
 22
4.717680
 13
4.840440
 23
4.719440
  0
POLYLINE
  8
0
  6
CONTINUOUS
 66
     1
 40
0.000000
 41
0.000000
  0
VERTEX
  8
0
  6
CONTINUOUS
 10
4.115760
 20
4.727360
  0
VERTEX
  8
0
  6
CONTINUOUS
 10
4.852760
 20
4.729120
  0
VERTEX
  8
0
  6
CONTINUOUS
 10
4.840440
 20
4.719440
  0
VERTEX
  8
0
  6
CONTINUOUS
 10
4.103440
 20
4.717680
  0
VERTEX
  8
0
  6
CONTINUOUS
 10
4.115760
 20
4.727360
  0
SEQEND
  8
0
  0
SOLID
  8
0
 62
    15
 10
4.103440
 20
4.717680
 11
4.840440
 21
4.719440
 12
4.062960
 22
4.674120
 13
4.799960
 23
4.675880
  0
POLYLINE
  8
0
  6
CONTINUOUS
 66
     1
 40
0.000000
 41
0.000000
  0
VERTEX
  8
0
  6
CONTINUOUS
 10
4.103440
 20
4.717680
  0
VERTEX
  8
0
  6
CONTINUOUS
 10
4.840440
 20
4.719440
  0
VERTEX
  8
0
  6
CONTINUOUS
 10
4.799960
 20
4.675880
  0
VERTEX
  8
0
  6
CONTINUOUS
 10
4.062960
 20
4.674120
  0
VERTEX
  8
0
  6
CONTINUOUS
 10
4.103440
 20
4.717680
  0
SEQEND
  8
0
  0
SOLID
  8
0
 62
    15
 10
4.062960
 20
4.674120
 11
4.799960
 21
4.675880
 12
4.035680
 22
4.619120
 13
4.772680
 23
4.620880
  0
POLYLINE
  8
0
  6
CONTINUOUS
 66
     1
 40
0.000000
 41
0.000000
  0
VERTEX
  8
0
  6
CONTINUOUS
 10
4.062960
 20
4.674120
  0
VERTEX
  8
0
  6
CONTINUOUS
 10
4.799960
 20
4.675880
  0
VERTEX
  8
0
  6
CONTINUOUS
 10
4.772680
 20
4.620880
  0
VERTEX
  8
0
  6
CONTINUOUS
 10
4.035680
 20
4.619120
  0
VERTEX
  8
0
  6
CONTINUOUS
 10
4.062960
 20
4.674120
  0
SEQEND
  8
0
  0
SOLID
  8
0
 62
    15
 10
4.035680
 20
4.619120
 11
4.772680
 21
4.620880
 12
4.017200
 22
4.552680
 13
4.754200
 23
4.554440
  0
POLYLINE
  8
0
  6
CONTINUOUS
 66
     1
 40
0.000000
 41
0.000000
  0
VERTEX
  8
0
  6
CONTINUOUS
 10
4.035680
 20
4.619120
  0
VERTEX
  8
0
  6
CONTINUOUS
 10
4.772680
 20
4.620880
  0
VERTEX
  8
0
  6
CONTINUOUS
 10
4.754200
 20
4.554440
  0
VERTEX
  8
0
  6
CONTINUOUS
 10
4.017200
 20
4.552680
  0
VERTEX
  8
0
  6
CONTINUOUS
 10
4.035680
 20
4.619120
  0
SEQEND
  8
0
  0
SOLID
  8
0
 62
    15
 10
4.017200
 20
4.552680
 11
4.754200
 21
4.554440
 12
4.004000
 22
4.474800
 13
4.741000
 23
4.476560
  0
POLYLINE
  8
0
  6
CONTINUOUS
 66
     1
 40
0.000000
 41
0.000000
  0
VERTEX
  8
0
  6
CONTINUOUS
 10
4.017200
 20
4.552680
  0
VERTEX
  8
0
  6
CONTINUOUS
 10
4.754200
 20
4.554440
  0
VERTEX
  8
0
  6
CONTINUOUS
 10
4.741000
 20
4.476560
  0
VERTEX
  8
0
  6
CONTINUOUS
 10
4.004000
 20
4.474800
  0
VERTEX
  8
0
  6
CONTINUOUS
 10
4.017200
 20
4.552680
  0
SEQEND
  8
0
  0
SOLID
  8
0
 62
    15
 10
4.004000
 20
4.474800
 11
4.741000
 21
4.476560
 12
4.048440
 22
4.466440
 13
4.785440
 23
4.467760
  0
POLYLINE
  8
0
  6
CONTINUOUS
 66
     1
 40
0.000000
 41
0.000000
  0
VERTEX
  8
0
  6
CONTINUOUS
 10
4.004000
 20
4.474800
  0
VERTEX
  8
0
  6
CONTINUOUS
 10
4.741000
 20
4.476560
  0
VERTEX
  8
0
  6
CONTINUOUS
 10
4.785440
 20
4.467760
  0
VERTEX
  8
0
  6
CONTINUOUS
 10
4.048440
 20
4.466440
  0
VERTEX
  8
0
  6
CONTINUOUS
 10
4.004000
 20
4.474800
  0
SEQEND
  8
0
  0
SOLID
  8
0
 62
    15
 10
4.048440
 20
4.466440
 11
4.785440
 21
4.467760
 12
4.089800
 22
4.450600
 13
4.826800
 23
4.452360
  0
POLYLINE
  8
0
  6
CONTINUOUS
 66
     1
 40
0.000000
 41
0.000000
  0
VERTEX
  8
0
  6
CONTINUOUS
 10
4.048440
 20
4.466440
  0
VERTEX
  8
0
  6
CONTINUOUS
 10
4.785440
 20
4.467760
  0
VERTEX
  8
0
  6
CONTINUOUS
 10
4.826800
 20
4.452360
  0
VERTEX
  8
0
  6
CONTINUOUS
 10
4.089800
 20
4.450600
  0
VERTEX
  8
0
  6
CONTINUOUS
 10
4.048440
 20
4.466440
  0
SEQEND
  8
0
  0
SOLID
  8
0
 62
    15
 10
4.089800
 20
4.450600
 11
4.826800
 21
4.452360
 12
4.127640
 22
4.429040
 13
4.864640
 23
4.430800
  0
POLYLINE
  8
0
  6
CONTINUOUS
 66
     1
 40
0.000000
 41
0.000000
  0
VERTEX
  8
0
  6
CONTINUOUS
 10
4.089800
 20
4.450600
  0
VERTEX
  8
0
  6
CONTINUOUS
 10
4.826800
 20
4.452360
  0
VERTEX
  8
0
  6
CONTINUOUS
 10
4.864640
 20
4.430800
  0
VERTEX
  8
0
  6
CONTINUOUS
 10
4.127640
 20
4.429040
  0
VERTEX
  8
0
  6
CONTINUOUS
 10
4.089800
 20
4.450600
  0
SEQEND
  8
0
  0
SOLID
  8
0
 62
    15
 10
4.127640
 20
4.429040
 11
4.864640
 21
4.430800
 12
4.160640
 22
4.402640
 13
4.897640
 23
4.403960
  0
POLYLINE
  8
0
  6
CONTINUOUS
 66
     1
 40
0.000000
 41
0.000000
  0
VERTEX
  8
0
  6
CONTINUOUS
 10
4.127640
 20
4.429040
  0
VERTEX
  8
0
  6
CONTINUOUS
 10
4.864640
 20
4.430800
  0
VERTEX
  8
0
  6
CONTINUOUS
 10
4.897640
 20
4.403960
  0
VERTEX
  8
0
  6
CONTINUOUS
 10
4.160640
 20
4.402640
  0
VERTEX
  8
0
  6
CONTINUOUS
 10
4.127640
 20
4.429040
  0
SEQEND
  8
0
  0
SOLID
  8
0
 62
    15
 10
4.160640
 20
4.402640
 11
4.897640
 21
4.403960
 12
4.187480
 22
4.371840
 13
4.924480
 23
4.373600
  0
POLYLINE
  8
0
  6
CONTINUOUS
 66
     1
 40
0.000000
 41
0.000000
  0
VERTEX
  8
0
  6
CONTINUOUS
 10
4.160640
 20
4.402640
  0
VERTEX
  8
0
  6
CONTINUOUS
 10
4.897640
 20
4.403960
  0
VERTEX
  8
0
  6
CONTINUOUS
 10
4.924480
 20
4.373600
  0
VERTEX
  8
0
  6
CONTINUOUS
 10
4.187480
 20
4.371840
  0
VERTEX
  8
0
  6
CONTINUOUS
 10
4.160640
 20
4.402640
  0
SEQEND
  8
0
  0
SOLID
  8
0
 62
    15
 10
4.187480
 20
4.371840
 11
4.924480
 21
4.373600
 12
4.208160
 22
4.338400
 13
4.945160
 23
4.340160
  0
POLYLINE
  8
0
  6
CONTINUOUS
 66
     1
 40
0.000000
 41
0.000000
  0
VERTEX
  8
0
  6
CONTINUOUS
 10
4.187480
 20
4.371840
  0
VERTEX
  8
0
  6
CONTINUOUS
 10
4.924480
 20
4.373600
  0
VERTEX
  8
0
  6
CONTINUOUS
 10
4.945160
 20
4.340160
  0
VERTEX
  8
0
  6
CONTINUOUS
 10
4.208160
 20
4.338400
  0
VERTEX
  8
0
  6
CONTINUOUS
 10
4.187480
 20
4.371840
  0
SEQEND
  8
0
  0
SOLID
  8
0
 62
    15
 10
4.208160
 20
4.338400
 11
4.945160
 21
4.340160
 12
4.221360
 22
4.303200
 13
4.958360
 23
4.304960
  0
POLYLINE
  8
0
  6
CONTINUOUS
 66
     1
 40
0.000000
 41
0.000000
  0
VERTEX
  8
0
  6
CONTINUOUS
 10
4.208160
 20
4.338400
  0
VERTEX
  8
0
  6
CONTINUOUS
 10
4.945160
 20
4.340160
  0
VERTEX
  8
0
  6
CONTINUOUS
 10
4.958360
 20
4.304960
  0
VERTEX
  8
0
  6
CONTINUOUS
 10
4.221360
 20
4.303200
  0
VERTEX
  8
0
  6
CONTINUOUS
 10
4.208160
 20
4.338400
  0
SEQEND
  8
0
  0
SOLID
  8
0
 62
    15
 10
4.221360
 20
4.303200
 11
4.958360
 21
4.304960
 12
4.226640
 22
4.267120
 13
4.963640
 23
4.268880
  0
POLYLINE
  8
0
  6
CONTINUOUS
 66
     1
 40
0.000000
 41
0.000000
  0
VERTEX
  8
0
  6
CONTINUOUS
 10
4.221360
 20
4.303200
  0
VERTEX
  8
0
  6
CONTINUOUS
 10
4.958360
 20
4.304960
  0
VERTEX
  8
0
  6
CONTINUOUS
 10
4.963640
 20
4.268880
  0
VERTEX
  8
0
  6
CONTINUOUS
 10
4.226640
 20
4.267120
  0
VERTEX
  8
0
  6
CONTINUOUS
 10
4.221360
 20
4.303200
  0
SEQEND
  8
0
  0
SOLID
  8
0
 62
    15
 10
4.226640
 20
4.267120
 11
4.963640
 21
4.268880
 12
4.222240
 22
4.231480
 13
4.959240
 23
4.232800
  0
POLYLINE
  8
0
  6
CONTINUOUS
 66
     1
 40
0.000000
 41
0.000000
  0
VERTEX
  8
0
  6
CONTINUOUS
 10
4.226640
 20
4.267120
  0
VERTEX
  8
0
  6
CONTINUOUS
 10
4.963640
 20
4.268880
  0
VERTEX
  8
0
  6
CONTINUOUS
 10
4.959240
 20
4.232800
  0
VERTEX
  8
0
  6
CONTINUOUS
 10
4.222240
 20
4.231480
  0
VERTEX
  8
0
  6
CONTINUOUS
 10
4.226640
 20
4.267120
  0
SEQEND
  8
0
  0
SOLID
  8
0
 62
    15
 10
4.222240
 20
4.231480
 11
4.959240
 21
4.232800
 12
4.208160
 22
4.197160
 13
4.945160
 23
4.198480
  0
POLYLINE
  8
0
  6
CONTINUOUS
 66
     1
 40
0.000000
 41
0.000000
  0
VERTEX
  8
0
  6
CONTINUOUS
 10
4.222240
 20
4.231480
  0
VERTEX
  8
0
  6
CONTINUOUS
 10
4.959240
 20
4.232800
  0
VERTEX
  8
0
  6
CONTINUOUS
 10
4.945160
 20
4.198480
  0
VERTEX
  8
0
  6
CONTINUOUS
 10
4.208160
 20
4.197160
  0
VERTEX
  8
0
  6
CONTINUOUS
 10
4.222240
 20
4.231480
  0
SEQEND
  8
0
  0
SOLID
  8
0
 62
    15
 10
4.330480
 20
5.228520
 11
5.067480
 21
5.229840
 12
4.330480
 22
4.953960
 13
5.067480
 23
4.955280
  0
POLYLINE
  8
0
  6
CONTINUOUS
 66
     1
 40
0.000000
 41
0.000000
  0
VERTEX
  8
0
  6
CONTINUOUS
 10
4.330480
 20
5.228520
  0
VERTEX
  8
0
  6
CONTINUOUS
 10
5.067480
 20
5.229840
  0
VERTEX
  8
0
  6
CONTINUOUS
 10
5.067480
 20
4.955280
  0
VERTEX
  8
0
  6
CONTINUOUS
 10
4.330480
 20
4.953960
  0
VERTEX
  8
0
  6
CONTINUOUS
 10
4.330480
 20
5.228520
  0
SEQEND
  8
0
  0
SOLID
  8
0
 62
    15
 10
4.183080
 20
4.165040
 11
4.920080
 21
4.166360
 12
4.146560
 22
4.136440
 13
4.883560
 23
4.137760
  0
POLYLINE
  8
0
  6
CONTINUOUS
 66
     1
 40
0.000000
 41
0.000000
  0
VERTEX
  8
0
  6
CONTINUOUS
 10
4.183080
 20
4.165040
  0
VERTEX
  8
0
  6
CONTINUOUS
 10
4.920080
 20
4.166360
  0
VERTEX
  8
0
  6
CONTINUOUS
 10
4.883560
 20
4.137760
  0
VERTEX
  8
0
  6
CONTINUOUS
 10
4.146560
 20
4.136440
  0
VERTEX
  8
0
  6
CONTINUOUS
 10
4.183080
 20
4.165040
  0
SEQEND
  8
0
  0
SOLID
  8
0
 62
    15
 10
4.146560
 20
4.136440
 11
4.883560
 21
4.137760
 12
4.097280
 22
4.112240
 13
4.834280
 23
4.113560
  0
POLYLINE
  8
0
  6
CONTINUOUS
 66
     1
 40
0.000000
 41
0.000000
  0
VERTEX
  8
0
  6
CONTINUOUS
 10
4.146560
 20
4.136440
  0
VERTEX
  8
0
  6
CONTINUOUS
 10
4.883560
 20
4.137760
  0
VERTEX
  8
0
  6
CONTINUOUS
 10
4.834280
 20
4.113560
  0
VERTEX
  8
0
  6
CONTINUOUS
 10
4.097280
 20
4.112240
  0
VERTEX
  8
0
  6
CONTINUOUS
 10
4.146560
 20
4.136440
  0
SEQEND
  8
0
  0
SOLID
  8
0
 62
    15
 10
4.097280
 20
4.112240
 11
4.834280
 21
4.113560
 12
4.034800
 22
4.093320
 13
4.771800
 23
4.095080
  0
POLYLINE
  8
0
  6
CONTINUOUS
 66
     1
 40
0.000000
 41
0.000000
  0
VERTEX
  8
0
  6
CONTINUOUS
 10
4.097280
 20
4.112240
  0
VERTEX
  8
0
  6
CONTINUOUS
 10
4.834280
 20
4.113560
  0
VERTEX
  8
0
  6
CONTINUOUS
 10
4.771800
 20
4.095080
  0
VERTEX
  8
0
  6
CONTINUOUS
 10
4.034800
 20
4.093320
  0
VERTEX
  8
0
  6
CONTINUOUS
 10
4.097280
 20
4.112240
  0
SEQEND
  8
0
  0
SOLID
  8
0
 62
    15
 10
3.957800
 20
4.081440
 11
4.694800
 21
4.083200
 12
3.865840
 22
4.077040
 13
4.602840
 23
4.078360
  0
POLYLINE
  8
0
  6
CONTINUOUS
 66
     1
 40
0.000000
 41
0.000000
  0
VERTEX
  8
0
  6
CONTINUOUS
 10
3.957800
 20
4.081440
  0
VERTEX
  8
0
  6
CONTINUOUS
 10
4.694800
 20
4.083200
  0
VERTEX
  8
0
  6
CONTINUOUS
 10
4.602840
 20
4.078360
  0
VERTEX
  8
0
  6
CONTINUOUS
 10
3.865840
 20
4.077040
  0
VERTEX
  8
0
  6
CONTINUOUS
 10
3.957800
 20
4.081440
  0
SEQEND
  8
0
  0
SOLID
  8
0
 62
    15
 10
4.034800
 20
4.093320
 11
4.771800
 21
4.095080
 12
3.957800
 22
4.081440
 13
4.694800
 23
4.083200
  0
POLYLINE
  8
0
  6
CONTINUOUS
 66
     1
 40
0.000000
 41
0.000000
  0
VERTEX
  8
0
  6
CONTINUOUS
 10
4.034800
 20
4.093320
  0
VERTEX
  8
0
  6
CONTINUOUS
 10
4.771800
 20
4.095080
  0
VERTEX
  8
0
  6
CONTINUOUS
 10
4.694800
 20
4.083200
  0
VERTEX
  8
0
  6
CONTINUOUS
 10
3.957800
 20
4.081440
  0
VERTEX
  8
0
  6
CONTINUOUS
 10
4.034800
 20
4.093320
  0
SEQEND
  8
0
  0
SOLID
  8
0
 62
    15
 10
3.865840
 20
4.077040
 11
4.602840
 21
4.078360
 12
3.860120
 22
4.076600
 13
4.597120
 23
4.078360
  0
POLYLINE
  8
0
  6
CONTINUOUS
 66
     1
 40
0.000000
 41
0.000000
  0
VERTEX
  8
0
  6
CONTINUOUS
 10
3.865840
 20
4.077040
  0
VERTEX
  8
0
  6
CONTINUOUS
 10
4.602840
 20
4.078360
  0
VERTEX
  8
0
  6
CONTINUOUS
 10
4.597120
 20
4.078360
  0
VERTEX
  8
0
  6
CONTINUOUS
 10
3.860120
 20
4.076600
  0
VERTEX
  8
0
  6
CONTINUOUS
 10
3.865840
 20
4.077040
  0
SEQEND
  8
0
  0
SOLID
  8
0
 62
    15
 10
3.594360
 20
6.109400
 11
4.331360
 21
6.110720
 12
4.343240
 22
6.109400
 13
5.080240
 23
6.110720
  0
POLYLINE
  8
0
  6
CONTINUOUS
 66
     1
 40
0.000000
 41
0.000000
  0
VERTEX
  8
0
  6
CONTINUOUS
 10
3.594360
 20
6.109400
  0
VERTEX
  8
0
  6
CONTINUOUS
 10
4.331360
 20
6.110720
  0
VERTEX
  8
0
  6
CONTINUOUS
 10
5.080240
 20
6.110720
  0
VERTEX
  8
0
  6
CONTINUOUS
 10
4.343240
 20
6.109400
  0
VERTEX
  8
0
  6
CONTINUOUS
 10
3.594360
 20
6.109400
  0
SEQEND
  8
0
  0
SOLID
  8
0
 62
    15
 10
4.343240
 20
6.109400
 11
5.080240
 21
6.110720
 12
4.427280
 22
6.100160
 13
5.164280
 23
6.101920
  0
POLYLINE
  8
0
  6
CONTINUOUS
 66
     1
 40
0.000000
 41
0.000000
  0
VERTEX
  8
0
  6
CONTINUOUS
 10
4.343240
 20
6.109400
  0
VERTEX
  8
0
  6
CONTINUOUS
 10
5.080240
 20
6.110720
  0
VERTEX
  8
0
  6
CONTINUOUS
 10
5.164280
 20
6.101920
  0
VERTEX
  8
0
  6
CONTINUOUS
 10
4.427280
 20
6.100160
  0
VERTEX
  8
0
  6
CONTINUOUS
 10
4.343240
 20
6.109400
  0
SEQEND
  8
0
  0
SOLID
  8
0
 62
    15
 10
4.427280
 20
6.100160
 11
5.164280
 21
6.101920
 12
4.505600
 22
6.074640
 13
5.242600
 23
6.076400
  0
POLYLINE
  8
0
  6
CONTINUOUS
 66
     1
 40
0.000000
 41
0.000000
  0
VERTEX
  8
0
  6
CONTINUOUS
 10
4.427280
 20
6.100160
  0
VERTEX
  8
0
  6
CONTINUOUS
 10
5.164280
 20
6.101920
  0
VERTEX
  8
0
  6
CONTINUOUS
 10
5.242600
 20
6.076400
  0
VERTEX
  8
0
  6
CONTINUOUS
 10
4.505600
 20
6.074640
  0
VERTEX
  8
0
  6
CONTINUOUS
 10
4.427280
 20
6.100160
  0
SEQEND
  8
0
  0
SOLID
  8
0
 62
    15
 10
4.505600
 20
6.074640
 11
5.242600
 21
6.076400
 12
4.576440
 22
6.034160
 13
5.313440
 23
6.035480
  0
POLYLINE
  8
0
  6
CONTINUOUS
 66
     1
 40
0.000000
 41
0.000000
  0
VERTEX
  8
0
  6
CONTINUOUS
 10
4.505600
 20
6.074640
  0
VERTEX
  8
0
  6
CONTINUOUS
 10
5.242600
 20
6.076400
  0
VERTEX
  8
0
  6
CONTINUOUS
 10
5.313440
 20
6.035480
  0
VERTEX
  8
0
  6
CONTINUOUS
 10
4.576440
 20
6.034160
  0
VERTEX
  8
0
  6
CONTINUOUS
 10
4.505600
 20
6.074640
  0
SEQEND
  8
0
  0
SOLID
  8
0
 62
    15
 10
4.576440
 20
6.034160
 11
5.313440
 21
6.035480
 12
4.638480
 22
5.980040
 13
5.375480
 23
5.981800
  0
POLYLINE
  8
0
  6
CONTINUOUS
 66
     1
 40
0.000000
 41
0.000000
  0
VERTEX
  8
0
  6
CONTINUOUS
 10
4.576440
 20
6.034160
  0
VERTEX
  8
0
  6
CONTINUOUS
 10
5.313440
 20
6.035480
  0
VERTEX
  8
0
  6
CONTINUOUS
 10
5.375480
 20
5.981800
  0
VERTEX
  8
0
  6
CONTINUOUS
 10
4.638480
 20
5.980040
  0
VERTEX
  8
0
  6
CONTINUOUS
 10
4.576440
 20
6.034160
  0
SEQEND
  8
0
  0
SOLID
  8
0
 62
    15
 10
4.638480
 20
5.980040
 11
5.375480
 21
5.981800
 12
4.689520
 22
5.914920
 13
5.426520
 23
5.916680
  0
POLYLINE
  8
0
  6
CONTINUOUS
 66
     1
 40
0.000000
 41
0.000000
  0
VERTEX
  8
0
  6
CONTINUOUS
 10
4.638480
 20
5.980040
  0
VERTEX
  8
0
  6
CONTINUOUS
 10
5.375480
 20
5.981800
  0
VERTEX
  8
0
  6
CONTINUOUS
 10
5.426520
 20
5.916680
  0
VERTEX
  8
0
  6
CONTINUOUS
 10
4.689520
 20
5.914920
  0
VERTEX
  8
0
  6
CONTINUOUS
 10
4.638480
 20
5.980040
  0
SEQEND
  8
0
  0
SOLID
  8
0
 62
    15
 10
4.689520
 20
5.914920
 11
5.426520
 21
5.916680
 12
4.727800
 22
5.840120
 13
5.464800
 23
5.841440
  0
POLYLINE
  8
0
  6
CONTINUOUS
 66
     1
 40
0.000000
 41
0.000000
  0
VERTEX
  8
0
  6
CONTINUOUS
 10
4.689520
 20
5.914920
  0
VERTEX
  8
0
  6
CONTINUOUS
 10
5.426520
 20
5.916680
  0
VERTEX
  8
0
  6
CONTINUOUS
 10
5.464800
 20
5.841440
  0
VERTEX
  8
0
  6
CONTINUOUS
 10
4.727800
 20
5.840120
  0
VERTEX
  8
0
  6
CONTINUOUS
 10
4.689520
 20
5.914920
  0
SEQEND
  8
0
  0
SOLID
  8
0
 62
    15
 10
4.727800
 20
5.840120
 11
5.464800
 21
5.841440
 12
4.752440
 22
5.757400
 13
5.489440
 23
5.758720
  0
POLYLINE
  8
0
  6
CONTINUOUS
 66
     1
 40
0.000000
 41
0.000000
  0
VERTEX
  8
0
  6
CONTINUOUS
 10
4.727800
 20
5.840120
  0
VERTEX
  8
0
  6
CONTINUOUS
 10
5.464800
 20
5.841440
  0
VERTEX
  8
0
  6
CONTINUOUS
 10
5.489440
 20
5.758720
  0
VERTEX
  8
0
  6
CONTINUOUS
 10
4.752440
 20
5.757400
  0
VERTEX
  8
0
  6
CONTINUOUS
 10
4.727800
 20
5.840120
  0
SEQEND
  8
0
  0
SOLID
  8
0
 62
    15
 10
4.752440
 20
5.757400
 11
5.489440
 21
5.758720
 12
4.760800
 22
5.668520
 13
5.497800
 23
5.669840
  0
POLYLINE
  8
0
  6
CONTINUOUS
 66
     1
 40
0.000000
 41
0.000000
  0
VERTEX
  8
0
  6
CONTINUOUS
 10
4.752440
 20
5.757400
  0
VERTEX
  8
0
  6
CONTINUOUS
 10
5.489440
 20
5.758720
  0
VERTEX
  8
0
  6
CONTINUOUS
 10
5.497800
 20
5.669840
  0
VERTEX
  8
0
  6
CONTINUOUS
 10
4.760800
 20
5.668520
  0
VERTEX
  8
0
  6
CONTINUOUS
 10
4.752440
 20
5.757400
  0
SEQEND
  8
0
  0
SOLID
  8
0
 62
    15
 10
4.760800
 20
5.668520
 11
5.497800
 21
5.669840
 12
4.752440
 22
5.579640
 13
5.489440
 23
5.580960
  0
POLYLINE
  8
0
  6
CONTINUOUS
 66
     1
 40
0.000000
 41
0.000000
  0
VERTEX
  8
0
  6
CONTINUOUS
 10
4.760800
 20
5.668520
  0
VERTEX
  8
0
  6
CONTINUOUS
 10
5.497800
 20
5.669840
  0
VERTEX
  8
0
  6
CONTINUOUS
 10
5.489440
 20
5.580960
  0
VERTEX
  8
0
  6
CONTINUOUS
 10
4.752440
 20
5.579640
  0
VERTEX
  8
0
  6
CONTINUOUS
 10
4.760800
 20
5.668520
  0
SEQEND
  8
0
  0
SOLID
  8
0
 62
    15
 10
4.752440
 20
5.579640
 11
5.489440
 21
5.580960
 12
4.727800
 22
5.496920
 13
5.464800
 23
5.498240
  0
POLYLINE
  8
0
  6
CONTINUOUS
 66
     1
 40
0.000000
 41
0.000000
  0
VERTEX
  8
0
  6
CONTINUOUS
 10
4.752440
 20
5.579640
  0
VERTEX
  8
0
  6
CONTINUOUS
 10
5.489440
 20
5.580960
  0
VERTEX
  8
0
  6
CONTINUOUS
 10
5.464800
 20
5.498240
  0
VERTEX
  8
0
  6
CONTINUOUS
 10
4.727800
 20
5.496920
  0
VERTEX
  8
0
  6
CONTINUOUS
 10
4.752440
 20
5.579640
  0
SEQEND
  8
0
  0
SOLID
  8
0
 62
    15
 10
4.727800
 20
5.496920
 11
5.464800
 21
5.498240
 12
4.689520
 22
5.421680
 13
5.426520
 23
5.423440
  0
POLYLINE
  8
0
  6
CONTINUOUS
 66
     1
 40
0.000000
 41
0.000000
  0
VERTEX
  8
0
  6
CONTINUOUS
 10
4.727800
 20
5.496920
  0
VERTEX
  8
0
  6
CONTINUOUS
 10
5.464800
 20
5.498240
  0
VERTEX
  8
0
  6
CONTINUOUS
 10
5.426520
 20
5.423440
  0
VERTEX
  8
0
  6
CONTINUOUS
 10
4.689520
 20
5.421680
  0
VERTEX
  8
0
  6
CONTINUOUS
 10
4.727800
 20
5.496920
  0
SEQEND
  8
0
  0
SOLID
  8
0
 62
    15
 10
4.689520
 20
5.421680
 11
5.426520
 21
5.423440
 12
4.638480
 22
5.356560
 13
5.375480
 23
5.358320
  0
POLYLINE
  8
0
  6
CONTINUOUS
 66
     1
 40
0.000000
 41
0.000000
  0
VERTEX
  8
0
  6
CONTINUOUS
 10
4.689520
 20
5.421680
  0
VERTEX
  8
0
  6
CONTINUOUS
 10
5.426520
 20
5.423440
  0
VERTEX
  8
0
  6
CONTINUOUS
 10
5.375480
 20
5.358320
  0
VERTEX
  8
0
  6
CONTINUOUS
 10
4.638480
 20
5.356560
  0
VERTEX
  8
0
  6
CONTINUOUS
 10
4.689520
 20
5.421680
  0
SEQEND
  8
0
  0
SOLID
  8
0
 62
    15
 10
4.638480
 20
5.356560
 11
5.375480
 21
5.358320
 12
4.576440
 22
5.302880
 13
5.313440
 23
5.304200
  0
POLYLINE
  8
0
  6
CONTINUOUS
 66
     1
 40
0.000000
 41
0.000000
  0
VERTEX
  8
0
  6
CONTINUOUS
 10
4.638480
 20
5.356560
  0
VERTEX
  8
0
  6
CONTINUOUS
 10
5.375480
 20
5.358320
  0
VERTEX
  8
0
  6
CONTINUOUS
 10
5.313440
 20
5.304200
  0
VERTEX
  8
0
  6
CONTINUOUS
 10
4.576440
 20
5.302880
  0
VERTEX
  8
0
  6
CONTINUOUS
 10
4.638480
 20
5.356560
  0
SEQEND
  8
0
  0
SOLID
  8
0
 62
    15
 10
4.576440
 20
5.302880
 11
5.313440
 21
5.304200
 12
4.505600
 22
5.261960
 13
5.242600
 23
5.263720
  0
POLYLINE
  8
0
  6
CONTINUOUS
 66
     1
 40
0.000000
 41
0.000000
  0
VERTEX
  8
0
  6
CONTINUOUS
 10
4.576440
 20
5.302880
  0
VERTEX
  8
0
  6
CONTINUOUS
 10
5.313440
 20
5.304200
  0
VERTEX
  8
0
  6
CONTINUOUS
 10
5.242600
 20
5.263720
  0
VERTEX
  8
0
  6
CONTINUOUS
 10
4.505600
 20
5.261960
  0
VERTEX
  8
0
  6
CONTINUOUS
 10
4.576440
 20
5.302880
  0
SEQEND
  8
0
  0
SOLID
  8
0
 62
    15
 10
4.505600
 20
5.261960
 11
5.242600
 21
5.263720
 12
4.427280
 22
5.236440
 13
5.164280
 23
5.237760
  0
POLYLINE
  8
0
  6
CONTINUOUS
 66
     1
 40
0.000000
 41
0.000000
  0
VERTEX
  8
0
  6
CONTINUOUS
 10
4.505600
 20
5.261960
  0
VERTEX
  8
0
  6
CONTINUOUS
 10
5.242600
 20
5.263720
  0
VERTEX
  8
0
  6
CONTINUOUS
 10
5.164280
 20
5.237760
  0
VERTEX
  8
0
  6
CONTINUOUS
 10
4.427280
 20
5.236440
  0
VERTEX
  8
0
  6
CONTINUOUS
 10
4.505600
 20
5.261960
  0
SEQEND
  8
0
  0
SOLID
  8
0
 62
    15
 10
4.427280
 20
5.236440
 11
5.164280
 21
5.237760
 12
4.343240
 22
5.227200
 13
5.080240
 23
5.228960
  0
POLYLINE
  8
0
  6
CONTINUOUS
 66
     1
 40
0.000000
 41
0.000000
  0
VERTEX
  8
0
  6
CONTINUOUS
 10
4.427280
 20
5.236440
  0
VERTEX
  8
0
  6
CONTINUOUS
 10
5.164280
 20
5.237760
  0
VERTEX
  8
0
  6
CONTINUOUS
 10
5.080240
 20
5.228960
  0
VERTEX
  8
0
  6
CONTINUOUS
 10
4.343240
 20
5.227200
  0
VERTEX
  8
0
  6
CONTINUOUS
 10
4.427280
 20
5.236440
  0
SEQEND
  8
0
  0
POLYLINE
  8
0
  6
CONTINUOUS
 66
     1
 40
0.000000
 41
0.000000
  0
VERTEX
  8
0
  6
CONTINUOUS
 10
4.330480
 20
5.228520
  0
VERTEX
  8
0
  6
CONTINUOUS
 10
4.330480
 20
4.953960
  0
VERTEX
  8
0
  6
CONTINUOUS
 10
4.221360
 20
4.953960
  0
VERTEX
  8
0
  6
CONTINUOUS
 10
4.223560
 20
4.907320
  0
VERTEX
  8
0
  6
CONTINUOUS
 10
4.219160
 20
4.867280
  0
VERTEX
  8
0
  6
CONTINUOUS
 10
4.208600
 20
4.833400
  0
VERTEX
  8
0
  6
CONTINUOUS
 10
4.193200
 20
4.804360
  0
VERTEX
  8
0
  6
CONTINUOUS
 10
4.151400
 20
4.757280
  0
VERTEX
  8
0
  6
CONTINUOUS
 10
4.103440
 20
4.717680
  0
VERTEX
  8
0
  6
CONTINUOUS
 10
4.062960
 20
4.674120
  0
VERTEX
  8
0
  6
CONTINUOUS
 10
4.035680
 20
4.619120
  0
VERTEX
  8
0
  6
CONTINUOUS
 10
4.017200
 20
4.552680
  0
VERTEX
  8
0
  6
CONTINUOUS
 10
4.004000
 20
4.474800
  0
VERTEX
  8
0
  6
CONTINUOUS
 10
4.048440
 20
4.466440
  0
VERTEX
  8
0
  6
CONTINUOUS
 10
4.089800
 20
4.450600
  0
VERTEX
  8
0
  6
CONTINUOUS
 10
4.127640
 20
4.429040
  0
VERTEX
  8
0
  6
CONTINUOUS
 10
4.160640
 20
4.402640
  0
VERTEX
  8
0
  6
CONTINUOUS
 10
4.187480
 20
4.371840
  0
VERTEX
  8
0
  6
CONTINUOUS
 10
4.208160
 20
4.338400
  0
VERTEX
  8
0
  6
CONTINUOUS
 10
4.221360
 20
4.303200
  0
VERTEX
  8
0
  6
CONTINUOUS
 10
4.226640
 20
4.267120
  0
VERTEX
  8
0
  6
CONTINUOUS
 10
4.222240
 20
4.231480
  0
VERTEX
  8
0
  6
CONTINUOUS
 10
4.208160
 20
4.197160
  0
VERTEX
  8
0
  6
CONTINUOUS
 10
4.183080
 20
4.165040
  0
VERTEX
  8
0
  6
CONTINUOUS
 10
4.146560
 20
4.136440
  0
VERTEX
  8
0
  6
CONTINUOUS
 10
4.097280
 20
4.112240
  0
VERTEX
  8
0
  6
CONTINUOUS
 10
4.034800
 20
4.093320
  0
VERTEX
  8
0
  6
CONTINUOUS
 10
3.957800
 20
4.081440
  0
VERTEX
  8
0
  6
CONTINUOUS
 10
3.860120
 20
4.076600
  0
VERTEX
  8
0
  6
CONTINUOUS
 10
3.593920
 20
4.077040
  0
VERTEX
  8
0
  6
CONTINUOUS
 10
3.594360
 20
6.109400
  0
VERTEX
  8
0
  6
CONTINUOUS
 10
4.343240
 20
6.109400
  0
VERTEX
  8
0
  6
CONTINUOUS
 10
4.427280
 20
6.100160
  0
VERTEX
  8
0
  6
CONTINUOUS
 10
4.505600
 20
6.074640
  0
VERTEX
  8
0
  6
CONTINUOUS
 10
4.576440
 20
6.034160
  0
VERTEX
  8
0
  6
CONTINUOUS
 10
4.638480
 20
5.980040
  0
VERTEX
  8
0
  6
CONTINUOUS
 10
4.689520
 20
5.914920
  0
VERTEX
  8
0
  6
CONTINUOUS
 10
4.727800
 20
5.840120
  0
VERTEX
  8
0
  6
CONTINUOUS
 10
4.752440
 20
5.757400
  0
VERTEX
  8
0
  6
CONTINUOUS
 10
4.760800
 20
5.668520
  0
VERTEX
  8
0
  6
CONTINUOUS
 10
4.752440
 20
5.579640
  0
VERTEX
  8
0
  6
CONTINUOUS
 10
4.727800
 20
5.496920
  0
VERTEX
  8
0
  6
CONTINUOUS
 10
4.689520
 20
5.421680
  0
VERTEX
  8
0
  6
CONTINUOUS
 10
4.638480
 20
5.356560
  0
VERTEX
  8
0
  6
CONTINUOUS
 10
4.576440
 20
5.302880
  0
VERTEX
  8
0
  6
CONTINUOUS
 10
4.505600
 20
5.261960
  0
VERTEX
  8
0
  6
CONTINUOUS
 10
4.427280
 20
5.236440
  0
VERTEX
  8
0
  6
CONTINUOUS
 10
4.343240
 20
5.227200
  0
VERTEX
  8
0
  6
CONTINUOUS
 10
4.330480
 20
5.228520
  0
SEQEND
  8
0
  0
TEXT
  8
0
 10
4.249520
 20
3.823160
 40
0.138134
  1
BA  900
 41
1.000000
  7
SN0
 71
     0
 72
     5
 11
4.838922
 21
3.823160
  0
TEXT
  8
0
 10
4.116640
 20
3.631760
 40
0.138134
  1
1-3/16" x 2"
 41
1.000000
  7
SN0
 71
     0
 72
     5
 11
4.969578
 21
3.631760
  0
POLYLINE
  8
0
  6
CONTINUOUS
 66
     1
 40
0.014080
 41
0.014080
  0
VERTEX
  8
0
  6
CONTINUOUS
 10
6.808120
 20
4.451920
  0
VERTEX
  8
0
  6
CONTINUOUS
 10
7.082680
 20
4.451920
  0
VERTEX
  8
0
  6
CONTINUOUS
 10
7.082680
 20
4.342800
  0
VERTEX
  8
0
  6
CONTINUOUS
 10
7.106880
 20
4.345000
  0
VERTEX
  8
0
  6
CONTINUOUS
 10
7.129760
 20
4.345000
  0
VERTEX
  8
0
  6
CONTINUOUS
 10
7.150440
 20
4.343680
  0
VERTEX
  8
0
  6
CONTINUOUS
 10
7.169360
 20
4.340600
  0
VERTEX
  8
0
  6
CONTINUOUS
 10
7.203680
 20
4.330040
  0
VERTEX
  8
0
  6
CONTINUOUS
 10
7.232720
 20
4.314200
  0
VERTEX
  8
0
  6
CONTINUOUS
 10
7.257800
 20
4.294840
  0
VERTEX
  8
0
  6
CONTINUOUS
 10
7.279800
 20
4.272840
  0
VERTEX
  8
0
  6
CONTINUOUS
 10
7.328640
 20
4.213000
  0
VERTEX
  8
0
  6
CONTINUOUS
 10
7.350640
 20
4.192760
  0
VERTEX
  8
0
  6
CONTINUOUS
 10
7.375280
 20
4.176040
  0
VERTEX
  8
0
  6
CONTINUOUS
 10
7.402560
 20
4.162400
  0
VERTEX
  8
0
  6
CONTINUOUS
 10
7.449200
 20
4.146560
  0
VERTEX
  8
0
  6
CONTINUOUS
 10
7.502440
 20
4.134680
  0
VERTEX
  8
0
  6
CONTINUOUS
 10
7.561840
 20
4.125000
  0
VERTEX
  8
0
  6
CONTINUOUS
 10
7.565360
 20
4.147440
  0
VERTEX
  8
0
  6
CONTINUOUS
 10
7.577240
 20
4.191000
  0
VERTEX
  8
0
  6
CONTINUOUS
 10
7.596160
 20
4.230600
  0
VERTEX
  8
0
  6
CONTINUOUS
 10
7.620360
 20
4.265800
  0
VERTEX
  8
0
  6
CONTINUOUS
 10
7.649400
 20
4.296160
  0
VERTEX
  8
0
  6
CONTINUOUS
 10
7.664800
 20
4.308920
  0
VERTEX
  8
0
  6
CONTINUOUS
 10
7.698240
 20
4.329600
  0
VERTEX
  8
0
  6
CONTINUOUS
 10
7.733440
 20
4.342800
  0
VERTEX
  8
0
  6
CONTINUOUS
 10
7.751480
 20
4.346320
  0
VERTEX
  8
0
  6
CONTINUOUS
 10
7.769520
 20
4.347640
  0
VERTEX
  8
0
  6
CONTINUOUS
 10
7.787560
 20
4.346760
  0
VERTEX
  8
0
  6
CONTINUOUS
 10
7.813960
 20
4.341040
  0
VERTEX
  8
0
  6
CONTINUOUS
 10
7.839920
 20
4.329600
  0
VERTEX
  8
0
  6
CONTINUOUS
 10
7.864120
 20
4.311560
  0
VERTEX
  8
0
  6
CONTINUOUS
 10
7.886560
 20
4.287800
  0
VERTEX
  8
0
  6
CONTINUOUS
 10
7.900640
 20
4.268000
  0
VERTEX
  8
0
  6
CONTINUOUS
 10
7.919120
 20
4.231920
  0
VERTEX
  8
0
  6
CONTINUOUS
 10
7.934520
 20
4.188800
  0
VERTEX
  8
0
  6
CONTINUOUS
 10
7.946840
 20
4.138200
  0
VERTEX
  8
0
  6
CONTINUOUS
 10
7.955200
 20
4.078800
  0
VERTEX
  8
0
  6
CONTINUOUS
 10
7.959160
 20
4.011480
  0
VERTEX
  8
0
  6
CONTINUOUS
 10
7.960040
 20
3.981560
  0
VERTEX
  8
0
  6
CONTINUOUS
 10
7.959600
 20
3.715360
  0
VERTEX
  8
0
  6
CONTINUOUS
 10
5.927240
 20
3.715800
  0
VERTEX
  8
0
  6
CONTINUOUS
 10
5.927680
 20
4.485800
  0
VERTEX
  8
0
  6
CONTINUOUS
 10
5.932520
 20
4.527600
  0
VERTEX
  8
0
  6
CONTINUOUS
 10
5.936040
 20
4.548280
  0
VERTEX
  8
0
  6
CONTINUOUS
 10
5.947040
 20
4.588320
  0
VERTEX
  8
0
  6
CONTINUOUS
 10
5.962000
 20
4.626600
  0
VERTEX
  8
0
  6
CONTINUOUS
 10
5.980480
 20
4.663120
  0
VERTEX
  8
0
  6
CONTINUOUS
 10
6.002480
 20
4.697880
  0
VERTEX
  8
0
  6
CONTINUOUS
 10
6.028000
 20
4.730000
  0
VERTEX
  8
0
  6
CONTINUOUS
 10
6.056600
 20
4.759480
  0
VERTEX
  8
0
  6
CONTINUOUS
 10
6.087840
 20
4.786320
  0
VERTEX
  8
0
  6
CONTINUOUS
 10
6.121720
 20
4.810520
  0
VERTEX
  8
0
  6
CONTINUOUS
 10
6.158240
 20
4.831200
  0
VERTEX
  8
0
  6
CONTINUOUS
 10
6.196520
 20
4.848800
  0
VERTEX
  8
0
  6
CONTINUOUS
 10
6.237000
 20
4.862880
  0
VERTEX
  8
0
  6
CONTINUOUS
 10
6.279240
 20
4.873440
  0
VERTEX
  8
0
  6
CONTINUOUS
 10
6.323240
 20
4.879600
  0
VERTEX
  8
0
  6
CONTINUOUS
 10
6.368120
 20
4.881800
  0
VERTEX
  8
0
  6
CONTINUOUS
 10
6.413440
 20
4.879600
  0
VERTEX
  8
0
  6
CONTINUOUS
 10
6.457000
 20
4.873440
  0
VERTEX
  8
0
  6
CONTINUOUS
 10
6.499240
 20
4.862880
  0
VERTEX
  8
0
  6
CONTINUOUS
 10
6.539720
 20
4.848800
  0
VERTEX
  8
0
  6
CONTINUOUS
 10
6.578440
 20
4.831200
  0
VERTEX
  8
0
  6
CONTINUOUS
 10
6.614960
 20
4.810520
  0
VERTEX
  8
0
  6
CONTINUOUS
 10
6.648840
 20
4.786320
  0
VERTEX
  8
0
  6
CONTINUOUS
 10
6.680080
 20
4.759480
  0
VERTEX
  8
0
  6
CONTINUOUS
 10
6.708680
 20
4.730000
  0
VERTEX
  8
0
  6
CONTINUOUS
 10
6.734200
 20
4.697880
  0
VERTEX
  8
0
  6
CONTINUOUS
 10
6.756200
 20
4.663120
  0
VERTEX
  8
0
  6
CONTINUOUS
 10
6.774680
 20
4.626600
  0
VERTEX
  8
0
  6
CONTINUOUS
 10
6.789640
 20
4.588320
  0
VERTEX
  8
0
  6
CONTINUOUS
 10
6.800640
 20
4.548280
  0
VERTEX
  8
0
  6
CONTINUOUS
 10
6.807240
 20
4.506920
  0
VERTEX
  8
0
  6
CONTINUOUS
 10
6.809440
 20
4.464240
  0
VERTEX
  8
0
  6
CONTINUOUS
 10
6.808120
 20
4.451920
  0
SEQEND
  8
0
  0
TEXT
  8
0
 10
6.369000
 20
4.038320
 40
0.138134
  1
BA  900
 41
1.000000
  7
SN0
 71
     0
 72
     5
 11
6.958402
 21
4.038320
  0
TEXT
  8
0
 10
6.236120
 20
3.846920
 40
0.138134
  1
1-3/16" x 2"
 41
1.000000
  7
SN0
 71
     0
 72
     5
 11
7.089058
 21
3.846920
  0
ENDSEC
  0
EOF
