  0
SECTION
  2
HEADER
  9
$ACADVER
  1
AC1006
  9
$EXTMIN
 10
4.381080
 20
0.487080
  9
$EXTMAX
 10
6.907560
 20
2.062720
  9
$LTSCALE
 40
0.044000
  9
$PDMODE
 70
    35
  9
$PDSIZE
 40
0.035200
  0
ENDSEC
  0
SECTION
  2
TABLES
  0
TABLE
  2
LTYPE
 70
     9
  0
LTYPE
  2
CONTINUOUS
 70
    64
  3
Solid line
 72
    65
 73
     0
 40
0.000000
  0
LTYPE
  2
DASHED
 70
    64
  3
__ __ __ __ __ __ __ __ __ __ __ __ __ __ __
 72
    65
 73
     2
 40
0.000330
 49
0.000220
 49
-0.000110
  0
LTYPE
  2
HIDDEN
 70
    64
  3
 _ _ _ _ _ _ _ _ _ _ _ _ _ _ _ _ _ _ _ _ _ _
 72
    65
 73
     2
 40
0.000165
 49
0.000110
 49
-0.000055
  0
LTYPE
  2
CENTER
 70
    64
  3
____ _ ____ _ ____ _ ____ _ ____ _ ____ _ ____
 72
    65
 73
     4
 40
0.000880
 49
0.000550
 49
-0.000110
 49
0.000110
 49
-0.000110
  0
LTYPE
  2
PHANTOM
 70
    64
  3
_____ _ _ _____ _ _ _____ _ _ _____ _ _ ____
 72
    65
 73
     6
 40
0.001100
 49
0.000550
 49
-0.000110
 49
0.000110
 49
-0.000110
 49
0.000110
 49
-0.000110
  0
LTYPE
  2
DOT
 70
    64
  3
...............................................
 72
    65
 73
     2
 40
0.000110
 49
0.000000
 49
-0.000110
  0
LTYPE
  2
DASHDOT
 70
    64
  3
__ . __ . __ . __ . __ . __ . __ . __ . __ . __
 72
    65
 73
     4
 40
0.000440
 49
0.000220
 49
-0.000110
 49
0.000000
 49
-0.000110
  0
LTYPE
  2
BORDER
 70
    64
  3
__ __ . __ __ . __ __ . __ __ . __ __ . __ __
 72
    65
 73
     6
 40
0.000770
 49
0.000220
 49
-0.000110
 49
0.000220
 49
-0.000110
 49
0.000000
 49
-0.000110
  0
LTYPE
  2
DIVIDE
 70
    64
  3
__ . . __ . . __ . . __ . . __ . . __ . . __
 72
    65
 73
     6
 40
0.000550
 49
0.000220
 49
-0.000110
 49
0.000000
 49
-0.000110
 49
0.000000
 49
-0.000110
  0
LTYPE
  2
DOTDOT
 70
    64
  3
 . .  . .  . .  . .  . .  . . 
 72
    65
 73
     5
 40
0.000242
 49
-0.000110
 49
0.000000
 49
-0.000110
 49
0.000000
 49
-0.000110
  0
ENDTAB
  0
TABLE
  2
STYLE
 70
     2
  0
STYLE
 70
     0
  2
SN0
 40
0.000000
 41
0.000440
 50
0.000000
 71
     0
 42
0.000000
  3
ROMAND
  0
STYLE
 70
    68
  2
SV0
 40
0.000000
 41
0.000440
 50
0.000000
 71
     0
 42
0.000000
  3
ROMAND
  0
ENDTAB
  0
TABLE
  2
LAYER
 70
     3
  0
LAYER
  2
FOREGROUND
 70
    64
 62
     7
  6
CONTINUOUS
  0
LAYER
  2
BACKGROUND
 70
    65
 62
    -7
  6
CONTINUOUS
  0
LAYER
  2
0
 70
    64
 62
     7
  6
CONTINUOUS
  0
ENDTAB
  0
ENDSEC
  0
SECTION
  2
ENTITIES
  0
POLYLINE
  8
FOREGROUND
  6
CONTINUOUS
 66
     1
 40
0.000000
 41
0.000000
  0
VERTEX
  8
FOREGROUND
  6
CONTINUOUS
 10
0.000000
 20
2.549800
  0
VERTEX
  8
FOREGROUND
  6
CONTINUOUS
 10
8.499920
 20
2.549800
  0
VERTEX
  8
FOREGROUND
  6
CONTINUOUS
 10
8.499920
 20
-8.450200
  0
VERTEX
  8
FOREGROUND
  6
CONTINUOUS
 10
0.000000
 20
-8.450200
  0
VERTEX
  8
FOREGROUND
  6
CONTINUOUS
 10
0.000000
 20
2.549800
  0
SEQEND
  8
0
  0
POLYLINE
  8
FOREGROUND
  6
CONTINUOUS
 66
     1
 40
0.000000
 41
0.000000
  0
VERTEX
  8
FOREGROUND
  6
CONTINUOUS
 10
0.000000
 20
2.549800
  0
VERTEX
  8
FOREGROUND
  6
CONTINUOUS
 10
8.499920
 20
2.549800
  0
VERTEX
  8
FOREGROUND
  6
CONTINUOUS
 10
8.499920
 20
-8.450200
  0
VERTEX
  8
FOREGROUND
  6
CONTINUOUS
 10
0.000000
 20
-8.450200
  0
VERTEX
  8
FOREGROUND
  6
CONTINUOUS
 10
0.000000
 20
2.549800
  0
SEQEND
  8
0
  0
POLYLINE
  8
0
  6
CONTINUOUS
 66
     1
 40
0.014080
 41
0.014080
  0
VERTEX
  8
0
  6
CONTINUOUS
 10
5.773240
 20
1.436600
  0
VERTEX
  8
0
  6
CONTINUOUS
 10
5.773240
 20
1.548360
  0
VERTEX
  8
0
  6
CONTINUOUS
 10
5.804920
 20
1.550560
  0
VERTEX
  8
0
  6
CONTINUOUS
 10
5.834840
 20
1.555840
  0
VERTEX
  8
0
  6
CONTINUOUS
 10
5.863000
 20
1.564640
  0
VERTEX
  8
0
  6
CONTINUOUS
 10
5.888960
 20
1.579160
  0
VERTEX
  8
0
  6
CONTINUOUS
 10
5.912720
 20
1.599400
  0
VERTEX
  8
0
  6
CONTINUOUS
 10
5.923720
 20
1.611720
  0
VERTEX
  8
0
  6
CONTINUOUS
 10
5.943520
 20
1.642960
  0
VERTEX
  8
0
  6
CONTINUOUS
 10
5.961120
 20
1.683000
  0
VERTEX
  8
0
  6
CONTINUOUS
 10
5.968600
 20
1.706320
  0
VERTEX
  8
0
  6
CONTINUOUS
 10
6.084760
 20
1.706320
  0
VERTEX
  8
0
  6
CONTINUOUS
 10
5.970800
 20
1.706320
  0
VERTEX
  8
0
  6
CONTINUOUS
 10
6.084760
 20
1.706320
  0
VERTEX
  8
0
  6
CONTINUOUS
 10
6.086080
 20
1.732280
  0
VERTEX
  8
0
  6
CONTINUOUS
 10
6.092680
 20
1.769240
  0
VERTEX
  8
0
  6
CONTINUOUS
 10
6.104560
 20
1.804440
  0
VERTEX
  8
0
  6
CONTINUOUS
 10
6.115120
 20
1.826440
  0
VERTEX
  8
0
  6
CONTINUOUS
 10
6.127880
 20
1.847560
  0
VERTEX
  8
0
  6
CONTINUOUS
 10
6.142400
 20
1.866920
  0
VERTEX
  8
0
  6
CONTINUOUS
 10
6.158680
 20
1.884520
  0
VERTEX
  8
0
  6
CONTINUOUS
 10
6.176720
 20
1.900800
  0
VERTEX
  8
0
  6
CONTINUOUS
 10
6.196080
 20
1.915320
  0
VERTEX
  8
0
  6
CONTINUOUS
 10
6.216760
 20
1.928080
  0
VERTEX
  8
0
  6
CONTINUOUS
 10
6.250200
 20
1.943040
  0
VERTEX
  8
0
  6
CONTINUOUS
 10
6.286280
 20
1.953160
  0
VERTEX
  8
0
  6
CONTINUOUS
 10
6.310920
 20
1.957120
  0
VERTEX
  8
0
  6
CONTINUOUS
 10
6.336880
 20
1.958440
  0
VERTEX
  8
0
  6
CONTINUOUS
 10
6.362840
 20
1.957120
  0
VERTEX
  8
0
  6
CONTINUOUS
 10
6.399800
 20
1.950520
  0
VERTEX
  8
0
  6
CONTINUOUS
 10
6.435000
 20
1.938640
  0
VERTEX
  8
0
  6
CONTINUOUS
 10
6.457000
 20
1.928080
  0
VERTEX
  8
0
  6
CONTINUOUS
 10
6.478120
 20
1.915320
  0
VERTEX
  8
0
  6
CONTINUOUS
 10
6.497480
 20
1.900800
  0
VERTEX
  8
0
  6
CONTINUOUS
 10
6.515080
 20
1.884520
  0
VERTEX
  8
0
  6
CONTINUOUS
 10
6.531360
 20
1.866920
  0
VERTEX
  8
0
  6
CONTINUOUS
 10
6.545880
 20
1.847560
  0
VERTEX
  8
0
  6
CONTINUOUS
 10
6.558640
 20
1.826440
  0
VERTEX
  8
0
  6
CONTINUOUS
 10
6.573600
 20
1.793000
  0
VERTEX
  8
0
  6
CONTINUOUS
 10
6.583720
 20
1.757360
  0
VERTEX
  8
0
  6
CONTINUOUS
 10
6.587680
 20
1.732280
  0
VERTEX
  8
0
  6
CONTINUOUS
 10
6.589000
 20
1.706320
  0
VERTEX
  8
0
  6
CONTINUOUS
 10
6.705160
 20
1.706320
  0
VERTEX
  8
0
  6
CONTINUOUS
 10
6.721000
 20
1.661880
  0
VERTEX
  8
0
  6
CONTINUOUS
 10
6.739920
 20
1.626680
  0
VERTEX
  8
0
  6
CONTINUOUS
 10
6.761040
 20
1.599400
  0
VERTEX
  8
0
  6
CONTINUOUS
 10
6.784800
 20
1.579160
  0
VERTEX
  8
0
  6
CONTINUOUS
 10
6.810760
 20
1.565080
  0
VERTEX
  8
0
  6
CONTINUOUS
 10
6.838920
 20
1.555840
  0
VERTEX
  8
0
  6
CONTINUOUS
 10
6.868840
 20
1.551000
  0
VERTEX
  8
0
  6
CONTINUOUS
 10
6.900520
 20
1.548800
  0
VERTEX
  8
0
  6
CONTINUOUS
 10
6.900520
 20
1.436600
  0
VERTEX
  8
0
  6
CONTINUOUS
 10
5.773240
 20
1.436600
  0
SEQEND
  8
0
  0
SOLID
  8
0
 62
    15
 10
4.902040
 20
1.523720
 11
5.654000
 21
1.524160
 12
4.903360
 22
1.498200
 13
5.655320
 23
1.498200
  0
POLYLINE
  8
0
  6
CONTINUOUS
 66
     1
 40
0.000000
 41
0.000000
  0
VERTEX
  8
0
  6
CONTINUOUS
 10
4.902040
 20
1.523720
  0
VERTEX
  8
0
  6
CONTINUOUS
 10
5.654000
 20
1.524160
  0
VERTEX
  8
0
  6
CONTINUOUS
 10
5.655320
 20
1.498200
  0
VERTEX
  8
0
  6
CONTINUOUS
 10
4.903360
 20
1.498200
  0
VERTEX
  8
0
  6
CONTINUOUS
 10
4.902040
 20
1.523720
  0
SEQEND
  8
0
  0
SOLID
  8
0
 62
    15
 10
4.381520
 20
2.061840
 11
5.133040
 21
2.061840
 12
4.493280
 22
2.061840
 13
5.245240
 23
2.061840
  0
POLYLINE
  8
0
  6
CONTINUOUS
 66
     1
 40
0.000000
 41
0.000000
  0
VERTEX
  8
0
  6
CONTINUOUS
 10
4.381520
 20
2.061840
  0
VERTEX
  8
0
  6
CONTINUOUS
 10
5.133040
 20
2.061840
  0
VERTEX
  8
0
  6
CONTINUOUS
 10
5.245240
 20
2.061840
  0
VERTEX
  8
0
  6
CONTINUOUS
 10
4.493280
 20
2.061840
  0
VERTEX
  8
0
  6
CONTINUOUS
 10
4.381520
 20
2.061840
  0
SEQEND
  8
0
  0
SOLID
  8
0
 62
     7
 10
4.495480
 20
2.030160
 11
5.247000
 21
2.030160
 12
4.500760
 22
2.000240
 13
5.252280
 23
2.000240
  0
POLYLINE
  8
0
  6
CONTINUOUS
 66
     1
 40
0.000000
 41
0.000000
  0
VERTEX
  8
0
  6
CONTINUOUS
 10
4.495480
 20
2.030160
  0
VERTEX
  8
0
  6
CONTINUOUS
 10
5.247000
 20
2.030160
  0
VERTEX
  8
0
  6
CONTINUOUS
 10
5.252280
 20
2.000240
  0
VERTEX
  8
0
  6
CONTINUOUS
 10
4.500760
 20
2.000240
  0
VERTEX
  8
0
  6
CONTINUOUS
 10
4.495480
 20
2.030160
  0
SEQEND
  8
0
  0
SOLID
  8
0
 62
    15
 10
4.500760
 20
2.000240
 11
5.252280
 21
2.000240
 12
4.510000
 22
1.972080
 13
5.261520
 23
1.972520
  0
POLYLINE
  8
0
  6
CONTINUOUS
 66
     1
 40
0.000000
 41
0.000000
  0
VERTEX
  8
0
  6
CONTINUOUS
 10
4.500760
 20
2.000240
  0
VERTEX
  8
0
  6
CONTINUOUS
 10
5.252280
 20
2.000240
  0
VERTEX
  8
0
  6
CONTINUOUS
 10
5.261520
 20
1.972520
  0
VERTEX
  8
0
  6
CONTINUOUS
 10
4.510000
 20
1.972080
  0
VERTEX
  8
0
  6
CONTINUOUS
 10
4.500760
 20
2.000240
  0
SEQEND
  8
0
  0
SOLID
  8
0
 62
    15
 10
4.510000
 20
1.972080
 11
5.261520
 21
1.972520
 12
4.524080
 22
1.946120
 13
5.275600
 23
1.946560
  0
POLYLINE
  8
0
  6
CONTINUOUS
 66
     1
 40
0.000000
 41
0.000000
  0
VERTEX
  8
0
  6
CONTINUOUS
 10
4.510000
 20
1.972080
  0
VERTEX
  8
0
  6
CONTINUOUS
 10
5.261520
 20
1.972520
  0
VERTEX
  8
0
  6
CONTINUOUS
 10
5.275600
 20
1.946560
  0
VERTEX
  8
0
  6
CONTINUOUS
 10
4.524080
 20
1.946120
  0
VERTEX
  8
0
  6
CONTINUOUS
 10
4.510000
 20
1.972080
  0
SEQEND
  8
0
  0
SOLID
  8
0
 62
    15
 10
4.524080
 20
1.946120
 11
5.275600
 21
1.946560
 12
4.544320
 22
1.922360
 13
5.295840
 23
1.922800
  0
POLYLINE
  8
0
  6
CONTINUOUS
 66
     1
 40
0.000000
 41
0.000000
  0
VERTEX
  8
0
  6
CONTINUOUS
 10
4.524080
 20
1.946120
  0
VERTEX
  8
0
  6
CONTINUOUS
 10
5.275600
 20
1.946560
  0
VERTEX
  8
0
  6
CONTINUOUS
 10
5.295840
 20
1.922800
  0
VERTEX
  8
0
  6
CONTINUOUS
 10
4.544320
 20
1.922360
  0
VERTEX
  8
0
  6
CONTINUOUS
 10
4.524080
 20
1.946120
  0
SEQEND
  8
0
  0
SOLID
  8
0
 62
    15
 10
4.544320
 20
1.922360
 11
5.295840
 21
1.922800
 12
4.571600
 22
1.901240
 13
5.323120
 23
1.901240
  0
POLYLINE
  8
0
  6
CONTINUOUS
 66
     1
 40
0.000000
 41
0.000000
  0
VERTEX
  8
0
  6
CONTINUOUS
 10
4.544320
 20
1.922360
  0
VERTEX
  8
0
  6
CONTINUOUS
 10
5.295840
 20
1.922800
  0
VERTEX
  8
0
  6
CONTINUOUS
 10
5.323120
 20
1.901240
  0
VERTEX
  8
0
  6
CONTINUOUS
 10
4.571600
 20
1.901240
  0
VERTEX
  8
0
  6
CONTINUOUS
 10
4.544320
 20
1.922360
  0
SEQEND
  8
0
  0
SOLID
  8
0
 62
    15
 10
4.571600
 20
1.901240
 11
5.323120
 21
1.901240
 12
4.606800
 22
1.882320
 13
5.358320
 23
1.882760
  0
POLYLINE
  8
0
  6
CONTINUOUS
 66
     1
 40
0.000000
 41
0.000000
  0
VERTEX
  8
0
  6
CONTINUOUS
 10
4.571600
 20
1.901240
  0
VERTEX
  8
0
  6
CONTINUOUS
 10
5.323120
 20
1.901240
  0
VERTEX
  8
0
  6
CONTINUOUS
 10
5.358320
 20
1.882760
  0
VERTEX
  8
0
  6
CONTINUOUS
 10
4.606800
 20
1.882320
  0
VERTEX
  8
0
  6
CONTINUOUS
 10
4.571600
 20
1.901240
  0
SEQEND
  8
0
  0
SOLID
  8
0
 62
    15
 10
4.606800
 20
1.882320
 11
5.358320
 21
1.882760
 12
4.627920
 22
1.873960
 13
5.379440
 23
1.874400
  0
POLYLINE
  8
0
  6
CONTINUOUS
 66
     1
 40
0.000000
 41
0.000000
  0
VERTEX
  8
0
  6
CONTINUOUS
 10
4.606800
 20
1.882320
  0
VERTEX
  8
0
  6
CONTINUOUS
 10
5.358320
 20
1.882760
  0
VERTEX
  8
0
  6
CONTINUOUS
 10
5.379440
 20
1.874400
  0
VERTEX
  8
0
  6
CONTINUOUS
 10
4.627920
 20
1.873960
  0
VERTEX
  8
0
  6
CONTINUOUS
 10
4.606800
 20
1.882320
  0
SEQEND
  8
0
  0
SOLID
  8
0
 62
    15
 10
4.627920
 20
1.873960
 11
5.379440
 21
1.874400
 12
4.651240
 22
1.866480
 13
5.402760
 23
1.866480
  0
POLYLINE
  8
0
  6
CONTINUOUS
 66
     1
 40
0.000000
 41
0.000000
  0
VERTEX
  8
0
  6
CONTINUOUS
 10
4.627920
 20
1.873960
  0
VERTEX
  8
0
  6
CONTINUOUS
 10
5.379440
 20
1.874400
  0
VERTEX
  8
0
  6
CONTINUOUS
 10
5.402760
 20
1.866480
  0
VERTEX
  8
0
  6
CONTINUOUS
 10
4.651240
 20
1.866480
  0
VERTEX
  8
0
  6
CONTINUOUS
 10
4.627920
 20
1.873960
  0
SEQEND
  8
0
  0
SOLID
  8
0
 62
    15
 10
4.651240
 20
1.866480
 11
5.402760
 21
1.866480
 12
4.651240
 22
1.750320
 13
5.402760
 23
1.750760
  0
POLYLINE
  8
0
  6
CONTINUOUS
 66
     1
 40
0.000000
 41
0.000000
  0
VERTEX
  8
0
  6
CONTINUOUS
 10
4.651240
 20
1.866480
  0
VERTEX
  8
0
  6
CONTINUOUS
 10
5.402760
 20
1.866480
  0
VERTEX
  8
0
  6
CONTINUOUS
 10
5.402760
 20
1.750760
  0
VERTEX
  8
0
  6
CONTINUOUS
 10
4.651240
 20
1.750320
  0
VERTEX
  8
0
  6
CONTINUOUS
 10
4.651240
 20
1.866480
  0
SEQEND
  8
0
  0
SOLID
  8
0
 62
    15
 10
4.651240
 20
1.864280
 11
5.403200
 21
1.864280
 12
4.651240
 22
1.750320
 13
5.403200
 23
1.750320
  0
POLYLINE
  8
0
  6
CONTINUOUS
 66
     1
 40
0.000000
 41
0.000000
  0
VERTEX
  8
0
  6
CONTINUOUS
 10
4.651240
 20
1.864280
  0
VERTEX
  8
0
  6
CONTINUOUS
 10
5.403200
 20
1.864280
  0
VERTEX
  8
0
  6
CONTINUOUS
 10
5.403200
 20
1.750320
  0
VERTEX
  8
0
  6
CONTINUOUS
 10
4.651240
 20
1.750320
  0
VERTEX
  8
0
  6
CONTINUOUS
 10
4.651240
 20
1.864280
  0
SEQEND
  8
0
  0
SOLID
  8
0
 62
    15
 10
4.651240
 20
1.750320
 11
5.403200
 21
1.750320
 12
4.677200
 22
1.749000
 13
5.428720
 23
1.749000
  0
POLYLINE
  8
0
  6
CONTINUOUS
 66
     1
 40
0.000000
 41
0.000000
  0
VERTEX
  8
0
  6
CONTINUOUS
 10
4.651240
 20
1.750320
  0
VERTEX
  8
0
  6
CONTINUOUS
 10
5.403200
 20
1.750320
  0
VERTEX
  8
0
  6
CONTINUOUS
 10
5.428720
 20
1.749000
  0
VERTEX
  8
0
  6
CONTINUOUS
 10
4.677200
 20
1.749000
  0
VERTEX
  8
0
  6
CONTINUOUS
 10
4.651240
 20
1.750320
  0
SEQEND
  8
0
  0
SOLID
  8
0
 62
    15
 10
4.677200
 20
1.749000
 11
5.428720
 21
1.749000
 12
4.702280
 22
1.745040
 13
5.453800
 23
1.745040
  0
POLYLINE
  8
0
  6
CONTINUOUS
 66
     1
 40
0.000000
 41
0.000000
  0
VERTEX
  8
0
  6
CONTINUOUS
 10
4.677200
 20
1.749000
  0
VERTEX
  8
0
  6
CONTINUOUS
 10
5.428720
 20
1.749000
  0
VERTEX
  8
0
  6
CONTINUOUS
 10
5.453800
 20
1.745040
  0
VERTEX
  8
0
  6
CONTINUOUS
 10
4.702280
 20
1.745040
  0
VERTEX
  8
0
  6
CONTINUOUS
 10
4.677200
 20
1.749000
  0
SEQEND
  8
0
  0
SOLID
  8
0
 62
    15
 10
4.702280
 20
1.745040
 11
5.453800
 21
1.745040
 12
4.726480
 22
1.738880
 13
5.478000
 23
1.738880
  0
POLYLINE
  8
0
  6
CONTINUOUS
 66
     1
 40
0.000000
 41
0.000000
  0
VERTEX
  8
0
  6
CONTINUOUS
 10
4.702280
 20
1.745040
  0
VERTEX
  8
0
  6
CONTINUOUS
 10
5.453800
 20
1.745040
  0
VERTEX
  8
0
  6
CONTINUOUS
 10
5.478000
 20
1.738880
  0
VERTEX
  8
0
  6
CONTINUOUS
 10
4.726480
 20
1.738880
  0
VERTEX
  8
0
  6
CONTINUOUS
 10
4.702280
 20
1.745040
  0
SEQEND
  8
0
  0
SOLID
  8
0
 62
    15
 10
4.726480
 20
1.738880
 11
5.478000
 21
1.738880
 12
4.749360
 22
1.730520
 13
5.501320
 23
1.730520
  0
POLYLINE
  8
0
  6
CONTINUOUS
 66
     1
 40
0.000000
 41
0.000000
  0
VERTEX
  8
0
  6
CONTINUOUS
 10
4.726480
 20
1.738880
  0
VERTEX
  8
0
  6
CONTINUOUS
 10
5.478000
 20
1.738880
  0
VERTEX
  8
0
  6
CONTINUOUS
 10
5.501320
 20
1.730520
  0
VERTEX
  8
0
  6
CONTINUOUS
 10
4.749360
 20
1.730520
  0
VERTEX
  8
0
  6
CONTINUOUS
 10
4.726480
 20
1.738880
  0
SEQEND
  8
0
  0
SOLID
  8
0
 62
    15
 10
4.749360
 20
1.730520
 11
5.501320
 21
1.730520
 12
4.792480
 22
1.707200
 13
5.544000
 23
1.707200
  0
POLYLINE
  8
0
  6
CONTINUOUS
 66
     1
 40
0.000000
 41
0.000000
  0
VERTEX
  8
0
  6
CONTINUOUS
 10
4.749360
 20
1.730520
  0
VERTEX
  8
0
  6
CONTINUOUS
 10
5.501320
 20
1.730520
  0
VERTEX
  8
0
  6
CONTINUOUS
 10
5.544000
 20
1.707200
  0
VERTEX
  8
0
  6
CONTINUOUS
 10
4.792480
 20
1.707200
  0
VERTEX
  8
0
  6
CONTINUOUS
 10
4.749360
 20
1.730520
  0
SEQEND
  8
0
  0
SOLID
  8
0
 62
    15
 10
4.792480
 20
1.707200
 11
5.544000
 21
1.707200
 12
4.829440
 22
1.676400
 13
5.581400
 23
1.676400
  0
POLYLINE
  8
0
  6
CONTINUOUS
 66
     1
 40
0.000000
 41
0.000000
  0
VERTEX
  8
0
  6
CONTINUOUS
 10
4.792480
 20
1.707200
  0
VERTEX
  8
0
  6
CONTINUOUS
 10
5.544000
 20
1.707200
  0
VERTEX
  8
0
  6
CONTINUOUS
 10
5.581400
 20
1.676400
  0
VERTEX
  8
0
  6
CONTINUOUS
 10
4.829440
 20
1.676400
  0
VERTEX
  8
0
  6
CONTINUOUS
 10
4.792480
 20
1.707200
  0
SEQEND
  8
0
  0
SOLID
  8
0
 62
    15
 10
4.829440
 20
1.676400
 11
5.581400
 21
1.676400
 12
4.860240
 22
1.639000
 13
5.612200
 23
1.639000
  0
POLYLINE
  8
0
  6
CONTINUOUS
 66
     1
 40
0.000000
 41
0.000000
  0
VERTEX
  8
0
  6
CONTINUOUS
 10
4.829440
 20
1.676400
  0
VERTEX
  8
0
  6
CONTINUOUS
 10
5.581400
 20
1.676400
  0
VERTEX
  8
0
  6
CONTINUOUS
 10
5.612200
 20
1.639000
  0
VERTEX
  8
0
  6
CONTINUOUS
 10
4.860240
 20
1.639000
  0
VERTEX
  8
0
  6
CONTINUOUS
 10
4.829440
 20
1.676400
  0
SEQEND
  8
0
  0
SOLID
  8
0
 62
    15
 10
4.860240
 20
1.639000
 11
5.612200
 21
1.639000
 12
4.883560
 22
1.596320
 13
5.635520
 23
1.596320
  0
POLYLINE
  8
0
  6
CONTINUOUS
 66
     1
 40
0.000000
 41
0.000000
  0
VERTEX
  8
0
  6
CONTINUOUS
 10
4.860240
 20
1.639000
  0
VERTEX
  8
0
  6
CONTINUOUS
 10
5.612200
 20
1.639000
  0
VERTEX
  8
0
  6
CONTINUOUS
 10
5.635520
 20
1.596320
  0
VERTEX
  8
0
  6
CONTINUOUS
 10
4.883560
 20
1.596320
  0
VERTEX
  8
0
  6
CONTINUOUS
 10
4.860240
 20
1.639000
  0
SEQEND
  8
0
  0
SOLID
  8
0
 62
    15
 10
4.883560
 20
1.596320
 11
5.635520
 21
1.596320
 12
4.892360
 22
1.573000
 13
5.643880
 23
1.573000
  0
POLYLINE
  8
0
  6
CONTINUOUS
 66
     1
 40
0.000000
 41
0.000000
  0
VERTEX
  8
0
  6
CONTINUOUS
 10
4.883560
 20
1.596320
  0
VERTEX
  8
0
  6
CONTINUOUS
 10
5.635520
 20
1.596320
  0
VERTEX
  8
0
  6
CONTINUOUS
 10
5.643880
 20
1.573000
  0
VERTEX
  8
0
  6
CONTINUOUS
 10
4.892360
 20
1.573000
  0
VERTEX
  8
0
  6
CONTINUOUS
 10
4.883560
 20
1.596320
  0
SEQEND
  8
0
  0
SOLID
  8
0
 62
    15
 10
4.892360
 20
1.573000
 11
5.643880
 21
1.573000
 12
4.898520
 22
1.548800
 13
5.650040
 23
1.548800
  0
POLYLINE
  8
0
  6
CONTINUOUS
 66
     1
 40
0.000000
 41
0.000000
  0
VERTEX
  8
0
  6
CONTINUOUS
 10
4.892360
 20
1.573000
  0
VERTEX
  8
0
  6
CONTINUOUS
 10
5.643880
 20
1.573000
  0
VERTEX
  8
0
  6
CONTINUOUS
 10
5.650040
 20
1.548800
  0
VERTEX
  8
0
  6
CONTINUOUS
 10
4.898520
 20
1.548800
  0
VERTEX
  8
0
  6
CONTINUOUS
 10
4.892360
 20
1.573000
  0
SEQEND
  8
0
  0
SOLID
  8
0
 62
    15
 10
4.898520
 20
1.548800
 11
5.650040
 21
1.548800
 12
4.902040
 22
1.523720
 13
5.654000
 23
1.524160
  0
POLYLINE
  8
0
  6
CONTINUOUS
 66
     1
 40
0.000000
 41
0.000000
  0
VERTEX
  8
0
  6
CONTINUOUS
 10
4.898520
 20
1.548800
  0
VERTEX
  8
0
  6
CONTINUOUS
 10
5.650040
 20
1.548800
  0
VERTEX
  8
0
  6
CONTINUOUS
 10
5.654000
 20
1.524160
  0
VERTEX
  8
0
  6
CONTINUOUS
 10
4.902040
 20
1.523720
  0
VERTEX
  8
0
  6
CONTINUOUS
 10
4.898520
 20
1.548800
  0
SEQEND
  8
0
  0
SOLID
  8
0
 62
     7
 10
4.493280
 20
2.061840
 11
5.245240
 21
2.061840
 12
4.495480
 22
2.030160
 13
5.247000
 23
2.030160
  0
POLYLINE
  8
0
  6
CONTINUOUS
 66
     1
 40
0.000000
 41
0.000000
  0
VERTEX
  8
0
  6
CONTINUOUS
 10
4.493280
 20
2.061840
  0
VERTEX
  8
0
  6
CONTINUOUS
 10
5.245240
 20
2.061840
  0
VERTEX
  8
0
  6
CONTINUOUS
 10
5.247000
 20
2.030160
  0
VERTEX
  8
0
  6
CONTINUOUS
 10
4.495480
 20
2.030160
  0
VERTEX
  8
0
  6
CONTINUOUS
 10
4.493280
 20
2.061840
  0
SEQEND
  8
0
  0
SOLID
  8
0
 62
    15
 10
4.903360
 20
1.498200
 11
5.655320
 21
1.498200
 12
4.902040
 22
1.472240
 13
5.654000
 23
1.472240
  0
POLYLINE
  8
0
  6
CONTINUOUS
 66
     1
 40
0.000000
 41
0.000000
  0
VERTEX
  8
0
  6
CONTINUOUS
 10
4.903360
 20
1.498200
  0
VERTEX
  8
0
  6
CONTINUOUS
 10
5.655320
 20
1.498200
  0
VERTEX
  8
0
  6
CONTINUOUS
 10
5.654000
 20
1.472240
  0
VERTEX
  8
0
  6
CONTINUOUS
 10
4.902040
 20
1.472240
  0
VERTEX
  8
0
  6
CONTINUOUS
 10
4.903360
 20
1.498200
  0
SEQEND
  8
0
  0
SOLID
  8
0
 62
    15
 10
4.902040
 20
1.472240
 11
5.654000
 21
1.472240
 12
4.898520
 22
1.447160
 13
5.650040
 23
1.447600
  0
POLYLINE
  8
0
  6
CONTINUOUS
 66
     1
 40
0.000000
 41
0.000000
  0
VERTEX
  8
0
  6
CONTINUOUS
 10
4.902040
 20
1.472240
  0
VERTEX
  8
0
  6
CONTINUOUS
 10
5.654000
 20
1.472240
  0
VERTEX
  8
0
  6
CONTINUOUS
 10
5.650040
 20
1.447600
  0
VERTEX
  8
0
  6
CONTINUOUS
 10
4.898520
 20
1.447160
  0
VERTEX
  8
0
  6
CONTINUOUS
 10
4.902040
 20
1.472240
  0
SEQEND
  8
0
  0
SOLID
  8
0
 62
    15
 10
4.898520
 20
1.447160
 11
5.650040
 21
1.447600
 12
4.892360
 22
1.422960
 13
5.643880
 23
1.423400
  0
POLYLINE
  8
0
  6
CONTINUOUS
 66
     1
 40
0.000000
 41
0.000000
  0
VERTEX
  8
0
  6
CONTINUOUS
 10
4.898520
 20
1.447160
  0
VERTEX
  8
0
  6
CONTINUOUS
 10
5.650040
 20
1.447600
  0
VERTEX
  8
0
  6
CONTINUOUS
 10
5.643880
 20
1.423400
  0
VERTEX
  8
0
  6
CONTINUOUS
 10
4.892360
 20
1.422960
  0
VERTEX
  8
0
  6
CONTINUOUS
 10
4.898520
 20
1.447160
  0
SEQEND
  8
0
  0
SOLID
  8
0
 62
    15
 10
4.892360
 20
1.422960
 11
5.643880
 21
1.423400
 12
4.883560
 22
1.400080
 13
5.635520
 23
1.400080
  0
POLYLINE
  8
0
  6
CONTINUOUS
 66
     1
 40
0.000000
 41
0.000000
  0
VERTEX
  8
0
  6
CONTINUOUS
 10
4.892360
 20
1.422960
  0
VERTEX
  8
0
  6
CONTINUOUS
 10
5.643880
 20
1.423400
  0
VERTEX
  8
0
  6
CONTINUOUS
 10
5.635520
 20
1.400080
  0
VERTEX
  8
0
  6
CONTINUOUS
 10
4.883560
 20
1.400080
  0
VERTEX
  8
0
  6
CONTINUOUS
 10
4.892360
 20
1.422960
  0
SEQEND
  8
0
  0
SOLID
  8
0
 62
    15
 10
4.883560
 20
1.400080
 11
5.635520
 21
1.400080
 12
4.860240
 22
1.356960
 13
5.612200
 23
1.357400
  0
POLYLINE
  8
0
  6
CONTINUOUS
 66
     1
 40
0.000000
 41
0.000000
  0
VERTEX
  8
0
  6
CONTINUOUS
 10
4.883560
 20
1.400080
  0
VERTEX
  8
0
  6
CONTINUOUS
 10
5.635520
 20
1.400080
  0
VERTEX
  8
0
  6
CONTINUOUS
 10
5.612200
 20
1.357400
  0
VERTEX
  8
0
  6
CONTINUOUS
 10
4.860240
 20
1.356960
  0
VERTEX
  8
0
  6
CONTINUOUS
 10
4.883560
 20
1.400080
  0
SEQEND
  8
0
  0
SOLID
  8
0
 62
    15
 10
4.860240
 20
1.356960
 11
5.612200
 21
1.357400
 12
4.829440
 22
1.319560
 13
5.581400
 23
1.320000
  0
POLYLINE
  8
0
  6
CONTINUOUS
 66
     1
 40
0.000000
 41
0.000000
  0
VERTEX
  8
0
  6
CONTINUOUS
 10
4.860240
 20
1.356960
  0
VERTEX
  8
0
  6
CONTINUOUS
 10
5.612200
 20
1.357400
  0
VERTEX
  8
0
  6
CONTINUOUS
 10
5.581400
 20
1.320000
  0
VERTEX
  8
0
  6
CONTINUOUS
 10
4.829440
 20
1.319560
  0
VERTEX
  8
0
  6
CONTINUOUS
 10
4.860240
 20
1.356960
  0
SEQEND
  8
0
  0
SOLID
  8
0
 62
    15
 10
4.829440
 20
1.319560
 11
5.581400
 21
1.320000
 12
4.792480
 22
1.288760
 13
5.544000
 23
1.289200
  0
POLYLINE
  8
0
  6
CONTINUOUS
 66
     1
 40
0.000000
 41
0.000000
  0
VERTEX
  8
0
  6
CONTINUOUS
 10
4.829440
 20
1.319560
  0
VERTEX
  8
0
  6
CONTINUOUS
 10
5.581400
 20
1.320000
  0
VERTEX
  8
0
  6
CONTINUOUS
 10
5.544000
 20
1.289200
  0
VERTEX
  8
0
  6
CONTINUOUS
 10
4.792480
 20
1.288760
  0
VERTEX
  8
0
  6
CONTINUOUS
 10
4.829440
 20
1.319560
  0
SEQEND
  8
0
  0
SOLID
  8
0
 62
    15
 10
4.792480
 20
1.288760
 11
5.544000
 21
1.289200
 12
4.749360
 22
1.265880
 13
5.501320
 23
1.265880
  0
POLYLINE
  8
0
  6
CONTINUOUS
 66
     1
 40
0.000000
 41
0.000000
  0
VERTEX
  8
0
  6
CONTINUOUS
 10
4.792480
 20
1.288760
  0
VERTEX
  8
0
  6
CONTINUOUS
 10
5.544000
 20
1.289200
  0
VERTEX
  8
0
  6
CONTINUOUS
 10
5.501320
 20
1.265880
  0
VERTEX
  8
0
  6
CONTINUOUS
 10
4.749360
 20
1.265880
  0
VERTEX
  8
0
  6
CONTINUOUS
 10
4.792480
 20
1.288760
  0
SEQEND
  8
0
  0
SOLID
  8
0
 62
    15
 10
4.749360
 20
1.265880
 11
5.501320
 21
1.265880
 12
4.726480
 22
1.257080
 13
5.478000
 23
1.257520
  0
POLYLINE
  8
0
  6
CONTINUOUS
 66
     1
 40
0.000000
 41
0.000000
  0
VERTEX
  8
0
  6
CONTINUOUS
 10
4.749360
 20
1.265880
  0
VERTEX
  8
0
  6
CONTINUOUS
 10
5.501320
 20
1.265880
  0
VERTEX
  8
0
  6
CONTINUOUS
 10
5.478000
 20
1.257520
  0
VERTEX
  8
0
  6
CONTINUOUS
 10
4.726480
 20
1.257080
  0
VERTEX
  8
0
  6
CONTINUOUS
 10
4.749360
 20
1.265880
  0
SEQEND
  8
0
  0
SOLID
  8
0
 62
    15
 10
4.726480
 20
1.257080
 11
5.478000
 21
1.257520
 12
4.702280
 22
1.250920
 13
5.453800
 23
1.251360
  0
POLYLINE
  8
0
  6
CONTINUOUS
 66
     1
 40
0.000000
 41
0.000000
  0
VERTEX
  8
0
  6
CONTINUOUS
 10
4.726480
 20
1.257080
  0
VERTEX
  8
0
  6
CONTINUOUS
 10
5.478000
 20
1.257520
  0
VERTEX
  8
0
  6
CONTINUOUS
 10
5.453800
 20
1.251360
  0
VERTEX
  8
0
  6
CONTINUOUS
 10
4.702280
 20
1.250920
  0
VERTEX
  8
0
  6
CONTINUOUS
 10
4.726480
 20
1.257080
  0
SEQEND
  8
0
  0
SOLID
  8
0
 62
    15
 10
4.702280
 20
1.250920
 11
5.453800
 21
1.251360
 12
4.677200
 22
1.247400
 13
5.428720
 23
1.247400
  0
POLYLINE
  8
0
  6
CONTINUOUS
 66
     1
 40
0.000000
 41
0.000000
  0
VERTEX
  8
0
  6
CONTINUOUS
 10
4.702280
 20
1.250920
  0
VERTEX
  8
0
  6
CONTINUOUS
 10
5.453800
 20
1.251360
  0
VERTEX
  8
0
  6
CONTINUOUS
 10
5.428720
 20
1.247400
  0
VERTEX
  8
0
  6
CONTINUOUS
 10
4.677200
 20
1.247400
  0
VERTEX
  8
0
  6
CONTINUOUS
 10
4.702280
 20
1.250920
  0
SEQEND
  8
0
  0
SOLID
  8
0
 62
    15
 10
4.677200
 20
1.247400
 11
5.428720
 21
1.247400
 12
4.651240
 22
1.246080
 13
5.403200
 23
1.246080
  0
POLYLINE
  8
0
  6
CONTINUOUS
 66
     1
 40
0.000000
 41
0.000000
  0
VERTEX
  8
0
  6
CONTINUOUS
 10
4.677200
 20
1.247400
  0
VERTEX
  8
0
  6
CONTINUOUS
 10
5.428720
 20
1.247400
  0
VERTEX
  8
0
  6
CONTINUOUS
 10
5.403200
 20
1.246080
  0
VERTEX
  8
0
  6
CONTINUOUS
 10
4.651240
 20
1.246080
  0
VERTEX
  8
0
  6
CONTINUOUS
 10
4.677200
 20
1.247400
  0
SEQEND
  8
0
  0
SOLID
  8
0
 62
    15
 10
4.651240
 20
1.246080
 11
5.403200
 21
1.246080
 12
4.651240
 22
1.129920
 13
5.403200
 23
1.129920
  0
POLYLINE
  8
0
  6
CONTINUOUS
 66
     1
 40
0.000000
 41
0.000000
  0
VERTEX
  8
0
  6
CONTINUOUS
 10
4.651240
 20
1.246080
  0
VERTEX
  8
0
  6
CONTINUOUS
 10
5.403200
 20
1.246080
  0
VERTEX
  8
0
  6
CONTINUOUS
 10
5.403200
 20
1.129920
  0
VERTEX
  8
0
  6
CONTINUOUS
 10
4.651240
 20
1.129920
  0
VERTEX
  8
0
  6
CONTINUOUS
 10
4.651240
 20
1.246080
  0
SEQEND
  8
0
  0
SOLID
  8
0
 62
    15
 10
4.651240
 20
1.129920
 11
5.403200
 21
1.129920
 12
4.627920
 22
1.122440
 13
5.379880
 23
1.122440
  0
POLYLINE
  8
0
  6
CONTINUOUS
 66
     1
 40
0.000000
 41
0.000000
  0
VERTEX
  8
0
  6
CONTINUOUS
 10
4.651240
 20
1.129920
  0
VERTEX
  8
0
  6
CONTINUOUS
 10
5.403200
 20
1.129920
  0
VERTEX
  8
0
  6
CONTINUOUS
 10
5.379880
 20
1.122440
  0
VERTEX
  8
0
  6
CONTINUOUS
 10
4.627920
 20
1.122440
  0
VERTEX
  8
0
  6
CONTINUOUS
 10
4.651240
 20
1.129920
  0
SEQEND
  8
0
  0
SOLID
  8
0
 62
    15
 10
4.627920
 20
1.122440
 11
5.379880
 21
1.122440
 12
4.606800
 22
1.114080
 13
5.358760
 23
1.114080
  0
POLYLINE
  8
0
  6
CONTINUOUS
 66
     1
 40
0.000000
 41
0.000000
  0
VERTEX
  8
0
  6
CONTINUOUS
 10
4.627920
 20
1.122440
  0
VERTEX
  8
0
  6
CONTINUOUS
 10
5.379880
 20
1.122440
  0
VERTEX
  8
0
  6
CONTINUOUS
 10
5.358760
 20
1.114080
  0
VERTEX
  8
0
  6
CONTINUOUS
 10
4.606800
 20
1.114080
  0
VERTEX
  8
0
  6
CONTINUOUS
 10
4.627920
 20
1.122440
  0
SEQEND
  8
0
  0
SOLID
  8
0
 62
    15
 10
4.606800
 20
1.114080
 11
5.358760
 21
1.114080
 12
4.571600
 22
1.095160
 13
5.323560
 23
1.095160
  0
POLYLINE
  8
0
  6
CONTINUOUS
 66
     1
 40
0.000000
 41
0.000000
  0
VERTEX
  8
0
  6
CONTINUOUS
 10
4.606800
 20
1.114080
  0
VERTEX
  8
0
  6
CONTINUOUS
 10
5.358760
 20
1.114080
  0
VERTEX
  8
0
  6
CONTINUOUS
 10
5.323560
 20
1.095160
  0
VERTEX
  8
0
  6
CONTINUOUS
 10
4.571600
 20
1.095160
  0
VERTEX
  8
0
  6
CONTINUOUS
 10
4.606800
 20
1.114080
  0
SEQEND
  8
0
  0
SOLID
  8
0
 62
    15
 10
4.571600
 20
1.095160
 11
5.323560
 21
1.095160
 12
4.544320
 22
1.073600
 13
5.296280
 23
1.074040
  0
POLYLINE
  8
0
  6
CONTINUOUS
 66
     1
 40
0.000000
 41
0.000000
  0
VERTEX
  8
0
  6
CONTINUOUS
 10
4.571600
 20
1.095160
  0
VERTEX
  8
0
  6
CONTINUOUS
 10
5.323560
 20
1.095160
  0
VERTEX
  8
0
  6
CONTINUOUS
 10
5.296280
 20
1.074040
  0
VERTEX
  8
0
  6
CONTINUOUS
 10
4.544320
 20
1.073600
  0
VERTEX
  8
0
  6
CONTINUOUS
 10
4.571600
 20
1.095160
  0
SEQEND
  8
0
  0
SOLID
  8
0
 62
    15
 10
4.544320
 20
1.073600
 11
5.296280
 21
1.074040
 12
4.524080
 22
1.050280
 13
5.276040
 23
1.050280
  0
POLYLINE
  8
0
  6
CONTINUOUS
 66
     1
 40
0.000000
 41
0.000000
  0
VERTEX
  8
0
  6
CONTINUOUS
 10
4.544320
 20
1.073600
  0
VERTEX
  8
0
  6
CONTINUOUS
 10
5.296280
 20
1.074040
  0
VERTEX
  8
0
  6
CONTINUOUS
 10
5.276040
 20
1.050280
  0
VERTEX
  8
0
  6
CONTINUOUS
 10
4.524080
 20
1.050280
  0
VERTEX
  8
0
  6
CONTINUOUS
 10
4.544320
 20
1.073600
  0
SEQEND
  8
0
  0
SOLID
  8
0
 62
    15
 10
4.524080
 20
1.050280
 11
5.276040
 21
1.050280
 12
4.510000
 22
1.024320
 13
5.261520
 23
1.024320
  0
POLYLINE
  8
0
  6
CONTINUOUS
 66
     1
 40
0.000000
 41
0.000000
  0
VERTEX
  8
0
  6
CONTINUOUS
 10
4.524080
 20
1.050280
  0
VERTEX
  8
0
  6
CONTINUOUS
 10
5.276040
 20
1.050280
  0
VERTEX
  8
0
  6
CONTINUOUS
 10
5.261520
 20
1.024320
  0
VERTEX
  8
0
  6
CONTINUOUS
 10
4.510000
 20
1.024320
  0
VERTEX
  8
0
  6
CONTINUOUS
 10
4.524080
 20
1.050280
  0
SEQEND
  8
0
  0
SOLID
  8
0
 62
    15
 10
4.510000
 20
1.024320
 11
5.261520
 21
1.024320
 12
4.500760
 22
0.996160
 13
5.252280
 23
0.996160
  0
POLYLINE
  8
0
  6
CONTINUOUS
 66
     1
 40
0.000000
 41
0.000000
  0
VERTEX
  8
0
  6
CONTINUOUS
 10
4.510000
 20
1.024320
  0
VERTEX
  8
0
  6
CONTINUOUS
 10
5.261520
 20
1.024320
  0
VERTEX
  8
0
  6
CONTINUOUS
 10
5.252280
 20
0.996160
  0
VERTEX
  8
0
  6
CONTINUOUS
 10
4.500760
 20
0.996160
  0
VERTEX
  8
0
  6
CONTINUOUS
 10
4.510000
 20
1.024320
  0
SEQEND
  8
0
  0
SOLID
  8
0
 62
    15
 10
4.500760
 20
0.996160
 11
5.252280
 21
0.996160
 12
4.495920
 22
0.966240
 13
5.247440
 23
0.966240
  0
POLYLINE
  8
0
  6
CONTINUOUS
 66
     1
 40
0.000000
 41
0.000000
  0
VERTEX
  8
0
  6
CONTINUOUS
 10
4.500760
 20
0.996160
  0
VERTEX
  8
0
  6
CONTINUOUS
 10
5.252280
 20
0.996160
  0
VERTEX
  8
0
  6
CONTINUOUS
 10
5.247440
 20
0.966240
  0
VERTEX
  8
0
  6
CONTINUOUS
 10
4.495920
 20
0.966240
  0
VERTEX
  8
0
  6
CONTINUOUS
 10
4.500760
 20
0.996160
  0
SEQEND
  8
0
  0
SOLID
  8
0
 62
     7
 10
4.495920
 20
0.966240
 11
5.247440
 21
0.966240
 12
4.493720
 22
0.934560
 13
5.245240
 23
0.934560
  0
POLYLINE
  8
0
  6
CONTINUOUS
 66
     1
 40
0.000000
 41
0.000000
  0
VERTEX
  8
0
  6
CONTINUOUS
 10
4.495920
 20
0.966240
  0
VERTEX
  8
0
  6
CONTINUOUS
 10
5.247440
 20
0.966240
  0
VERTEX
  8
0
  6
CONTINUOUS
 10
5.245240
 20
0.934560
  0
VERTEX
  8
0
  6
CONTINUOUS
 10
4.493720
 20
0.934560
  0
VERTEX
  8
0
  6
CONTINUOUS
 10
4.495920
 20
0.966240
  0
SEQEND
  8
0
  0
POLYLINE
  8
0
  6
CONTINUOUS
 66
     1
 40
0.000000
 41
0.000000
  0
VERTEX
  8
0
  6
CONTINUOUS
 10
4.381520
 20
2.061840
  0
VERTEX
  8
0
  6
CONTINUOUS
 10
4.493280
 20
2.061840
  0
VERTEX
  8
0
  6
CONTINUOUS
 10
4.495480
 20
2.030160
  0
VERTEX
  8
0
  6
CONTINUOUS
 10
4.500760
 20
2.000240
  0
VERTEX
  8
0
  6
CONTINUOUS
 10
4.510000
 20
1.972080
  0
VERTEX
  8
0
  6
CONTINUOUS
 10
4.524080
 20
1.946120
  0
VERTEX
  8
0
  6
CONTINUOUS
 10
4.544320
 20
1.922360
  0
VERTEX
  8
0
  6
CONTINUOUS
 10
4.571600
 20
1.901240
  0
VERTEX
  8
0
  6
CONTINUOUS
 10
4.606800
 20
1.882320
  0
VERTEX
  8
0
  6
CONTINUOUS
 10
4.627920
 20
1.873960
  0
VERTEX
  8
0
  6
CONTINUOUS
 10
4.651240
 20
1.866480
  0
VERTEX
  8
0
  6
CONTINUOUS
 10
4.651240
 20
1.750320
  0
VERTEX
  8
0
  6
CONTINUOUS
 10
4.651240
 20
1.864280
  0
VERTEX
  8
0
  6
CONTINUOUS
 10
4.651240
 20
1.750320
  0
VERTEX
  8
0
  6
CONTINUOUS
 10
4.677200
 20
1.749000
  0
VERTEX
  8
0
  6
CONTINUOUS
 10
4.702280
 20
1.745040
  0
VERTEX
  8
0
  6
CONTINUOUS
 10
4.726480
 20
1.738880
  0
VERTEX
  8
0
  6
CONTINUOUS
 10
4.749360
 20
1.730520
  0
VERTEX
  8
0
  6
CONTINUOUS
 10
4.792480
 20
1.707200
  0
VERTEX
  8
0
  6
CONTINUOUS
 10
4.829440
 20
1.676400
  0
VERTEX
  8
0
  6
CONTINUOUS
 10
4.860240
 20
1.639000
  0
VERTEX
  8
0
  6
CONTINUOUS
 10
4.883560
 20
1.596320
  0
VERTEX
  8
0
  6
CONTINUOUS
 10
4.892360
 20
1.573000
  0
VERTEX
  8
0
  6
CONTINUOUS
 10
4.898520
 20
1.548800
  0
VERTEX
  8
0
  6
CONTINUOUS
 10
4.902040
 20
1.523720
  0
VERTEX
  8
0
  6
CONTINUOUS
 10
4.903360
 20
1.498200
  0
VERTEX
  8
0
  6
CONTINUOUS
 10
4.902040
 20
1.472240
  0
VERTEX
  8
0
  6
CONTINUOUS
 10
4.898520
 20
1.447160
  0
VERTEX
  8
0
  6
CONTINUOUS
 10
4.892360
 20
1.422960
  0
VERTEX
  8
0
  6
CONTINUOUS
 10
4.883560
 20
1.400080
  0
VERTEX
  8
0
  6
CONTINUOUS
 10
4.860240
 20
1.356960
  0
VERTEX
  8
0
  6
CONTINUOUS
 10
4.829440
 20
1.319560
  0
VERTEX
  8
0
  6
CONTINUOUS
 10
4.792480
 20
1.288760
  0
VERTEX
  8
0
  6
CONTINUOUS
 10
4.749360
 20
1.265880
  0
VERTEX
  8
0
  6
CONTINUOUS
 10
4.726480
 20
1.257080
  0
VERTEX
  8
0
  6
CONTINUOUS
 10
4.702280
 20
1.250920
  0
VERTEX
  8
0
  6
CONTINUOUS
 10
4.677200
 20
1.247400
  0
VERTEX
  8
0
  6
CONTINUOUS
 10
4.651240
 20
1.246080
  0
VERTEX
  8
0
  6
CONTINUOUS
 10
4.651240
 20
1.129920
  0
VERTEX
  8
0
  6
CONTINUOUS
 10
4.627920
 20
1.122440
  0
VERTEX
  8
0
  6
CONTINUOUS
 10
4.606800
 20
1.114080
  0
VERTEX
  8
0
  6
CONTINUOUS
 10
4.571600
 20
1.095160
  0
VERTEX
  8
0
  6
CONTINUOUS
 10
4.544320
 20
1.073600
  0
VERTEX
  8
0
  6
CONTINUOUS
 10
4.524080
 20
1.050280
  0
VERTEX
  8
0
  6
CONTINUOUS
 10
4.510000
 20
1.024320
  0
VERTEX
  8
0
  6
CONTINUOUS
 10
4.500760
 20
0.996160
  0
VERTEX
  8
0
  6
CONTINUOUS
 10
4.495920
 20
0.966240
  0
VERTEX
  8
0
  6
CONTINUOUS
 10
4.493720
 20
0.934560
  0
VERTEX
  8
0
  6
CONTINUOUS
 10
4.381520
 20
0.934560
  0
VERTEX
  8
0
  6
CONTINUOUS
 10
4.381520
 20
2.061840
  0
SEQEND
  8
0
  0
TEXT
  8
0
 10
4.722520
 20
0.722480
 40
0.138151
  1
BA  899
 41
1.000000
  7
SN0
 71
     0
 72
     5
 11
5.312579
 21
0.722480
  0
TEXT
  8
0
 10
4.566320
 20
0.530640
 40
0.138151
  1
1/2" x 1-1/8"
 41
1.000000
  7
SN0
 71
     0
 72
     5
 11
5.466631
 21
0.530640
  0
ENDSEC
  0
EOF
