  0
SECTION
  2
HEADER
  9
$ACADVER
  1
AC1006
  9
$EXTMIN
 10
0.516120
 20
0.370920
  9
$EXTMAX
 10
8.129000
 20
9.403680
  9
$LTSCALE
 40
0.044000
  9
$PDMODE
 70
    35
  9
$PDSIZE
 40
0.035200
  0
ENDSEC
  0
SECTION
  2
TABLES
  0
TABLE
  2
LTYPE
 70
     9
  0
LTYPE
  2
CONTINUOUS
 70
    64
  3
Solid line
 72
    65
 73
     0
 40
0.000000
  0
LTYPE
  2
DASHED
 70
    64
  3
__ __ __ __ __ __ __ __ __ __ __ __ __ __ __
 72
    65
 73
     2
 40
0.000330
 49
0.000220
 49
-0.000110
  0
LTYPE
  2
HIDDEN
 70
    64
  3
 _ _ _ _ _ _ _ _ _ _ _ _ _ _ _ _ _ _ _ _ _ _
 72
    65
 73
     2
 40
0.000165
 49
0.000110
 49
-0.000055
  0
LTYPE
  2
CENTER
 70
    64
  3
____ _ ____ _ ____ _ ____ _ ____ _ ____ _ ____
 72
    65
 73
     4
 40
0.000880
 49
0.000550
 49
-0.000110
 49
0.000110
 49
-0.000110
  0
LTYPE
  2
PHANTOM
 70
    64
  3
_____ _ _ _____ _ _ _____ _ _ _____ _ _ ____
 72
    65
 73
     6
 40
0.001100
 49
0.000550
 49
-0.000110
 49
0.000110
 49
-0.000110
 49
0.000110
 49
-0.000110
  0
LTYPE
  2
DOT
 70
    64
  3
...............................................
 72
    65
 73
     2
 40
0.000110
 49
0.000000
 49
-0.000110
  0
LTYPE
  2
DASHDOT
 70
    64
  3
__ . __ . __ . __ . __ . __ . __ . __ . __ . __
 72
    65
 73
     4
 40
0.000440
 49
0.000220
 49
-0.000110
 49
0.000000
 49
-0.000110
  0
LTYPE
  2
BORDER
 70
    64
  3
__ __ . __ __ . __ __ . __ __ . __ __ . __ __
 72
    65
 73
     6
 40
0.000770
 49
0.000220
 49
-0.000110
 49
0.000220
 49
-0.000110
 49
0.000000
 49
-0.000110
  0
LTYPE
  2
DIVIDE
 70
    64
  3
__ . . __ . . __ . . __ . . __ . . __ . . __
 72
    65
 73
     6
 40
0.000550
 49
0.000220
 49
-0.000110
 49
0.000000
 49
-0.000110
 49
0.000000
 49
-0.000110
  0
LTYPE
  2
DOTDOT
 70
    64
  3
 . .  . .  . .  . .  . .  . . 
 72
    65
 73
     5
 40
0.000242
 49
-0.000110
 49
0.000000
 49
-0.000110
 49
0.000000
 49
-0.000110
  0
ENDTAB
  0
TABLE
  2
STYLE
 70
     2
  0
STYLE
 70
     0
  2
SN0
 40
0.000000
 41
0.000440
 50
0.000000
 71
     0
 42
0.000000
  3
ROMAND
  0
STYLE
 70
    68
  2
SV0
 40
0.000000
 41
0.000440
 50
0.000000
 71
     0
 42
0.000000
  3
ROMAND
  0
ENDTAB
  0
TABLE
  2
LAYER
 70
     3
  0
LAYER
  2
FOREGROUND
 70
    64
 62
     7
  6
CONTINUOUS
  0
LAYER
  2
BACKGROUND
 70
    65
 62
    -7
  6
CONTINUOUS
  0
LAYER
  2
0
 70
    64
 62
     7
  6
CONTINUOUS
  0
ENDTAB
  0
ENDSEC
  0
SECTION
  2
ENTITIES
  0
POLYLINE
  8
FOREGROUND
  6
CONTINUOUS
 66
     1
 40
0.000000
 41
0.000000
  0
VERTEX
  8
FOREGROUND
  6
CONTINUOUS
 10
0.000000
 20
9.774600
  0
VERTEX
  8
FOREGROUND
  6
CONTINUOUS
 10
8.499920
 20
9.774600
  0
VERTEX
  8
FOREGROUND
  6
CONTINUOUS
 10
8.499920
 20
-1.225400
  0
VERTEX
  8
FOREGROUND
  6
CONTINUOUS
 10
0.000000
 20
-1.225400
  0
VERTEX
  8
FOREGROUND
  6
CONTINUOUS
 10
0.000000
 20
9.774600
  0
SEQEND
  8
0
  0
POLYLINE
  8
FOREGROUND
  6
CONTINUOUS
 66
     1
 40
0.000000
 41
0.000000
  0
VERTEX
  8
FOREGROUND
  6
CONTINUOUS
 10
0.000000
 20
9.774600
  0
VERTEX
  8
FOREGROUND
  6
CONTINUOUS
 10
8.499920
 20
9.774600
  0
VERTEX
  8
FOREGROUND
  6
CONTINUOUS
 10
8.499920
 20
-1.225400
  0
VERTEX
  8
FOREGROUND
  6
CONTINUOUS
 10
0.000000
 20
-1.225400
  0
VERTEX
  8
FOREGROUND
  6
CONTINUOUS
 10
0.000000
 20
9.774600
  0
SEQEND
  8
0
  0
POLYLINE
  8
0
  6
CONTINUOUS
 66
     1
 40
0.014080
 41
0.014080
  0
VERTEX
  8
0
  6
CONTINUOUS
 10
6.939240
 20
6.834080
  0
VERTEX
  8
0
  6
CONTINUOUS
 10
8.047160
 20
6.827040
  0
VERTEX
  8
0
  6
CONTINUOUS
 10
8.121520
 20
5.323560
  0
VERTEX
  8
0
  6
CONTINUOUS
 10
8.065200
 20
5.320480
  0
VERTEX
  8
0
  6
CONTINUOUS
 10
8.011080
 20
5.312560
  0
VERTEX
  8
0
  6
CONTINUOUS
 10
7.958720
 20
5.300680
  0
VERTEX
  8
0
  6
CONTINUOUS
 10
7.909000
 20
5.284400
  0
VERTEX
  8
0
  6
CONTINUOUS
 10
7.860600
 20
5.264160
  0
VERTEX
  8
0
  6
CONTINUOUS
 10
7.814840
 20
5.239960
  0
VERTEX
  8
0
  6
CONTINUOUS
 10
7.770840
 20
5.212680
  0
VERTEX
  8
0
  6
CONTINUOUS
 10
7.728600
 20
5.181440
  0
VERTEX
  8
0
  6
CONTINUOUS
 10
7.688120
 20
5.147560
  0
VERTEX
  8
0
  6
CONTINUOUS
 10
7.631360
 20
5.090800
  0
VERTEX
  8
0
  6
CONTINUOUS
 10
7.578560
 20
5.027440
  0
VERTEX
  8
0
  6
CONTINUOUS
 10
7.529720
 20
4.959240
  0
VERTEX
  8
0
  6
CONTINUOUS
 10
7.484840
 20
4.885320
  0
VERTEX
  8
0
  6
CONTINUOUS
 10
7.457120
 20
4.834280
  0
VERTEX
  8
0
  6
CONTINUOUS
 10
7.406520
 20
4.726480
  0
VERTEX
  8
0
  6
CONTINUOUS
 10
7.362080
 20
4.612960
  0
VERTEX
  8
0
  6
CONTINUOUS
 10
7.342280
 20
4.554880
  0
VERTEX
  8
0
  6
CONTINUOUS
 10
7.307080
 20
4.436520
  0
VERTEX
  8
0
  6
CONTINUOUS
 10
7.291680
 20
4.376240
  0
VERTEX
  8
0
  6
CONTINUOUS
 10
7.265280
 20
4.256120
  0
VERTEX
  8
0
  6
CONTINUOUS
 10
7.253840
 20
4.195840
  0
VERTEX
  8
0
  6
CONTINUOUS
 10
7.235360
 20
4.077040
  0
VERTEX
  8
0
  6
CONTINUOUS
 10
7.221720
 20
3.960880
  0
VERTEX
  8
0
  6
CONTINUOUS
 10
7.205440
 20
3.791040
  0
VERTEX
  8
0
  6
CONTINUOUS
 10
7.188280
 20
3.676200
  0
VERTEX
  8
0
  6
CONTINUOUS
 10
7.165840
 20
3.560040
  0
VERTEX
  8
0
  6
CONTINUOUS
 10
7.153080
 20
3.501520
  0
VERTEX
  8
0
  6
CONTINUOUS
 10
7.123600
 20
3.384920
  0
VERTEX
  8
0
  6
CONTINUOUS
 10
7.089720
 20
3.268320
  0
VERTEX
  8
0
  6
CONTINUOUS
 10
7.052320
 20
3.152600
  0
VERTEX
  8
0
  6
CONTINUOUS
 10
7.010960
 20
3.038640
  0
VERTEX
  8
0
  6
CONTINUOUS
 10
6.966520
 20
2.926880
  0
VERTEX
  8
0
  6
CONTINUOUS
 10
6.919000
 20
2.817760
  0
VERTEX
  8
0
  6
CONTINUOUS
 10
6.869280
 20
2.712600
  0
VERTEX
  8
0
  6
CONTINUOUS
 10
6.816920
 20
2.610960
  0
VERTEX
  8
0
  6
CONTINUOUS
 10
6.762800
 20
2.514600
  0
VERTEX
  8
0
  6
CONTINUOUS
 10
6.707360
 20
2.423520
  0
VERTEX
  8
0
  6
CONTINUOUS
 10
6.650600
 20
2.338160
  0
VERTEX
  8
0
  6
CONTINUOUS
 10
6.592960
 20
2.259400
  0
VERTEX
  8
0
  6
CONTINUOUS
 10
6.517720
 20
2.168320
  0
VERTEX
  8
0
  6
CONTINUOUS
 10
6.466240
 20
2.112880
  0
VERTEX
  8
0
  6
CONTINUOUS
 10
6.389240
 20
2.036760
  0
VERTEX
  8
0
  6
CONTINUOUS
 10
6.303000
 20
1.960640
  0
VERTEX
  8
0
  6
CONTINUOUS
 10
6.207520
 20
1.884520
  0
VERTEX
  8
0
  6
CONTINUOUS
 10
6.103240
 20
1.810160
  0
VERTEX
  8
0
  6
CONTINUOUS
 10
5.990600
 20
1.738440
  0
VERTEX
  8
0
  6
CONTINUOUS
 10
5.930760
 20
1.703680
  0
VERTEX
  8
0
  6
CONTINUOUS
 10
5.869160
 20
1.670240
  0
VERTEX
  8
0
  6
CONTINUOUS
 10
5.805360
 20
1.637680
  0
VERTEX
  8
0
  6
CONTINUOUS
 10
5.671160
 20
1.576960
  0
VERTEX
  8
0
  6
CONTINUOUS
 10
5.565120
 20
1.535600
  0
VERTEX
  8
0
  6
CONTINUOUS
 10
5.455120
 20
1.498200
  0
VERTEX
  8
0
  6
CONTINUOUS
 10
5.340280
 20
1.465200
  0
VERTEX
  8
0
  6
CONTINUOUS
 10
5.221040
 20
1.436600
  0
VERTEX
  8
0
  6
CONTINUOUS
 10
5.097400
 20
1.413720
  0
VERTEX
  8
0
  6
CONTINUOUS
 10
4.969800
 20
1.396560
  0
VERTEX
  8
0
  6
CONTINUOUS
 10
4.882240
 20
1.388640
  0
VERTEX
  8
0
  6
CONTINUOUS
 10
4.747600
 20
1.382040
  0
VERTEX
  8
0
  6
CONTINUOUS
 10
4.655640
 20
1.381600
  0
VERTEX
  8
0
  6
CONTINUOUS
 10
4.561920
 20
1.384240
  0
VERTEX
  8
0
  6
CONTINUOUS
 10
4.514400
 20
1.386880
  0
VERTEX
  8
0
  6
CONTINUOUS
 10
0.817520
 20
1.414160
  0
VERTEX
  8
0
  6
CONTINUOUS
 10
0.524040
 20
6.877200
  0
VERTEX
  8
0
  6
CONTINUOUS
 10
1.438360
 20
6.871920
  0
VERTEX
  8
0
  6
CONTINUOUS
 10
1.439240
 20
6.801080
  0
VERTEX
  8
0
  6
CONTINUOUS
 10
1.441880
 20
6.730680
  0
VERTEX
  8
0
  6
CONTINUOUS
 10
1.446280
 20
6.660280
  0
VERTEX
  8
0
  6
CONTINUOUS
 10
1.460800
 20
6.521680
  0
VERTEX
  8
0
  6
CONTINUOUS
 10
1.470480
 20
6.453480
  0
VERTEX
  8
0
  6
CONTINUOUS
 10
1.481920
 20
6.385280
  0
VERTEX
  8
0
  6
CONTINUOUS
 10
1.509640
 20
6.251080
  0
VERTEX
  8
0
  6
CONTINUOUS
 10
1.543960
 20
6.119080
  0
VERTEX
  8
0
  6
CONTINUOUS
 10
1.584880
 20
5.990160
  0
VERTEX
  8
0
  6
CONTINUOUS
 10
1.607320
 20
5.926360
  0
VERTEX
  8
0
  6
CONTINUOUS
 10
1.657480
 20
5.801400
  0
VERTEX
  8
0
  6
CONTINUOUS
 10
1.713360
 20
5.679520
  0
VERTEX
  8
0
  6
CONTINUOUS
 10
1.774520
 20
5.561160
  0
VERTEX
  8
0
  6
CONTINUOUS
 10
1.841400
 20
5.445880
  0
VERTEX
  8
0
  6
CONTINUOUS
 10
1.914000
 20
5.334120
  0
VERTEX
  8
0
  6
CONTINUOUS
 10
1.951840
 20
5.279560
  0
VERTEX
  8
0
  6
CONTINUOUS
 10
2.031920
 20
5.173520
  0
VERTEX
  8
0
  6
CONTINUOUS
 10
2.116840
 20
5.071440
  0
VERTEX
  8
0
  6
CONTINUOUS
 10
2.206600
 20
4.973760
  0
VERTEX
  8
0
  6
CONTINUOUS
 10
2.300760
 20
4.880480
  0
VERTEX
  8
0
  6
CONTINUOUS
 10
2.349600
 20
4.835160
  0
VERTEX
  8
0
  6
CONTINUOUS
 10
2.449920
 20
4.748920
  0
VERTEX
  8
0
  6
CONTINUOUS
 10
2.501840
 20
4.707120
  0
VERTEX
  8
0
  6
CONTINUOUS
 10
2.608760
 20
4.627920
  0
VERTEX
  8
0
  6
CONTINUOUS
 10
2.719200
 20
4.553560
  0
VERTEX
  8
0
  6
CONTINUOUS
 10
2.833160
 20
4.484480
  0
VERTEX
  8
0
  6
CONTINUOUS
 10
2.950640
 20
4.421120
  0
VERTEX
  8
0
  6
CONTINUOUS
 10
3.010920
 20
4.391200
  0
VERTEX
  8
0
  6
CONTINUOUS
 10
3.133240
 20
4.335760
  0
VERTEX
  8
0
  6
CONTINUOUS
 10
3.258640
 20
4.286480
  0
VERTEX
  8
0
  6
CONTINUOUS
 10
3.322440
 20
4.264040
  0
VERTEX
  8
0
  6
CONTINUOUS
 10
3.452240
 20
4.224000
  0
VERTEX
  8
0
  6
CONTINUOUS
 10
3.517800
 20
4.205960
  0
VERTEX
  8
0
  6
CONTINUOUS
 10
3.651120
 20
4.175160
  0
VERTEX
  8
0
  6
CONTINUOUS
 10
3.787080
 20
4.150960
  0
VERTEX
  8
0
  6
CONTINUOUS
 10
3.855720
 20
4.141280
  0
VERTEX
  8
0
  6
CONTINUOUS
 10
3.924800
 20
4.133360
  0
VERTEX
  8
0
  6
CONTINUOUS
 10
3.994320
 20
4.127200
  0
VERTEX
  8
0
  6
CONTINUOUS
 10
4.064720
 20
4.122800
  0
VERTEX
  8
0
  6
CONTINUOUS
 10
4.135120
 20
4.120160
  0
VERTEX
  8
0
  6
CONTINUOUS
 10
4.205960
 20
4.119280
  0
VERTEX
  8
0
  6
CONTINUOUS
 10
4.276800
 20
4.120160
  0
VERTEX
  8
0
  6
CONTINUOUS
 10
4.347200
 20
4.122800
  0
VERTEX
  8
0
  6
CONTINUOUS
 10
4.486680
 20
4.132920
  0
VERTEX
  8
0
  6
CONTINUOUS
 10
4.623960
 20
4.150080
  0
VERTEX
  8
0
  6
CONTINUOUS
 10
4.691720
 20
4.161080
  0
VERTEX
  8
0
  6
CONTINUOUS
 10
4.825480
 20
4.187920
  0
VERTEX
  8
0
  6
CONTINUOUS
 10
4.956600
 20
4.220920
  0
VERTEX
  8
0
  6
CONTINUOUS
 10
5.085080
 20
4.260080
  0
VERTEX
  8
0
  6
CONTINUOUS
 10
5.210920
 20
4.304960
  0
VERTEX
  8
0
  6
CONTINUOUS
 10
5.333680
 20
4.356000
  0
VERTEX
  8
0
  6
CONTINUOUS
 10
5.452920
 20
4.412760
  0
VERTEX
  8
0
  6
CONTINUOUS
 10
5.569080
 20
4.474800
  0
VERTEX
  8
0
  6
CONTINUOUS
 10
5.681280
 20
4.542120
  0
VERTEX
  8
0
  6
CONTINUOUS
 10
5.790400
 20
4.614720
  0
VERTEX
  8
0
  6
CONTINUOUS
 10
5.895120
 20
4.692600
  0
VERTEX
  8
0
  6
CONTINUOUS
 10
5.995880
 20
4.774880
  0
VERTEX
  8
0
  6
CONTINUOUS
 10
6.092680
 20
4.862000
  0
VERTEX
  8
0
  6
CONTINUOUS
 10
6.185080
 20
4.953520
  0
VERTEX
  8
0
  6
CONTINUOUS
 10
6.273080
 20
5.049440
  0
VERTEX
  8
0
  6
CONTINUOUS
 10
6.356240
 20
5.149760
  0
VERTEX
  8
0
  6
CONTINUOUS
 10
6.434120
 20
5.254040
  0
VERTEX
  8
0
  6
CONTINUOUS
 10
6.507600
 20
5.362280
  0
VERTEX
  8
0
  6
CONTINUOUS
 10
6.542360
 20
5.417720
  0
VERTEX
  8
0
  6
CONTINUOUS
 10
6.607480
 20
5.531240
  0
VERTEX
  8
0
  6
CONTINUOUS
 10
6.667320
 20
5.648720
  0
VERTEX
  8
0
  6
CONTINUOUS
 10
6.695480
 20
5.708560
  0
VERTEX
  8
0
  6
CONTINUOUS
 10
6.746960
 20
5.830440
  0
VERTEX
  8
0
  6
CONTINUOUS
 10
6.792280
 20
5.955840
  0
VERTEX
  8
0
  6
CONTINUOUS
 10
6.812960
 20
6.019640
  0
VERTEX
  8
0
  6
CONTINUOUS
 10
6.849480
 20
6.149000
  0
VERTEX
  8
0
  6
CONTINUOUS
 10
6.879840
 20
6.281000
  0
VERTEX
  8
0
  6
CONTINUOUS
 10
6.892600
 20
6.348320
  0
VERTEX
  8
0
  6
CONTINUOUS
 10
6.913280
 20
6.484280
  0
VERTEX
  8
0
  6
CONTINUOUS
 10
6.926920
 20
6.622440
  0
VERTEX
  8
0
  6
CONTINUOUS
 10
6.931320
 20
6.692400
  0
VERTEX
  8
0
  6
CONTINUOUS
 10
6.933960
 20
6.762800
  0
VERTEX
  8
0
  6
CONTINUOUS
 10
6.934840
 20
6.833640
  0
VERTEX
  8
0
  6
CONTINUOUS
 10
6.939240
 20
6.834080
  0
SEQEND
  8
0
  0
TEXT
  8
0
 10
7.562720
 20
9.251440
 40
0.138282
  1
utility
 41
1.000000
  7
SN0
 71
     0
 72
     5
 11
7.942999
 21
9.251440
  0
TEXT
  8
0
 10
7.613320
 20
9.059600
 40
0.138282
  1
895
 41
1.000000
  7
SN0
 71
     0
 72
     5
 11
7.891077
 21
9.059600
  0
SOLID
  8
0
 62
    15
 10
2.027520
 20
1.689160
 11
1.620520
 21
2.313960
 12
2.291080
 22
1.757800
 13
1.884080
 23
2.382600
  0
POLYLINE
  8
0
  6
CONTINUOUS
 66
     1
 40
0.000000
 41
0.000000
  0
VERTEX
  8
0
  6
CONTINUOUS
 10
2.027520
 20
1.689160
  0
VERTEX
  8
0
  6
CONTINUOUS
 10
1.620520
 20
2.313960
  0
VERTEX
  8
0
  6
CONTINUOUS
 10
1.884080
 20
2.382600
  0
VERTEX
  8
0
  6
CONTINUOUS
 10
2.291080
 20
1.757800
  0
VERTEX
  8
0
  6
CONTINUOUS
 10
2.027520
 20
1.689160
  0
SEQEND
  8
0
  0
SOLID
  8
0
 62
    15
 10
1.518880
 20
8.241640
 11
1.111880
 21
8.866440
 12
3.021920
 22
8.316000
 13
2.615360
 23
8.940800
  0
POLYLINE
  8
0
  6
CONTINUOUS
 66
     1
 40
0.000000
 41
0.000000
  0
VERTEX
  8
0
  6
CONTINUOUS
 10
1.518880
 20
8.241640
  0
VERTEX
  8
0
  6
CONTINUOUS
 10
1.111880
 20
8.866440
  0
VERTEX
  8
0
  6
CONTINUOUS
 10
2.615360
 20
8.940800
  0
VERTEX
  8
0
  6
CONTINUOUS
 10
3.021920
 20
8.316000
  0
VERTEX
  8
0
  6
CONTINUOUS
 10
1.518880
 20
8.241640
  0
SEQEND
  8
0
  0
SOLID
  8
0
 62
    15
 10
3.164040
 20
7.922640
 11
2.757040
 21
8.547440
 12
3.318040
 22
7.772600
 13
2.911040
 23
8.397400
  0
POLYLINE
  8
0
  6
CONTINUOUS
 66
     1
 40
0.000000
 41
0.000000
  0
VERTEX
  8
0
  6
CONTINUOUS
 10
3.164040
 20
7.922640
  0
VERTEX
  8
0
  6
CONTINUOUS
 10
2.757040
 20
8.547440
  0
VERTEX
  8
0
  6
CONTINUOUS
 10
2.911040
 20
8.397400
  0
VERTEX
  8
0
  6
CONTINUOUS
 10
3.318040
 20
7.772600
  0
VERTEX
  8
0
  6
CONTINUOUS
 10
3.164040
 20
7.922640
  0
SEQEND
  8
0
  0
SOLID
  8
0
 62
    15
 10
3.318040
 20
7.772600
 11
2.911040
 21
8.397400
 12
3.511640
 22
7.651160
 13
3.104640
 23
8.275960
  0
POLYLINE
  8
0
  6
CONTINUOUS
 66
     1
 40
0.000000
 41
0.000000
  0
VERTEX
  8
0
  6
CONTINUOUS
 10
3.318040
 20
7.772600
  0
VERTEX
  8
0
  6
CONTINUOUS
 10
2.911040
 20
8.397400
  0
VERTEX
  8
0
  6
CONTINUOUS
 10
3.104640
 20
8.275960
  0
VERTEX
  8
0
  6
CONTINUOUS
 10
3.511640
 20
7.651160
  0
VERTEX
  8
0
  6
CONTINUOUS
 10
3.318040
 20
7.772600
  0
SEQEND
  8
0
  0
SOLID
  8
0
 62
    15
 10
3.511640
 20
7.651160
 11
3.104640
 21
8.275960
 12
3.732520
 22
7.556120
 13
3.325960
 23
8.180920
  0
POLYLINE
  8
0
  6
CONTINUOUS
 66
     1
 40
0.000000
 41
0.000000
  0
VERTEX
  8
0
  6
CONTINUOUS
 10
3.511640
 20
7.651160
  0
VERTEX
  8
0
  6
CONTINUOUS
 10
3.104640
 20
8.275960
  0
VERTEX
  8
0
  6
CONTINUOUS
 10
3.325960
 20
8.180920
  0
VERTEX
  8
0
  6
CONTINUOUS
 10
3.732520
 20
7.556120
  0
VERTEX
  8
0
  6
CONTINUOUS
 10
3.511640
 20
7.651160
  0
SEQEND
  8
0
  0
SOLID
  8
0
 62
    15
 10
3.732520
 20
7.556120
 11
3.325960
 21
8.180920
 12
3.969240
 22
7.485720
 13
3.562240
 23
8.110520
  0
POLYLINE
  8
0
  6
CONTINUOUS
 66
     1
 40
0.000000
 41
0.000000
  0
VERTEX
  8
0
  6
CONTINUOUS
 10
3.732520
 20
7.556120
  0
VERTEX
  8
0
  6
CONTINUOUS
 10
3.325960
 20
8.180920
  0
VERTEX
  8
0
  6
CONTINUOUS
 10
3.562240
 20
8.110520
  0
VERTEX
  8
0
  6
CONTINUOUS
 10
3.969240
 20
7.485720
  0
VERTEX
  8
0
  6
CONTINUOUS
 10
3.732520
 20
7.556120
  0
SEQEND
  8
0
  0
SOLID
  8
0
 62
    15
 10
3.969240
 20
7.485720
 11
3.562240
 21
8.110520
 12
4.441360
 22
7.410920
 13
4.034360
 23
8.035720
  0
POLYLINE
  8
0
  6
CONTINUOUS
 66
     1
 40
0.000000
 41
0.000000
  0
VERTEX
  8
0
  6
CONTINUOUS
 10
3.969240
 20
7.485720
  0
VERTEX
  8
0
  6
CONTINUOUS
 10
3.562240
 20
8.110520
  0
VERTEX
  8
0
  6
CONTINUOUS
 10
4.034360
 20
8.035720
  0
VERTEX
  8
0
  6
CONTINUOUS
 10
4.441360
 20
7.410920
  0
VERTEX
  8
0
  6
CONTINUOUS
 10
3.969240
 20
7.485720
  0
SEQEND
  8
0
  0
SOLID
  8
0
 62
    15
 10
4.441360
 20
7.410920
 11
4.034360
 21
8.035720
 12
4.902040
 22
7.333040
 13
4.495480
 23
7.957840
  0
POLYLINE
  8
0
  6
CONTINUOUS
 66
     1
 40
0.000000
 41
0.000000
  0
VERTEX
  8
0
  6
CONTINUOUS
 10
4.441360
 20
7.410920
  0
VERTEX
  8
0
  6
CONTINUOUS
 10
4.034360
 20
8.035720
  0
VERTEX
  8
0
  6
CONTINUOUS
 10
4.495480
 20
7.957840
  0
VERTEX
  8
0
  6
CONTINUOUS
 10
4.902040
 20
7.333040
  0
VERTEX
  8
0
  6
CONTINUOUS
 10
4.441360
 20
7.410920
  0
SEQEND
  8
0
  0
SOLID
  8
0
 62
    15
 10
4.902040
 20
7.333040
 11
4.495480
 21
7.957840
 12
5.363160
 22
7.183440
 13
4.956160
 23
7.808240
  0
POLYLINE
  8
0
  6
CONTINUOUS
 66
     1
 40
0.000000
 41
0.000000
  0
VERTEX
  8
0
  6
CONTINUOUS
 10
4.902040
 20
7.333040
  0
VERTEX
  8
0
  6
CONTINUOUS
 10
4.495480
 20
7.957840
  0
VERTEX
  8
0
  6
CONTINUOUS
 10
4.956160
 20
7.808240
  0
VERTEX
  8
0
  6
CONTINUOUS
 10
5.363160
 20
7.183440
  0
VERTEX
  8
0
  6
CONTINUOUS
 10
4.902040
 20
7.333040
  0
SEQEND
  8
0
  0
SOLID
  8
0
 62
    15
 10
5.363160
 20
7.183440
 11
4.956160
 21
7.808240
 12
5.783360
 22
6.984120
 13
5.376800
 23
7.608920
  0
POLYLINE
  8
0
  6
CONTINUOUS
 66
     1
 40
0.000000
 41
0.000000
  0
VERTEX
  8
0
  6
CONTINUOUS
 10
5.363160
 20
7.183440
  0
VERTEX
  8
0
  6
CONTINUOUS
 10
4.956160
 20
7.808240
  0
VERTEX
  8
0
  6
CONTINUOUS
 10
5.376800
 20
7.608920
  0
VERTEX
  8
0
  6
CONTINUOUS
 10
5.783360
 20
6.984120
  0
VERTEX
  8
0
  6
CONTINUOUS
 10
5.363160
 20
7.183440
  0
SEQEND
  8
0
  0
SOLID
  8
0
 62
    15
 10
5.783360
 20
6.984120
 11
5.376800
 21
7.608920
 12
6.123040
 22
6.757960
 13
5.716040
 23
7.382760
  0
POLYLINE
  8
0
  6
CONTINUOUS
 66
     1
 40
0.000000
 41
0.000000
  0
VERTEX
  8
0
  6
CONTINUOUS
 10
5.783360
 20
6.984120
  0
VERTEX
  8
0
  6
CONTINUOUS
 10
5.376800
 20
7.608920
  0
VERTEX
  8
0
  6
CONTINUOUS
 10
5.716040
 20
7.382760
  0
VERTEX
  8
0
  6
CONTINUOUS
 10
6.123040
 20
6.757960
  0
VERTEX
  8
0
  6
CONTINUOUS
 10
5.783360
 20
6.984120
  0
SEQEND
  8
0
  0
SOLID
  8
0
 62
    15
 10
6.123040
 20
6.757960
 11
5.716040
 21
7.382760
 12
6.270880
 22
6.622880
 13
5.863880
 23
7.247680
  0
POLYLINE
  8
0
  6
CONTINUOUS
 66
     1
 40
0.000000
 41
0.000000
  0
VERTEX
  8
0
  6
CONTINUOUS
 10
6.123040
 20
6.757960
  0
VERTEX
  8
0
  6
CONTINUOUS
 10
5.716040
 20
7.382760
  0
VERTEX
  8
0
  6
CONTINUOUS
 10
5.863880
 20
7.247680
  0
VERTEX
  8
0
  6
CONTINUOUS
 10
6.270880
 20
6.622880
  0
VERTEX
  8
0
  6
CONTINUOUS
 10
6.123040
 20
6.757960
  0
SEQEND
  8
0
  0
SOLID
  8
0
 62
    15
 10
6.270880
 20
6.622880
 11
5.863880
 21
7.247680
 12
6.423120
 22
6.450400
 13
6.016120
 23
7.075200
  0
POLYLINE
  8
0
  6
CONTINUOUS
 66
     1
 40
0.000000
 41
0.000000
  0
VERTEX
  8
0
  6
CONTINUOUS
 10
6.270880
 20
6.622880
  0
VERTEX
  8
0
  6
CONTINUOUS
 10
5.863880
 20
7.247680
  0
VERTEX
  8
0
  6
CONTINUOUS
 10
6.016120
 20
7.075200
  0
VERTEX
  8
0
  6
CONTINUOUS
 10
6.423120
 20
6.450400
  0
VERTEX
  8
0
  6
CONTINUOUS
 10
6.270880
 20
6.622880
  0
SEQEND
  8
0
  0
SOLID
  8
0
 62
    15
 10
6.423120
 20
6.450400
 11
6.016120
 21
7.075200
 12
6.571400
 22
6.241840
 13
6.164840
 23
6.866640
  0
POLYLINE
  8
0
  6
CONTINUOUS
 66
     1
 40
0.000000
 41
0.000000
  0
VERTEX
  8
0
  6
CONTINUOUS
 10
6.423120
 20
6.450400
  0
VERTEX
  8
0
  6
CONTINUOUS
 10
6.016120
 20
7.075200
  0
VERTEX
  8
0
  6
CONTINUOUS
 10
6.164840
 20
6.866640
  0
VERTEX
  8
0
  6
CONTINUOUS
 10
6.571400
 20
6.241840
  0
VERTEX
  8
0
  6
CONTINUOUS
 10
6.423120
 20
6.450400
  0
SEQEND
  8
0
  0
SOLID
  8
0
 62
    15
 10
1.468720
 20
0.718080
 11
1.061720
 21
1.342880
 12
1.473560
 22
1.630640
 13
1.066560
 23
2.255440
  0
POLYLINE
  8
0
  6
CONTINUOUS
 66
     1
 40
0.000000
 41
0.000000
  0
VERTEX
  8
0
  6
CONTINUOUS
 10
1.468720
 20
0.718080
  0
VERTEX
  8
0
  6
CONTINUOUS
 10
1.061720
 20
1.342880
  0
VERTEX
  8
0
  6
CONTINUOUS
 10
1.066560
 20
2.255440
  0
VERTEX
  8
0
  6
CONTINUOUS
 10
1.473560
 20
1.630640
  0
VERTEX
  8
0
  6
CONTINUOUS
 10
1.468720
 20
0.718080
  0
SEQEND
  8
0
  0
SOLID
  8
0
 62
    15
 10
1.473560
 20
1.630640
 11
1.066560
 21
2.255440
 12
1.473560
 22
1.632400
 13
1.066560
 23
2.257200
  0
POLYLINE
  8
0
  6
CONTINUOUS
 66
     1
 40
0.000000
 41
0.000000
  0
VERTEX
  8
0
  6
CONTINUOUS
 10
1.473560
 20
1.630640
  0
VERTEX
  8
0
  6
CONTINUOUS
 10
1.066560
 20
2.255440
  0
VERTEX
  8
0
  6
CONTINUOUS
 10
1.066560
 20
2.257200
  0
VERTEX
  8
0
  6
CONTINUOUS
 10
1.473560
 20
1.632400
  0
VERTEX
  8
0
  6
CONTINUOUS
 10
1.473560
 20
1.630640
  0
SEQEND
  8
0
  0
SOLID
  8
0
 62
    15
 10
1.473560
 20
1.632400
 11
1.066560
 21
2.257200
 12
1.754280
 22
1.646920
 13
1.347720
 23
2.271720
  0
POLYLINE
  8
0
  6
CONTINUOUS
 66
     1
 40
0.000000
 41
0.000000
  0
VERTEX
  8
0
  6
CONTINUOUS
 10
1.473560
 20
1.632400
  0
VERTEX
  8
0
  6
CONTINUOUS
 10
1.066560
 20
2.257200
  0
VERTEX
  8
0
  6
CONTINUOUS
 10
1.347720
 20
2.271720
  0
VERTEX
  8
0
  6
CONTINUOUS
 10
1.754280
 20
1.646920
  0
VERTEX
  8
0
  6
CONTINUOUS
 10
1.473560
 20
1.632400
  0
SEQEND
  8
0
  0
SOLID
  8
0
 62
    15
 10
1.754280
 20
1.646920
 11
1.347720
 21
2.271720
 12
2.027520
 22
1.689160
 13
1.620520
 23
2.313960
  0
POLYLINE
  8
0
  6
CONTINUOUS
 66
     1
 40
0.000000
 41
0.000000
  0
VERTEX
  8
0
  6
CONTINUOUS
 10
1.754280
 20
1.646920
  0
VERTEX
  8
0
  6
CONTINUOUS
 10
1.347720
 20
2.271720
  0
VERTEX
  8
0
  6
CONTINUOUS
 10
1.620520
 20
2.313960
  0
VERTEX
  8
0
  6
CONTINUOUS
 10
2.027520
 20
1.689160
  0
VERTEX
  8
0
  6
CONTINUOUS
 10
1.754280
 20
1.646920
  0
SEQEND
  8
0
  0
SOLID
  8
0
 62
    15
 10
1.511840
 20
7.133720
 11
1.104840
 21
7.758520
 12
1.518880
 22
8.241640
 13
1.111880
 23
8.866440
  0
POLYLINE
  8
0
  6
CONTINUOUS
 66
     1
 40
0.000000
 41
0.000000
  0
VERTEX
  8
0
  6
CONTINUOUS
 10
1.511840
 20
7.133720
  0
VERTEX
  8
0
  6
CONTINUOUS
 10
1.104840
 20
7.758520
  0
VERTEX
  8
0
  6
CONTINUOUS
 10
1.111880
 20
8.866440
  0
VERTEX
  8
0
  6
CONTINUOUS
 10
1.518880
 20
8.241640
  0
VERTEX
  8
0
  6
CONTINUOUS
 10
1.511840
 20
7.133720
  0
SEQEND
  8
0
  0
SOLID
  8
0
 62
    15
 10
2.291080
 20
1.757800
 11
1.884080
 21
2.382600
 12
2.543640
 22
1.851520
 13
2.137080
 23
2.476320
  0
POLYLINE
  8
0
  6
CONTINUOUS
 66
     1
 40
0.000000
 41
0.000000
  0
VERTEX
  8
0
  6
CONTINUOUS
 10
2.291080
 20
1.757800
  0
VERTEX
  8
0
  6
CONTINUOUS
 10
1.884080
 20
2.382600
  0
VERTEX
  8
0
  6
CONTINUOUS
 10
2.137080
 20
2.476320
  0
VERTEX
  8
0
  6
CONTINUOUS
 10
2.543640
 20
1.851520
  0
VERTEX
  8
0
  6
CONTINUOUS
 10
2.291080
 20
1.757800
  0
SEQEND
  8
0
  0
SOLID
  8
0
 62
    15
 10
2.543640
 20
1.851520
 11
2.137080
 21
2.476320
 12
2.784320
 22
1.968560
 13
2.377760
 23
2.593360
  0
POLYLINE
  8
0
  6
CONTINUOUS
 66
     1
 40
0.000000
 41
0.000000
  0
VERTEX
  8
0
  6
CONTINUOUS
 10
2.543640
 20
1.851520
  0
VERTEX
  8
0
  6
CONTINUOUS
 10
2.137080
 20
2.476320
  0
VERTEX
  8
0
  6
CONTINUOUS
 10
2.377760
 20
2.593360
  0
VERTEX
  8
0
  6
CONTINUOUS
 10
2.784320
 20
1.968560
  0
VERTEX
  8
0
  6
CONTINUOUS
 10
2.543640
 20
1.851520
  0
SEQEND
  8
0
  0
SOLID
  8
0
 62
    15
 10
2.784320
 20
1.968560
 11
2.377760
 21
2.593360
 12
3.011360
 22
2.108040
 13
2.604360
 23
2.732840
  0
POLYLINE
  8
0
  6
CONTINUOUS
 66
     1
 40
0.000000
 41
0.000000
  0
VERTEX
  8
0
  6
CONTINUOUS
 10
2.784320
 20
1.968560
  0
VERTEX
  8
0
  6
CONTINUOUS
 10
2.377760
 20
2.593360
  0
VERTEX
  8
0
  6
CONTINUOUS
 10
2.604360
 20
2.732840
  0
VERTEX
  8
0
  6
CONTINUOUS
 10
3.011360
 20
2.108040
  0
VERTEX
  8
0
  6
CONTINUOUS
 10
2.784320
 20
1.968560
  0
SEQEND
  8
0
  0
SOLID
  8
0
 62
    15
 10
3.011360
 20
2.108040
 11
2.604360
 21
2.732840
 12
3.418800
 22
2.447280
 13
3.012240
 23
3.072080
  0
POLYLINE
  8
0
  6
CONTINUOUS
 66
     1
 40
0.000000
 41
0.000000
  0
VERTEX
  8
0
  6
CONTINUOUS
 10
3.011360
 20
2.108040
  0
VERTEX
  8
0
  6
CONTINUOUS
 10
2.604360
 20
2.732840
  0
VERTEX
  8
0
  6
CONTINUOUS
 10
3.012240
 20
3.072080
  0
VERTEX
  8
0
  6
CONTINUOUS
 10
3.418800
 20
2.447280
  0
VERTEX
  8
0
  6
CONTINUOUS
 10
3.011360
 20
2.108040
  0
SEQEND
  8
0
  0
SOLID
  8
0
 62
    15
 10
3.418800
 20
2.447280
 11
3.012240
 21
3.072080
 12
3.755400
 22
2.857360
 13
3.348840
 23
3.482160
  0
POLYLINE
  8
0
  6
CONTINUOUS
 66
     1
 40
0.000000
 41
0.000000
  0
VERTEX
  8
0
  6
CONTINUOUS
 10
3.418800
 20
2.447280
  0
VERTEX
  8
0
  6
CONTINUOUS
 10
3.012240
 20
3.072080
  0
VERTEX
  8
0
  6
CONTINUOUS
 10
3.348840
 20
3.482160
  0
VERTEX
  8
0
  6
CONTINUOUS
 10
3.755400
 20
2.857360
  0
VERTEX
  8
0
  6
CONTINUOUS
 10
3.418800
 20
2.447280
  0
SEQEND
  8
0
  0
SOLID
  8
0
 62
    15
 10
3.755400
 20
2.857360
 11
3.348840
 21
3.482160
 12
3.893560
 22
3.085720
 13
3.486560
 23
3.710520
  0
POLYLINE
  8
0
  6
CONTINUOUS
 66
     1
 40
0.000000
 41
0.000000
  0
VERTEX
  8
0
  6
CONTINUOUS
 10
3.755400
 20
2.857360
  0
VERTEX
  8
0
  6
CONTINUOUS
 10
3.348840
 20
3.482160
  0
VERTEX
  8
0
  6
CONTINUOUS
 10
3.486560
 20
3.710520
  0
VERTEX
  8
0
  6
CONTINUOUS
 10
3.893560
 20
3.085720
  0
VERTEX
  8
0
  6
CONTINUOUS
 10
3.755400
 20
2.857360
  0
SEQEND
  8
0
  0
SOLID
  8
0
 62
    15
 10
3.893560
 20
3.085720
 11
3.486560
 21
3.710520
 12
4.009720
 22
3.327280
 13
3.602720
 23
3.952080
  0
POLYLINE
  8
0
  6
CONTINUOUS
 66
     1
 40
0.000000
 41
0.000000
  0
VERTEX
  8
0
  6
CONTINUOUS
 10
3.893560
 20
3.085720
  0
VERTEX
  8
0
  6
CONTINUOUS
 10
3.486560
 20
3.710520
  0
VERTEX
  8
0
  6
CONTINUOUS
 10
3.602720
 20
3.952080
  0
VERTEX
  8
0
  6
CONTINUOUS
 10
4.009720
 20
3.327280
  0
VERTEX
  8
0
  6
CONTINUOUS
 10
3.893560
 20
3.085720
  0
SEQEND
  8
0
  0
SOLID
  8
0
 62
    15
 10
4.009720
 20
3.327280
 11
3.602720
 21
3.952080
 12
4.102120
 22
3.581160
 13
3.695560
 23
4.205960
  0
POLYLINE
  8
0
  6
CONTINUOUS
 66
     1
 40
0.000000
 41
0.000000
  0
VERTEX
  8
0
  6
CONTINUOUS
 10
4.009720
 20
3.327280
  0
VERTEX
  8
0
  6
CONTINUOUS
 10
3.602720
 20
3.952080
  0
VERTEX
  8
0
  6
CONTINUOUS
 10
3.695560
 20
4.205960
  0
VERTEX
  8
0
  6
CONTINUOUS
 10
4.102120
 20
3.581160
  0
VERTEX
  8
0
  6
CONTINUOUS
 10
4.009720
 20
3.327280
  0
SEQEND
  8
0
  0
SOLID
  8
0
 62
    15
 10
4.102120
 20
3.581160
 11
3.695560
 21
4.205960
 12
4.170320
 22
3.845600
 13
3.763320
 23
4.470400
  0
POLYLINE
  8
0
  6
CONTINUOUS
 66
     1
 40
0.000000
 41
0.000000
  0
VERTEX
  8
0
  6
CONTINUOUS
 10
4.102120
 20
3.581160
  0
VERTEX
  8
0
  6
CONTINUOUS
 10
3.695560
 20
4.205960
  0
VERTEX
  8
0
  6
CONTINUOUS
 10
3.763320
 20
4.470400
  0
VERTEX
  8
0
  6
CONTINUOUS
 10
4.170320
 20
3.845600
  0
VERTEX
  8
0
  6
CONTINUOUS
 10
4.102120
 20
3.581160
  0
SEQEND
  8
0
  0
SOLID
  8
0
 62
    15
 10
4.170320
 20
3.845600
 11
3.763320
 21
4.470400
 12
4.212120
 22
4.118840
 13
3.805120
 23
4.743640
  0
POLYLINE
  8
0
  6
CONTINUOUS
 66
     1
 40
0.000000
 41
0.000000
  0
VERTEX
  8
0
  6
CONTINUOUS
 10
4.170320
 20
3.845600
  0
VERTEX
  8
0
  6
CONTINUOUS
 10
3.763320
 20
4.470400
  0
VERTEX
  8
0
  6
CONTINUOUS
 10
3.805120
 20
4.743640
  0
VERTEX
  8
0
  6
CONTINUOUS
 10
4.212120
 20
4.118840
  0
VERTEX
  8
0
  6
CONTINUOUS
 10
4.170320
 20
3.845600
  0
SEQEND
  8
0
  0
SOLID
  8
0
 62
    15
 10
4.212120
 20
4.118840
 11
3.805120
 21
4.743640
 12
4.226200
 22
4.400440
 13
3.819640
 23
5.025240
  0
POLYLINE
  8
0
  6
CONTINUOUS
 66
     1
 40
0.000000
 41
0.000000
  0
VERTEX
  8
0
  6
CONTINUOUS
 10
4.212120
 20
4.118840
  0
VERTEX
  8
0
  6
CONTINUOUS
 10
3.805120
 20
4.743640
  0
VERTEX
  8
0
  6
CONTINUOUS
 10
3.819640
 20
5.025240
  0
VERTEX
  8
0
  6
CONTINUOUS
 10
4.226200
 20
4.400440
  0
VERTEX
  8
0
  6
CONTINUOUS
 10
4.212120
 20
4.118840
  0
SEQEND
  8
0
  0
SOLID
  8
0
 62
    15
 10
4.226200
 20
4.400440
 11
3.819640
 21
5.025240
 12
4.212560
 22
4.680720
 13
3.805560
 23
5.305520
  0
POLYLINE
  8
0
  6
CONTINUOUS
 66
     1
 40
0.000000
 41
0.000000
  0
VERTEX
  8
0
  6
CONTINUOUS
 10
4.226200
 20
4.400440
  0
VERTEX
  8
0
  6
CONTINUOUS
 10
3.819640
 20
5.025240
  0
VERTEX
  8
0
  6
CONTINUOUS
 10
3.805560
 20
5.305520
  0
VERTEX
  8
0
  6
CONTINUOUS
 10
4.212560
 20
4.680720
  0
VERTEX
  8
0
  6
CONTINUOUS
 10
4.226200
 20
4.400440
  0
SEQEND
  8
0
  0
SOLID
  8
0
 62
    15
 10
4.212560
 20
4.680720
 11
3.805560
 21
5.305520
 12
4.172080
 22
4.953080
 13
3.765080
 23
5.577880
  0
POLYLINE
  8
0
  6
CONTINUOUS
 66
     1
 40
0.000000
 41
0.000000
  0
VERTEX
  8
0
  6
CONTINUOUS
 10
4.212560
 20
4.680720
  0
VERTEX
  8
0
  6
CONTINUOUS
 10
3.805560
 20
5.305520
  0
VERTEX
  8
0
  6
CONTINUOUS
 10
3.765080
 20
5.577880
  0
VERTEX
  8
0
  6
CONTINUOUS
 10
4.172080
 20
4.953080
  0
VERTEX
  8
0
  6
CONTINUOUS
 10
4.212560
 20
4.680720
  0
SEQEND
  8
0
  0
SOLID
  8
0
 62
    15
 10
4.172080
 20
4.953080
 11
3.765080
 21
5.577880
 12
4.105640
 22
5.215320
 13
3.699080
 23
5.840120
  0
POLYLINE
  8
0
  6
CONTINUOUS
 66
     1
 40
0.000000
 41
0.000000
  0
VERTEX
  8
0
  6
CONTINUOUS
 10
4.172080
 20
4.953080
  0
VERTEX
  8
0
  6
CONTINUOUS
 10
3.765080
 20
5.577880
  0
VERTEX
  8
0
  6
CONTINUOUS
 10
3.699080
 20
5.840120
  0
VERTEX
  8
0
  6
CONTINUOUS
 10
4.105640
 20
5.215320
  0
VERTEX
  8
0
  6
CONTINUOUS
 10
4.172080
 20
4.953080
  0
SEQEND
  8
0
  0
SOLID
  8
0
 62
    15
 10
4.105640
 20
5.215320
 11
3.699080
 21
5.840120
 12
4.015440
 22
5.466560
 13
3.608880
 23
6.091360
  0
POLYLINE
  8
0
  6
CONTINUOUS
 66
     1
 40
0.000000
 41
0.000000
  0
VERTEX
  8
0
  6
CONTINUOUS
 10
4.105640
 20
5.215320
  0
VERTEX
  8
0
  6
CONTINUOUS
 10
3.699080
 20
5.840120
  0
VERTEX
  8
0
  6
CONTINUOUS
 10
3.608880
 20
6.091360
  0
VERTEX
  8
0
  6
CONTINUOUS
 10
4.015440
 20
5.466560
  0
VERTEX
  8
0
  6
CONTINUOUS
 10
4.105640
 20
5.215320
  0
SEQEND
  8
0
  0
SOLID
  8
0
 62
    15
 10
4.015440
 20
5.466560
 11
3.608880
 21
6.091360
 12
3.902360
 22
5.705480
 13
3.495800
 23
6.330280
  0
POLYLINE
  8
0
  6
CONTINUOUS
 66
     1
 40
0.000000
 41
0.000000
  0
VERTEX
  8
0
  6
CONTINUOUS
 10
4.015440
 20
5.466560
  0
VERTEX
  8
0
  6
CONTINUOUS
 10
3.608880
 20
6.091360
  0
VERTEX
  8
0
  6
CONTINUOUS
 10
3.495800
 20
6.330280
  0
VERTEX
  8
0
  6
CONTINUOUS
 10
3.902360
 20
5.705480
  0
VERTEX
  8
0
  6
CONTINUOUS
 10
4.015440
 20
5.466560
  0
SEQEND
  8
0
  0
SOLID
  8
0
 62
    15
 10
3.902360
 20
5.705480
 11
3.495800
 21
6.330280
 12
3.767720
 22
5.930320
 13
3.360720
 23
6.555120
  0
POLYLINE
  8
0
  6
CONTINUOUS
 66
     1
 40
0.000000
 41
0.000000
  0
VERTEX
  8
0
  6
CONTINUOUS
 10
3.902360
 20
5.705480
  0
VERTEX
  8
0
  6
CONTINUOUS
 10
3.495800
 20
6.330280
  0
VERTEX
  8
0
  6
CONTINUOUS
 10
3.360720
 20
6.555120
  0
VERTEX
  8
0
  6
CONTINUOUS
 10
3.767720
 20
5.930320
  0
VERTEX
  8
0
  6
CONTINUOUS
 10
3.902360
 20
5.705480
  0
SEQEND
  8
0
  0
SOLID
  8
0
 62
    15
 10
1.512280
 20
7.128880
 11
1.105280
 21
7.753680
 12
1.511840
 22
7.133720
 13
1.104840
 23
7.758520
  0
POLYLINE
  8
0
  6
CONTINUOUS
 66
     1
 40
0.000000
 41
0.000000
  0
VERTEX
  8
0
  6
CONTINUOUS
 10
1.512280
 20
7.128880
  0
VERTEX
  8
0
  6
CONTINUOUS
 10
1.105280
 20
7.753680
  0
VERTEX
  8
0
  6
CONTINUOUS
 10
1.104840
 20
7.758520
  0
VERTEX
  8
0
  6
CONTINUOUS
 10
1.511840
 20
7.133720
  0
VERTEX
  8
0
  6
CONTINUOUS
 10
1.512280
 20
7.128880
  0
SEQEND
  8
0
  0
POLYLINE
  8
0
  6
CONTINUOUS
 66
     1
 40
0.000000
 41
0.000000
  0
VERTEX
  8
0
  6
CONTINUOUS
 10
1.511840
 20
7.133720
  0
VERTEX
  8
0
  6
CONTINUOUS
 10
1.518880
 20
8.241640
  0
VERTEX
  8
0
  6
CONTINUOUS
 10
3.021920
 20
8.316000
  0
VERTEX
  8
0
  6
CONTINUOUS
 10
3.061520
 20
8.103040
  0
VERTEX
  8
0
  6
CONTINUOUS
 10
3.164040
 20
7.922640
  0
VERTEX
  8
0
  6
CONTINUOUS
 10
3.318040
 20
7.772600
  0
VERTEX
  8
0
  6
CONTINUOUS
 10
3.511640
 20
7.651160
  0
VERTEX
  8
0
  6
CONTINUOUS
 10
3.732520
 20
7.556120
  0
VERTEX
  8
0
  6
CONTINUOUS
 10
3.969240
 20
7.485720
  0
VERTEX
  8
0
  6
CONTINUOUS
 10
4.441360
 20
7.410920
  0
VERTEX
  8
0
  6
CONTINUOUS
 10
4.902040
 20
7.333040
  0
VERTEX
  8
0
  6
CONTINUOUS
 10
5.363160
 20
7.183440
  0
VERTEX
  8
0
  6
CONTINUOUS
 10
5.783360
 20
6.984120
  0
VERTEX
  8
0
  6
CONTINUOUS
 10
6.123040
 20
6.757960
  0
VERTEX
  8
0
  6
CONTINUOUS
 10
6.270880
 20
6.622880
  0
VERTEX
  8
0
  6
CONTINUOUS
 10
6.423120
 20
6.450400
  0
VERTEX
  8
0
  6
CONTINUOUS
 10
6.571400
 20
6.241840
  0
VERTEX
  8
0
  6
CONTINUOUS
 10
6.707360
 20
5.998960
  0
VERTEX
  8
0
  6
CONTINUOUS
 10
6.822640
 20
5.723080
  0
VERTEX
  8
0
  6
CONTINUOUS
 10
6.908880
 20
5.415080
  0
VERTEX
  8
0
  6
CONTINUOUS
 10
6.956840
 20
5.076280
  0
VERTEX
  8
0
  6
CONTINUOUS
 10
6.958600
 20
4.708440
  0
VERTEX
  8
0
  6
CONTINUOUS
 10
6.931320
 20
1.012000
  0
VERTEX
  8
0
  6
CONTINUOUS
 10
1.468720
 20
0.718080
  0
VERTEX
  8
0
  6
CONTINUOUS
 10
1.473560
 20
1.632400
  0
VERTEX
  8
0
  6
CONTINUOUS
 10
1.754280
 20
1.646920
  0
VERTEX
  8
0
  6
CONTINUOUS
 10
2.027520
 20
1.689160
  0
VERTEX
  8
0
  6
CONTINUOUS
 10
2.291080
 20
1.757800
  0
VERTEX
  8
0
  6
CONTINUOUS
 10
2.543640
 20
1.851520
  0
VERTEX
  8
0
  6
CONTINUOUS
 10
2.784320
 20
1.968560
  0
VERTEX
  8
0
  6
CONTINUOUS
 10
3.011360
 20
2.108040
  0
VERTEX
  8
0
  6
CONTINUOUS
 10
3.418800
 20
2.447280
  0
VERTEX
  8
0
  6
CONTINUOUS
 10
3.755400
 20
2.857360
  0
VERTEX
  8
0
  6
CONTINUOUS
 10
3.893560
 20
3.085720
  0
VERTEX
  8
0
  6
CONTINUOUS
 10
4.009720
 20
3.327280
  0
VERTEX
  8
0
  6
CONTINUOUS
 10
4.102120
 20
3.581160
  0
VERTEX
  8
0
  6
CONTINUOUS
 10
4.170320
 20
3.845600
  0
VERTEX
  8
0
  6
CONTINUOUS
 10
4.212120
 20
4.118840
  0
VERTEX
  8
0
  6
CONTINUOUS
 10
4.226200
 20
4.400440
  0
VERTEX
  8
0
  6
CONTINUOUS
 10
4.212560
 20
4.680720
  0
VERTEX
  8
0
  6
CONTINUOUS
 10
4.172080
 20
4.953080
  0
VERTEX
  8
0
  6
CONTINUOUS
 10
4.105640
 20
5.215320
  0
VERTEX
  8
0
  6
CONTINUOUS
 10
4.015440
 20
5.466560
  0
VERTEX
  8
0
  6
CONTINUOUS
 10
3.902360
 20
5.705480
  0
VERTEX
  8
0
  6
CONTINUOUS
 10
3.767720
 20
5.930320
  0
VERTEX
  8
0
  6
CONTINUOUS
 10
3.438160
 20
6.333800
  0
VERTEX
  8
0
  6
CONTINUOUS
 10
3.037760
 20
6.665560
  0
VERTEX
  8
0
  6
CONTINUOUS
 10
2.814240
 20
6.801520
  0
VERTEX
  8
0
  6
CONTINUOUS
 10
2.576640
 20
6.915920
  0
VERTEX
  8
0
  6
CONTINUOUS
 10
2.326280
 20
7.007000
  0
VERTEX
  8
0
  6
CONTINUOUS
 10
2.064480
 20
7.073880
  0
VERTEX
  8
0
  6
CONTINUOUS
 10
1.792560
 20
7.114800
  0
VERTEX
  8
0
  6
CONTINUOUS
 10
1.512280
 20
7.128880
  0
VERTEX
  8
0
  6
CONTINUOUS
 10
1.511840
 20
7.133720
  0
SEQEND
  8
0
  0
TEXT
  8
0
 10
3.715800
 20
0.605440
 40
0.138282
  1
BA  895
 41
1.000000
  7
SN0
 71
     0
 72
     5
 11
4.308801
 21
0.605440
  0
TEXT
  8
0
 10
3.515600
 20
0.413600
 40
0.138282
  1
5-1/2 x 7-1/2"
 41
1.000000
  7
SN0
 71
     0
 72
     5
 11
4.511010
 21
0.413600
  0
SOLID
  8
0
 62
    15
 10
1.112320
 20
8.866000
 11
1.521080
 21
8.243400
 12
2.607440
 22
8.945200
 13
3.028520
 23
8.316440
  0
POLYLINE
  8
0
  6
CONTINUOUS
 66
     1
 40
0.000000
 41
0.000000
  0
VERTEX
  8
0
  6
CONTINUOUS
 10
1.112320
 20
8.866000
  0
VERTEX
  8
0
  6
CONTINUOUS
 10
1.521080
 20
8.243400
  0
VERTEX
  8
0
  6
CONTINUOUS
 10
3.028520
 20
8.316440
  0
VERTEX
  8
0
  6
CONTINUOUS
 10
2.607440
 20
8.945200
  0
VERTEX
  8
0
  6
CONTINUOUS
 10
1.112320
 20
8.866000
  0
SEQEND
  8
0
  0
ENDSEC
  0
EOF
