  0
SECTION
  2
HEADER
  9
$ACADVER
  1
AC1006
  9
$EXTMIN
 10
2.210120
 20
0.639760
  9
$EXTMAX
 10
7.162320
 20
4.163720
  9
$LTSCALE
 40
0.044000
  9
$PDMODE
 70
    35
  9
$PDSIZE
 40
0.035200
  0
ENDSEC
  0
SECTION
  2
TABLES
  0
TABLE
  2
LTYPE
 70
     9
  0
LTYPE
  2
CONTINUOUS
 70
    64
  3
Solid line
 72
    65
 73
     0
 40
0.000000
  0
LTYPE
  2
DASHED
 70
    64
  3
__ __ __ __ __ __ __ __ __ __ __ __ __ __ __
 72
    65
 73
     2
 40
0.000330
 49
0.000220
 49
-0.000110
  0
LTYPE
  2
HIDDEN
 70
    64
  3
 _ _ _ _ _ _ _ _ _ _ _ _ _ _ _ _ _ _ _ _ _ _
 72
    65
 73
     2
 40
0.000165
 49
0.000110
 49
-0.000055
  0
LTYPE
  2
CENTER
 70
    64
  3
____ _ ____ _ ____ _ ____ _ ____ _ ____ _ ____
 72
    65
 73
     4
 40
0.000880
 49
0.000550
 49
-0.000110
 49
0.000110
 49
-0.000110
  0
LTYPE
  2
PHANTOM
 70
    64
  3
_____ _ _ _____ _ _ _____ _ _ _____ _ _ ____
 72
    65
 73
     6
 40
0.001100
 49
0.000550
 49
-0.000110
 49
0.000110
 49
-0.000110
 49
0.000110
 49
-0.000110
  0
LTYPE
  2
DOT
 70
    64
  3
...............................................
 72
    65
 73
     2
 40
0.000110
 49
0.000000
 49
-0.000110
  0
LTYPE
  2
DASHDOT
 70
    64
  3
__ . __ . __ . __ . __ . __ . __ . __ . __ . __
 72
    65
 73
     4
 40
0.000440
 49
0.000220
 49
-0.000110
 49
0.000000
 49
-0.000110
  0
LTYPE
  2
BORDER
 70
    64
  3
__ __ . __ __ . __ __ . __ __ . __ __ . __ __
 72
    65
 73
     6
 40
0.000770
 49
0.000220
 49
-0.000110
 49
0.000220
 49
-0.000110
 49
0.000000
 49
-0.000110
  0
LTYPE
  2
DIVIDE
 70
    64
  3
__ . . __ . . __ . . __ . . __ . . __ . . __
 72
    65
 73
     6
 40
0.000550
 49
0.000220
 49
-0.000110
 49
0.000000
 49
-0.000110
 49
0.000000
 49
-0.000110
  0
LTYPE
  2
DOTDOT
 70
    64
  3
 . .  . .  . .  . .  . .  . . 
 72
    65
 73
     5
 40
0.000242
 49
-0.000110
 49
0.000000
 49
-0.000110
 49
0.000000
 49
-0.000110
  0
ENDTAB
  0
TABLE
  2
STYLE
 70
     2
  0
STYLE
 70
     0
  2
SN0
 40
0.000000
 41
0.000440
 50
0.000000
 71
     0
 42
0.000000
  3
ROMAND
  0
STYLE
 70
    68
  2
SV0
 40
0.000000
 41
0.000440
 50
0.000000
 71
     0
 42
0.000000
  3
ROMAND
  0
ENDTAB
  0
TABLE
  2
LAYER
 70
     3
  0
LAYER
  2
FOREGROUND
 70
    64
 62
     7
  6
CONTINUOUS
  0
LAYER
  2
BACKGROUND
 70
    65
 62
    -7
  6
CONTINUOUS
  0
LAYER
  2
0
 70
    64
 62
     7
  6
CONTINUOUS
  0
ENDTAB
  0
ENDSEC
  0
SECTION
  2
ENTITIES
  0
POLYLINE
  8
FOREGROUND
  6
CONTINUOUS
 66
     1
 40
0.000000
 41
0.000000
  0
VERTEX
  8
FOREGROUND
  6
CONTINUOUS
 10
0.000000
 20
4.803480
  0
VERTEX
  8
FOREGROUND
  6
CONTINUOUS
 10
8.499920
 20
4.803480
  0
VERTEX
  8
FOREGROUND
  6
CONTINUOUS
 10
8.499920
 20
-6.196520
  0
VERTEX
  8
FOREGROUND
  6
CONTINUOUS
 10
0.000000
 20
-6.196520
  0
VERTEX
  8
FOREGROUND
  6
CONTINUOUS
 10
0.000000
 20
4.803480
  0
SEQEND
  8
0
  0
POLYLINE
  8
FOREGROUND
  6
CONTINUOUS
 66
     1
 40
0.000000
 41
0.000000
  0
VERTEX
  8
FOREGROUND
  6
CONTINUOUS
 10
0.000000
 20
4.803480
  0
VERTEX
  8
FOREGROUND
  6
CONTINUOUS
 10
8.499920
 20
4.803480
  0
VERTEX
  8
FOREGROUND
  6
CONTINUOUS
 10
8.499920
 20
-6.196520
  0
VERTEX
  8
FOREGROUND
  6
CONTINUOUS
 10
0.000000
 20
-6.196520
  0
VERTEX
  8
FOREGROUND
  6
CONTINUOUS
 10
0.000000
 20
4.803480
  0
SEQEND
  8
0
  0
SOLID
  8
0
 62
    15
 10
2.225520
 20
1.119800
 11
2.221560
 21
1.851080
 12
2.225520
 22
1.990120
 13
2.221560
 23
2.720960
  0
POLYLINE
  8
0
  6
CONTINUOUS
 66
     1
 40
0.000000
 41
0.000000
  0
VERTEX
  8
0
  6
CONTINUOUS
 10
2.225520
 20
1.119800
  0
VERTEX
  8
0
  6
CONTINUOUS
 10
2.221560
 20
1.851080
  0
VERTEX
  8
0
  6
CONTINUOUS
 10
2.221560
 20
2.720960
  0
VERTEX
  8
0
  6
CONTINUOUS
 10
2.225520
 20
1.990120
  0
VERTEX
  8
0
  6
CONTINUOUS
 10
2.225520
 20
1.119800
  0
SEQEND
  8
0
  0
SOLID
  8
0
 62
    15
 10
4.711960
 20
1.982200
 11
4.708440
 21
2.713040
 12
4.752440
 22
1.978680
 13
4.748920
 23
2.709520
  0
POLYLINE
  8
0
  6
CONTINUOUS
 66
     1
 40
0.000000
 41
0.000000
  0
VERTEX
  8
0
  6
CONTINUOUS
 10
4.711960
 20
1.982200
  0
VERTEX
  8
0
  6
CONTINUOUS
 10
4.708440
 20
2.713040
  0
VERTEX
  8
0
  6
CONTINUOUS
 10
4.748920
 20
2.709520
  0
VERTEX
  8
0
  6
CONTINUOUS
 10
4.752440
 20
1.978680
  0
VERTEX
  8
0
  6
CONTINUOUS
 10
4.711960
 20
1.982200
  0
SEQEND
  8
0
  0
SOLID
  8
0
 62
    15
 10
4.752440
 20
1.978680
 11
4.748920
 21
2.709520
 12
4.801280
 22
1.970760
 13
4.797320
 23
2.701600
  0
POLYLINE
  8
0
  6
CONTINUOUS
 66
     1
 40
0.000000
 41
0.000000
  0
VERTEX
  8
0
  6
CONTINUOUS
 10
4.752440
 20
1.978680
  0
VERTEX
  8
0
  6
CONTINUOUS
 10
4.748920
 20
2.709520
  0
VERTEX
  8
0
  6
CONTINUOUS
 10
4.797320
 20
2.701600
  0
VERTEX
  8
0
  6
CONTINUOUS
 10
4.801280
 20
1.970760
  0
VERTEX
  8
0
  6
CONTINUOUS
 10
4.752440
 20
1.978680
  0
SEQEND
  8
0
  0
SOLID
  8
0
 62
    15
 10
4.801280
 20
1.970760
 11
4.797320
 21
2.701600
 12
4.855840
 22
1.956240
 13
4.851880
 23
2.687520
  0
POLYLINE
  8
0
  6
CONTINUOUS
 66
     1
 40
0.000000
 41
0.000000
  0
VERTEX
  8
0
  6
CONTINUOUS
 10
4.801280
 20
1.970760
  0
VERTEX
  8
0
  6
CONTINUOUS
 10
4.797320
 20
2.701600
  0
VERTEX
  8
0
  6
CONTINUOUS
 10
4.851880
 20
2.687520
  0
VERTEX
  8
0
  6
CONTINUOUS
 10
4.855840
 20
1.956240
  0
VERTEX
  8
0
  6
CONTINUOUS
 10
4.801280
 20
1.970760
  0
SEQEND
  8
0
  0
SOLID
  8
0
 62
    15
 10
4.855840
 20
1.956240
 11
4.851880
 21
2.687520
 12
4.914800
 22
1.933800
 13
4.910840
 23
2.665080
  0
POLYLINE
  8
0
  6
CONTINUOUS
 66
     1
 40
0.000000
 41
0.000000
  0
VERTEX
  8
0
  6
CONTINUOUS
 10
4.855840
 20
1.956240
  0
VERTEX
  8
0
  6
CONTINUOUS
 10
4.851880
 20
2.687520
  0
VERTEX
  8
0
  6
CONTINUOUS
 10
4.910840
 20
2.665080
  0
VERTEX
  8
0
  6
CONTINUOUS
 10
4.914800
 20
1.933800
  0
VERTEX
  8
0
  6
CONTINUOUS
 10
4.855840
 20
1.956240
  0
SEQEND
  8
0
  0
SOLID
  8
0
 62
    15
 10
4.914800
 20
1.933800
 11
4.910840
 21
2.665080
 12
4.975960
 22
1.902120
 13
4.972440
 23
2.632960
  0
POLYLINE
  8
0
  6
CONTINUOUS
 66
     1
 40
0.000000
 41
0.000000
  0
VERTEX
  8
0
  6
CONTINUOUS
 10
4.914800
 20
1.933800
  0
VERTEX
  8
0
  6
CONTINUOUS
 10
4.910840
 20
2.665080
  0
VERTEX
  8
0
  6
CONTINUOUS
 10
4.972440
 20
2.632960
  0
VERTEX
  8
0
  6
CONTINUOUS
 10
4.975960
 20
1.902120
  0
VERTEX
  8
0
  6
CONTINUOUS
 10
4.914800
 20
1.933800
  0
SEQEND
  8
0
  0
SOLID
  8
0
 62
    15
 10
4.975960
 20
1.902120
 11
4.972440
 21
2.632960
 12
5.037560
 22
1.858560
 13
5.033600
 23
2.589840
  0
POLYLINE
  8
0
  6
CONTINUOUS
 66
     1
 40
0.000000
 41
0.000000
  0
VERTEX
  8
0
  6
CONTINUOUS
 10
4.975960
 20
1.902120
  0
VERTEX
  8
0
  6
CONTINUOUS
 10
4.972440
 20
2.632960
  0
VERTEX
  8
0
  6
CONTINUOUS
 10
5.033600
 20
2.589840
  0
VERTEX
  8
0
  6
CONTINUOUS
 10
5.037560
 20
1.858560
  0
VERTEX
  8
0
  6
CONTINUOUS
 10
4.975960
 20
1.902120
  0
SEQEND
  8
0
  0
SOLID
  8
0
 62
    15
 10
5.037560
 20
1.858560
 11
5.033600
 21
2.589840
 12
5.097400
 22
1.802240
 13
5.093880
 23
2.533520
  0
POLYLINE
  8
0
  6
CONTINUOUS
 66
     1
 40
0.000000
 41
0.000000
  0
VERTEX
  8
0
  6
CONTINUOUS
 10
5.037560
 20
1.858560
  0
VERTEX
  8
0
  6
CONTINUOUS
 10
5.033600
 20
2.589840
  0
VERTEX
  8
0
  6
CONTINUOUS
 10
5.093880
 20
2.533520
  0
VERTEX
  8
0
  6
CONTINUOUS
 10
5.097400
 20
1.802240
  0
VERTEX
  8
0
  6
CONTINUOUS
 10
5.037560
 20
1.858560
  0
SEQEND
  8
0
  0
SOLID
  8
0
 62
    15
 10
5.097400
 20
1.802240
 11
5.093880
 21
2.533520
 12
5.199920
 22
1.893320
 13
5.195960
 23
2.624600
  0
POLYLINE
  8
0
  6
CONTINUOUS
 66
     1
 40
0.000000
 41
0.000000
  0
VERTEX
  8
0
  6
CONTINUOUS
 10
5.097400
 20
1.802240
  0
VERTEX
  8
0
  6
CONTINUOUS
 10
5.093880
 20
2.533520
  0
VERTEX
  8
0
  6
CONTINUOUS
 10
5.195960
 20
2.624600
  0
VERTEX
  8
0
  6
CONTINUOUS
 10
5.199920
 20
1.893320
  0
VERTEX
  8
0
  6
CONTINUOUS
 10
5.097400
 20
1.802240
  0
SEQEND
  8
0
  0
SOLID
  8
0
 62
    15
 10
5.199920
 20
1.893320
 11
5.195960
 21
2.624600
 12
5.226760
 22
1.864720
 13
5.223240
 23
2.595560
  0
POLYLINE
  8
0
  6
CONTINUOUS
 66
     1
 40
0.000000
 41
0.000000
  0
VERTEX
  8
0
  6
CONTINUOUS
 10
5.199920
 20
1.893320
  0
VERTEX
  8
0
  6
CONTINUOUS
 10
5.195960
 20
2.624600
  0
VERTEX
  8
0
  6
CONTINUOUS
 10
5.223240
 20
2.595560
  0
VERTEX
  8
0
  6
CONTINUOUS
 10
5.226760
 20
1.864720
  0
VERTEX
  8
0
  6
CONTINUOUS
 10
5.199920
 20
1.893320
  0
SEQEND
  8
0
  0
SOLID
  8
0
 62
    15
 10
5.226760
 20
1.864720
 11
5.223240
 21
2.595560
 12
5.258440
 22
1.846680
 13
5.254480
 23
2.577960
  0
POLYLINE
  8
0
  6
CONTINUOUS
 66
     1
 40
0.000000
 41
0.000000
  0
VERTEX
  8
0
  6
CONTINUOUS
 10
5.226760
 20
1.864720
  0
VERTEX
  8
0
  6
CONTINUOUS
 10
5.223240
 20
2.595560
  0
VERTEX
  8
0
  6
CONTINUOUS
 10
5.254480
 20
2.577960
  0
VERTEX
  8
0
  6
CONTINUOUS
 10
5.258440
 20
1.846680
  0
VERTEX
  8
0
  6
CONTINUOUS
 10
5.226760
 20
1.864720
  0
SEQEND
  8
0
  0
SOLID
  8
0
 62
    15
 10
5.258440
 20
1.846680
 11
5.254480
 21
2.577960
 12
5.297160
 22
1.837440
 13
5.293200
 23
2.568720
  0
POLYLINE
  8
0
  6
CONTINUOUS
 66
     1
 40
0.000000
 41
0.000000
  0
VERTEX
  8
0
  6
CONTINUOUS
 10
5.258440
 20
1.846680
  0
VERTEX
  8
0
  6
CONTINUOUS
 10
5.254480
 20
2.577960
  0
VERTEX
  8
0
  6
CONTINUOUS
 10
5.293200
 20
2.568720
  0
VERTEX
  8
0
  6
CONTINUOUS
 10
5.297160
 20
1.837440
  0
VERTEX
  8
0
  6
CONTINUOUS
 10
5.258440
 20
1.846680
  0
SEQEND
  8
0
  0
SOLID
  8
0
 62
    15
 10
5.297160
 20
1.837440
 11
5.293200
 21
2.568720
 12
5.345560
 22
1.835240
 13
5.342040
 23
2.566080
  0
POLYLINE
  8
0
  6
CONTINUOUS
 66
     1
 40
0.000000
 41
0.000000
  0
VERTEX
  8
0
  6
CONTINUOUS
 10
5.297160
 20
1.837440
  0
VERTEX
  8
0
  6
CONTINUOUS
 10
5.293200
 20
2.568720
  0
VERTEX
  8
0
  6
CONTINUOUS
 10
5.342040
 20
2.566080
  0
VERTEX
  8
0
  6
CONTINUOUS
 10
5.345560
 20
1.835240
  0
VERTEX
  8
0
  6
CONTINUOUS
 10
5.297160
 20
1.837440
  0
SEQEND
  8
0
  0
SOLID
  8
0
 62
    15
 10
5.345560
 20
1.835240
 11
5.342040
 21
2.566080
 12
5.376800
 22
1.837440
 13
5.372840
 23
2.568720
  0
POLYLINE
  8
0
  6
CONTINUOUS
 66
     1
 40
0.000000
 41
0.000000
  0
VERTEX
  8
0
  6
CONTINUOUS
 10
5.345560
 20
1.835240
  0
VERTEX
  8
0
  6
CONTINUOUS
 10
5.342040
 20
2.566080
  0
VERTEX
  8
0
  6
CONTINUOUS
 10
5.372840
 20
2.568720
  0
VERTEX
  8
0
  6
CONTINUOUS
 10
5.376800
 20
1.837440
  0
VERTEX
  8
0
  6
CONTINUOUS
 10
5.345560
 20
1.835240
  0
SEQEND
  8
0
  0
SOLID
  8
0
 62
    15
 10
5.376800
 20
1.837440
 11
5.372840
 21
2.568720
 12
5.418160
 22
1.847560
 13
5.414640
 23
2.578400
  0
POLYLINE
  8
0
  6
CONTINUOUS
 66
     1
 40
0.000000
 41
0.000000
  0
VERTEX
  8
0
  6
CONTINUOUS
 10
5.376800
 20
1.837440
  0
VERTEX
  8
0
  6
CONTINUOUS
 10
5.372840
 20
2.568720
  0
VERTEX
  8
0
  6
CONTINUOUS
 10
5.414640
 20
2.578400
  0
VERTEX
  8
0
  6
CONTINUOUS
 10
5.418160
 20
1.847560
  0
VERTEX
  8
0
  6
CONTINUOUS
 10
5.376800
 20
1.837440
  0
SEQEND
  8
0
  0
SOLID
  8
0
 62
    15
 10
5.418160
 20
1.847560
 11
5.414640
 21
2.578400
 12
5.441920
 22
1.857680
 13
5.438400
 23
2.588520
  0
POLYLINE
  8
0
  6
CONTINUOUS
 66
     1
 40
0.000000
 41
0.000000
  0
VERTEX
  8
0
  6
CONTINUOUS
 10
5.418160
 20
1.847560
  0
VERTEX
  8
0
  6
CONTINUOUS
 10
5.414640
 20
2.578400
  0
VERTEX
  8
0
  6
CONTINUOUS
 10
5.438400
 20
2.588520
  0
VERTEX
  8
0
  6
CONTINUOUS
 10
5.441920
 20
1.857680
  0
VERTEX
  8
0
  6
CONTINUOUS
 10
5.418160
 20
1.847560
  0
SEQEND
  8
0
  0
SOLID
  8
0
 62
    15
 10
5.441920
 20
1.857680
 11
5.438400
 21
2.588520
 12
5.467440
 22
1.872200
 13
5.463920
 23
2.603040
  0
POLYLINE
  8
0
  6
CONTINUOUS
 66
     1
 40
0.000000
 41
0.000000
  0
VERTEX
  8
0
  6
CONTINUOUS
 10
5.441920
 20
1.857680
  0
VERTEX
  8
0
  6
CONTINUOUS
 10
5.438400
 20
2.588520
  0
VERTEX
  8
0
  6
CONTINUOUS
 10
5.463920
 20
2.603040
  0
VERTEX
  8
0
  6
CONTINUOUS
 10
5.467440
 20
1.872200
  0
VERTEX
  8
0
  6
CONTINUOUS
 10
5.441920
 20
1.857680
  0
SEQEND
  8
0
  0
SOLID
  8
0
 62
    15
 10
5.467440
 20
1.872200
 11
5.463920
 21
2.603040
 12
5.493840
 22
1.892000
 13
5.490320
 23
2.622840
  0
POLYLINE
  8
0
  6
CONTINUOUS
 66
     1
 40
0.000000
 41
0.000000
  0
VERTEX
  8
0
  6
CONTINUOUS
 10
5.467440
 20
1.872200
  0
VERTEX
  8
0
  6
CONTINUOUS
 10
5.463920
 20
2.603040
  0
VERTEX
  8
0
  6
CONTINUOUS
 10
5.490320
 20
2.622840
  0
VERTEX
  8
0
  6
CONTINUOUS
 10
5.493840
 20
1.892000
  0
VERTEX
  8
0
  6
CONTINUOUS
 10
5.467440
 20
1.872200
  0
SEQEND
  8
0
  0
SOLID
  8
0
 62
    15
 10
5.493840
 20
1.892000
 11
5.490320
 21
2.622840
 12
5.521560
 22
1.917960
 13
5.517600
 23
2.648800
  0
POLYLINE
  8
0
  6
CONTINUOUS
 66
     1
 40
0.000000
 41
0.000000
  0
VERTEX
  8
0
  6
CONTINUOUS
 10
5.493840
 20
1.892000
  0
VERTEX
  8
0
  6
CONTINUOUS
 10
5.490320
 20
2.622840
  0
VERTEX
  8
0
  6
CONTINUOUS
 10
5.517600
 20
2.648800
  0
VERTEX
  8
0
  6
CONTINUOUS
 10
5.521560
 20
1.917960
  0
VERTEX
  8
0
  6
CONTINUOUS
 10
5.493840
 20
1.892000
  0
SEQEND
  8
0
  0
SOLID
  8
0
 62
    15
 10
5.521560
 20
1.917960
 11
5.517600
 21
2.648800
 12
5.593280
 22
1.854160
 13
5.589320
 23
2.585440
  0
POLYLINE
  8
0
  6
CONTINUOUS
 66
     1
 40
0.000000
 41
0.000000
  0
VERTEX
  8
0
  6
CONTINUOUS
 10
5.521560
 20
1.917960
  0
VERTEX
  8
0
  6
CONTINUOUS
 10
5.517600
 20
2.648800
  0
VERTEX
  8
0
  6
CONTINUOUS
 10
5.589320
 20
2.585440
  0
VERTEX
  8
0
  6
CONTINUOUS
 10
5.593280
 20
1.854160
  0
VERTEX
  8
0
  6
CONTINUOUS
 10
5.521560
 20
1.917960
  0
SEQEND
  8
0
  0
SOLID
  8
0
 62
    15
 10
5.593280
 20
1.854160
 11
5.589320
 21
2.585440
 12
5.616160
 22
1.880560
 13
5.612640
 23
2.611840
  0
POLYLINE
  8
0
  6
CONTINUOUS
 66
     1
 40
0.000000
 41
0.000000
  0
VERTEX
  8
0
  6
CONTINUOUS
 10
5.593280
 20
1.854160
  0
VERTEX
  8
0
  6
CONTINUOUS
 10
5.589320
 20
2.585440
  0
VERTEX
  8
0
  6
CONTINUOUS
 10
5.612640
 20
2.611840
  0
VERTEX
  8
0
  6
CONTINUOUS
 10
5.616160
 20
1.880560
  0
VERTEX
  8
0
  6
CONTINUOUS
 10
5.593280
 20
1.854160
  0
SEQEND
  8
0
  0
SOLID
  8
0
 62
    15
 10
5.616160
 20
1.880560
 11
5.612640
 21
2.611840
 12
5.643440
 22
1.906080
 13
5.639920
 23
2.637360
  0
POLYLINE
  8
0
  6
CONTINUOUS
 66
     1
 40
0.000000
 41
0.000000
  0
VERTEX
  8
0
  6
CONTINUOUS
 10
5.616160
 20
1.880560
  0
VERTEX
  8
0
  6
CONTINUOUS
 10
5.612640
 20
2.611840
  0
VERTEX
  8
0
  6
CONTINUOUS
 10
5.639920
 20
2.637360
  0
VERTEX
  8
0
  6
CONTINUOUS
 10
5.643440
 20
1.906080
  0
VERTEX
  8
0
  6
CONTINUOUS
 10
5.616160
 20
1.880560
  0
SEQEND
  8
0
  0
SOLID
  8
0
 62
    15
 10
5.643440
 20
1.906080
 11
5.639920
 21
2.637360
 12
5.676000
 22
1.928080
 13
5.672480
 23
2.658920
  0
POLYLINE
  8
0
  6
CONTINUOUS
 66
     1
 40
0.000000
 41
0.000000
  0
VERTEX
  8
0
  6
CONTINUOUS
 10
5.643440
 20
1.906080
  0
VERTEX
  8
0
  6
CONTINUOUS
 10
5.639920
 20
2.637360
  0
VERTEX
  8
0
  6
CONTINUOUS
 10
5.672480
 20
2.658920
  0
VERTEX
  8
0
  6
CONTINUOUS
 10
5.676000
 20
1.928080
  0
VERTEX
  8
0
  6
CONTINUOUS
 10
5.643440
 20
1.906080
  0
SEQEND
  8
0
  0
SOLID
  8
0
 62
    15
 10
5.676000
 20
1.928080
 11
5.672480
 21
2.658920
 12
5.716040
 22
1.943040
 13
5.712080
 23
2.674320
  0
POLYLINE
  8
0
  6
CONTINUOUS
 66
     1
 40
0.000000
 41
0.000000
  0
VERTEX
  8
0
  6
CONTINUOUS
 10
5.676000
 20
1.928080
  0
VERTEX
  8
0
  6
CONTINUOUS
 10
5.672480
 20
2.658920
  0
VERTEX
  8
0
  6
CONTINUOUS
 10
5.712080
 20
2.674320
  0
VERTEX
  8
0
  6
CONTINUOUS
 10
5.716040
 20
1.943040
  0
VERTEX
  8
0
  6
CONTINUOUS
 10
5.676000
 20
1.928080
  0
SEQEND
  8
0
  0
SOLID
  8
0
 62
    15
 10
5.716040
 20
1.943040
 11
5.712080
 21
2.674320
 12
5.764000
 22
1.949200
 13
5.760480
 23
2.680480
  0
POLYLINE
  8
0
  6
CONTINUOUS
 66
     1
 40
0.000000
 41
0.000000
  0
VERTEX
  8
0
  6
CONTINUOUS
 10
5.716040
 20
1.943040
  0
VERTEX
  8
0
  6
CONTINUOUS
 10
5.712080
 20
2.674320
  0
VERTEX
  8
0
  6
CONTINUOUS
 10
5.760480
 20
2.680480
  0
VERTEX
  8
0
  6
CONTINUOUS
 10
5.764000
 20
1.949200
  0
VERTEX
  8
0
  6
CONTINUOUS
 10
5.716040
 20
1.943040
  0
SEQEND
  8
0
  0
SOLID
  8
0
 62
    15
 10
5.764000
 20
1.949200
 11
5.760480
 21
2.680480
 12
5.792160
 22
1.948320
 13
5.788200
 23
2.679160
  0
POLYLINE
  8
0
  6
CONTINUOUS
 66
     1
 40
0.000000
 41
0.000000
  0
VERTEX
  8
0
  6
CONTINUOUS
 10
5.764000
 20
1.949200
  0
VERTEX
  8
0
  6
CONTINUOUS
 10
5.760480
 20
2.680480
  0
VERTEX
  8
0
  6
CONTINUOUS
 10
5.788200
 20
2.679160
  0
VERTEX
  8
0
  6
CONTINUOUS
 10
5.792160
 20
1.948320
  0
VERTEX
  8
0
  6
CONTINUOUS
 10
5.764000
 20
1.949200
  0
SEQEND
  8
0
  0
SOLID
  8
0
 62
    15
 10
5.792160
 20
1.948320
 11
5.788200
 21
2.679160
 12
5.822520
 22
1.943480
 13
5.819000
 23
2.674760
  0
POLYLINE
  8
0
  6
CONTINUOUS
 66
     1
 40
0.000000
 41
0.000000
  0
VERTEX
  8
0
  6
CONTINUOUS
 10
5.792160
 20
1.948320
  0
VERTEX
  8
0
  6
CONTINUOUS
 10
5.788200
 20
2.679160
  0
VERTEX
  8
0
  6
CONTINUOUS
 10
5.819000
 20
2.674760
  0
VERTEX
  8
0
  6
CONTINUOUS
 10
5.822520
 20
1.943480
  0
VERTEX
  8
0
  6
CONTINUOUS
 10
5.792160
 20
1.948320
  0
SEQEND
  8
0
  0
SOLID
  8
0
 62
    15
 10
5.822520
 20
1.943480
 11
5.819000
 21
2.674760
 12
5.855960
 22
1.935560
 13
5.852440
 23
2.666400
  0
POLYLINE
  8
0
  6
CONTINUOUS
 66
     1
 40
0.000000
 41
0.000000
  0
VERTEX
  8
0
  6
CONTINUOUS
 10
5.822520
 20
1.943480
  0
VERTEX
  8
0
  6
CONTINUOUS
 10
5.819000
 20
2.674760
  0
VERTEX
  8
0
  6
CONTINUOUS
 10
5.852440
 20
2.666400
  0
VERTEX
  8
0
  6
CONTINUOUS
 10
5.855960
 20
1.935560
  0
VERTEX
  8
0
  6
CONTINUOUS
 10
5.822520
 20
1.943480
  0
SEQEND
  8
0
  0
SOLID
  8
0
 62
    15
 10
5.855960
 20
1.935560
 11
5.852440
 21
2.666400
 12
5.892920
 22
1.923240
 13
5.888960
 23
2.654080
  0
POLYLINE
  8
0
  6
CONTINUOUS
 66
     1
 40
0.000000
 41
0.000000
  0
VERTEX
  8
0
  6
CONTINUOUS
 10
5.855960
 20
1.935560
  0
VERTEX
  8
0
  6
CONTINUOUS
 10
5.852440
 20
2.666400
  0
VERTEX
  8
0
  6
CONTINUOUS
 10
5.888960
 20
2.654080
  0
VERTEX
  8
0
  6
CONTINUOUS
 10
5.892920
 20
1.923240
  0
VERTEX
  8
0
  6
CONTINUOUS
 10
5.855960
 20
1.935560
  0
SEQEND
  8
0
  0
SOLID
  8
0
 62
    15
 10
5.892920
 20
1.923240
 11
5.888960
 21
2.654080
 12
5.932960
 22
1.906520
 13
5.929000
 23
2.637360
  0
POLYLINE
  8
0
  6
CONTINUOUS
 66
     1
 40
0.000000
 41
0.000000
  0
VERTEX
  8
0
  6
CONTINUOUS
 10
5.892920
 20
1.923240
  0
VERTEX
  8
0
  6
CONTINUOUS
 10
5.888960
 20
2.654080
  0
VERTEX
  8
0
  6
CONTINUOUS
 10
5.929000
 20
2.637360
  0
VERTEX
  8
0
  6
CONTINUOUS
 10
5.932960
 20
1.906520
  0
VERTEX
  8
0
  6
CONTINUOUS
 10
5.892920
 20
1.923240
  0
SEQEND
  8
0
  0
SOLID
  8
0
 62
    15
 10
5.932960
 20
1.906520
 11
5.929000
 21
2.637360
 12
5.976520
 22
1.885400
 13
5.972560
 23
2.616240
  0
POLYLINE
  8
0
  6
CONTINUOUS
 66
     1
 40
0.000000
 41
0.000000
  0
VERTEX
  8
0
  6
CONTINUOUS
 10
5.932960
 20
1.906520
  0
VERTEX
  8
0
  6
CONTINUOUS
 10
5.929000
 20
2.637360
  0
VERTEX
  8
0
  6
CONTINUOUS
 10
5.972560
 20
2.616240
  0
VERTEX
  8
0
  6
CONTINUOUS
 10
5.976520
 20
1.885400
  0
VERTEX
  8
0
  6
CONTINUOUS
 10
5.932960
 20
1.906520
  0
SEQEND
  8
0
  0
SOLID
  8
0
 62
    15
 10
5.976520
 20
1.885400
 11
5.972560
 21
2.616240
 12
6.020080
 22
1.863840
 13
6.016120
 23
2.595120
  0
POLYLINE
  8
0
  6
CONTINUOUS
 66
     1
 40
0.000000
 41
0.000000
  0
VERTEX
  8
0
  6
CONTINUOUS
 10
5.976520
 20
1.885400
  0
VERTEX
  8
0
  6
CONTINUOUS
 10
5.972560
 20
2.616240
  0
VERTEX
  8
0
  6
CONTINUOUS
 10
6.016120
 20
2.595120
  0
VERTEX
  8
0
  6
CONTINUOUS
 10
6.020080
 20
1.863840
  0
VERTEX
  8
0
  6
CONTINUOUS
 10
5.976520
 20
1.885400
  0
SEQEND
  8
0
  0
SOLID
  8
0
 62
    15
 10
6.020080
 20
1.863840
 11
6.016120
 21
2.595120
 12
6.060120
 22
1.847560
 13
6.056600
 23
2.578840
  0
POLYLINE
  8
0
  6
CONTINUOUS
 66
     1
 40
0.000000
 41
0.000000
  0
VERTEX
  8
0
  6
CONTINUOUS
 10
6.020080
 20
1.863840
  0
VERTEX
  8
0
  6
CONTINUOUS
 10
6.016120
 20
2.595120
  0
VERTEX
  8
0
  6
CONTINUOUS
 10
6.056600
 20
2.578840
  0
VERTEX
  8
0
  6
CONTINUOUS
 10
6.060120
 20
1.847560
  0
VERTEX
  8
0
  6
CONTINUOUS
 10
6.020080
 20
1.863840
  0
SEQEND
  8
0
  0
SOLID
  8
0
 62
    15
 10
6.060120
 20
1.847560
 11
6.056600
 21
2.578840
 12
6.097520
 22
1.835680
 13
6.093560
 23
2.566960
  0
POLYLINE
  8
0
  6
CONTINUOUS
 66
     1
 40
0.000000
 41
0.000000
  0
VERTEX
  8
0
  6
CONTINUOUS
 10
6.060120
 20
1.847560
  0
VERTEX
  8
0
  6
CONTINUOUS
 10
6.056600
 20
2.578840
  0
VERTEX
  8
0
  6
CONTINUOUS
 10
6.093560
 20
2.566960
  0
VERTEX
  8
0
  6
CONTINUOUS
 10
6.097520
 20
1.835680
  0
VERTEX
  8
0
  6
CONTINUOUS
 10
6.060120
 20
1.847560
  0
SEQEND
  8
0
  0
SOLID
  8
0
 62
    15
 10
6.097520
 20
1.835680
 11
6.093560
 21
2.566960
 12
6.131400
 22
1.828200
 13
6.127880
 23
2.559480
  0
POLYLINE
  8
0
  6
CONTINUOUS
 66
     1
 40
0.000000
 41
0.000000
  0
VERTEX
  8
0
  6
CONTINUOUS
 10
6.097520
 20
1.835680
  0
VERTEX
  8
0
  6
CONTINUOUS
 10
6.093560
 20
2.566960
  0
VERTEX
  8
0
  6
CONTINUOUS
 10
6.127880
 20
2.559480
  0
VERTEX
  8
0
  6
CONTINUOUS
 10
6.131400
 20
1.828200
  0
VERTEX
  8
0
  6
CONTINUOUS
 10
6.097520
 20
1.835680
  0
SEQEND
  8
0
  0
SOLID
  8
0
 62
    15
 10
6.131400
 20
1.828200
 11
6.127880
 21
2.559480
 12
6.163080
 22
1.825120
 13
6.159120
 23
2.555960
  0
POLYLINE
  8
0
  6
CONTINUOUS
 66
     1
 40
0.000000
 41
0.000000
  0
VERTEX
  8
0
  6
CONTINUOUS
 10
6.131400
 20
1.828200
  0
VERTEX
  8
0
  6
CONTINUOUS
 10
6.127880
 20
2.559480
  0
VERTEX
  8
0
  6
CONTINUOUS
 10
6.159120
 20
2.555960
  0
VERTEX
  8
0
  6
CONTINUOUS
 10
6.163080
 20
1.825120
  0
VERTEX
  8
0
  6
CONTINUOUS
 10
6.131400
 20
1.828200
  0
SEQEND
  8
0
  0
SOLID
  8
0
 62
    15
 10
6.163080
 20
1.825120
 11
6.159120
 21
2.555960
 12
6.191680
 22
1.825560
 13
6.188160
 23
2.556840
  0
POLYLINE
  8
0
  6
CONTINUOUS
 66
     1
 40
0.000000
 41
0.000000
  0
VERTEX
  8
0
  6
CONTINUOUS
 10
6.163080
 20
1.825120
  0
VERTEX
  8
0
  6
CONTINUOUS
 10
6.159120
 20
2.555960
  0
VERTEX
  8
0
  6
CONTINUOUS
 10
6.188160
 20
2.556840
  0
VERTEX
  8
0
  6
CONTINUOUS
 10
6.191680
 20
1.825560
  0
VERTEX
  8
0
  6
CONTINUOUS
 10
6.163080
 20
1.825120
  0
SEQEND
  8
0
  0
SOLID
  8
0
 62
    15
 10
6.191680
 20
1.825560
 11
6.188160
 21
2.556840
 12
6.218080
 22
1.829960
 13
6.214560
 23
2.560800
  0
POLYLINE
  8
0
  6
CONTINUOUS
 66
     1
 40
0.000000
 41
0.000000
  0
VERTEX
  8
0
  6
CONTINUOUS
 10
6.191680
 20
1.825560
  0
VERTEX
  8
0
  6
CONTINUOUS
 10
6.188160
 20
2.556840
  0
VERTEX
  8
0
  6
CONTINUOUS
 10
6.214560
 20
2.560800
  0
VERTEX
  8
0
  6
CONTINUOUS
 10
6.218080
 20
1.829960
  0
VERTEX
  8
0
  6
CONTINUOUS
 10
6.191680
 20
1.825560
  0
SEQEND
  8
0
  0
SOLID
  8
0
 62
    15
 10
6.218080
 20
1.829960
 11
6.214560
 21
2.560800
 12
6.242280
 22
1.837440
 13
6.238760
 23
2.568280
  0
POLYLINE
  8
0
  6
CONTINUOUS
 66
     1
 40
0.000000
 41
0.000000
  0
VERTEX
  8
0
  6
CONTINUOUS
 10
6.218080
 20
1.829960
  0
VERTEX
  8
0
  6
CONTINUOUS
 10
6.214560
 20
2.560800
  0
VERTEX
  8
0
  6
CONTINUOUS
 10
6.238760
 20
2.568280
  0
VERTEX
  8
0
  6
CONTINUOUS
 10
6.242280
 20
1.837440
  0
VERTEX
  8
0
  6
CONTINUOUS
 10
6.218080
 20
1.829960
  0
SEQEND
  8
0
  0
SOLID
  8
0
 62
    15
 10
6.242280
 20
1.837440
 11
6.238760
 21
2.568280
 12
6.284520
 22
1.861640
 13
6.280560
 23
2.592920
  0
POLYLINE
  8
0
  6
CONTINUOUS
 66
     1
 40
0.000000
 41
0.000000
  0
VERTEX
  8
0
  6
CONTINUOUS
 10
6.242280
 20
1.837440
  0
VERTEX
  8
0
  6
CONTINUOUS
 10
6.238760
 20
2.568280
  0
VERTEX
  8
0
  6
CONTINUOUS
 10
6.280560
 20
2.592920
  0
VERTEX
  8
0
  6
CONTINUOUS
 10
6.284520
 20
1.861640
  0
VERTEX
  8
0
  6
CONTINUOUS
 10
6.242280
 20
1.837440
  0
SEQEND
  8
0
  0
SOLID
  8
0
 62
    15
 10
6.284520
 20
1.861640
 11
6.280560
 21
2.592920
 12
6.319720
 22
1.896840
 13
6.315760
 23
2.627680
  0
POLYLINE
  8
0
  6
CONTINUOUS
 66
     1
 40
0.000000
 41
0.000000
  0
VERTEX
  8
0
  6
CONTINUOUS
 10
6.284520
 20
1.861640
  0
VERTEX
  8
0
  6
CONTINUOUS
 10
6.280560
 20
2.592920
  0
VERTEX
  8
0
  6
CONTINUOUS
 10
6.315760
 20
2.627680
  0
VERTEX
  8
0
  6
CONTINUOUS
 10
6.319720
 20
1.896840
  0
VERTEX
  8
0
  6
CONTINUOUS
 10
6.284520
 20
1.861640
  0
SEQEND
  8
0
  0
SOLID
  8
0
 62
    15
 10
6.319720
 20
1.896840
 11
6.315760
 21
2.627680
 12
6.349200
 22
1.940400
 13
6.345680
 23
2.671680
  0
POLYLINE
  8
0
  6
CONTINUOUS
 66
     1
 40
0.000000
 41
0.000000
  0
VERTEX
  8
0
  6
CONTINUOUS
 10
6.319720
 20
1.896840
  0
VERTEX
  8
0
  6
CONTINUOUS
 10
6.315760
 20
2.627680
  0
VERTEX
  8
0
  6
CONTINUOUS
 10
6.345680
 20
2.671680
  0
VERTEX
  8
0
  6
CONTINUOUS
 10
6.349200
 20
1.940400
  0
VERTEX
  8
0
  6
CONTINUOUS
 10
6.319720
 20
1.896840
  0
SEQEND
  8
0
  0
SOLID
  8
0
 62
    15
 10
6.349200
 20
1.940400
 11
6.345680
 21
2.671680
 12
6.375160
 22
1.991000
 13
6.371200
 23
2.721840
  0
POLYLINE
  8
0
  6
CONTINUOUS
 66
     1
 40
0.000000
 41
0.000000
  0
VERTEX
  8
0
  6
CONTINUOUS
 10
6.349200
 20
1.940400
  0
VERTEX
  8
0
  6
CONTINUOUS
 10
6.345680
 20
2.671680
  0
VERTEX
  8
0
  6
CONTINUOUS
 10
6.371200
 20
2.721840
  0
VERTEX
  8
0
  6
CONTINUOUS
 10
6.375160
 20
1.991000
  0
VERTEX
  8
0
  6
CONTINUOUS
 10
6.349200
 20
1.940400
  0
SEQEND
  8
0
  0
SOLID
  8
0
 62
    15
 10
6.375160
 20
1.991000
 11
6.371200
 21
2.721840
 12
7.161880
 22
1.991000
 13
7.158360
 23
2.721840
  0
POLYLINE
  8
0
  6
CONTINUOUS
 66
     1
 40
0.000000
 41
0.000000
  0
VERTEX
  8
0
  6
CONTINUOUS
 10
6.375160
 20
1.991000
  0
VERTEX
  8
0
  6
CONTINUOUS
 10
6.371200
 20
2.721840
  0
VERTEX
  8
0
  6
CONTINUOUS
 10
7.158360
 20
2.721840
  0
VERTEX
  8
0
  6
CONTINUOUS
 10
7.161880
 20
1.991000
  0
VERTEX
  8
0
  6
CONTINUOUS
 10
6.375160
 20
1.991000
  0
SEQEND
  8
0
  0
SOLID
  8
0
 62
    15
 10
2.225520
 20
1.990120
 11
2.221560
 21
2.720960
 12
2.993760
 22
1.990120
 13
2.990240
 23
2.720960
  0
POLYLINE
  8
0
  6
CONTINUOUS
 66
     1
 40
0.000000
 41
0.000000
  0
VERTEX
  8
0
  6
CONTINUOUS
 10
2.225520
 20
1.990120
  0
VERTEX
  8
0
  6
CONTINUOUS
 10
2.221560
 20
2.720960
  0
VERTEX
  8
0
  6
CONTINUOUS
 10
2.990240
 20
2.720960
  0
VERTEX
  8
0
  6
CONTINUOUS
 10
2.993760
 20
1.990120
  0
VERTEX
  8
0
  6
CONTINUOUS
 10
2.225520
 20
1.990120
  0
SEQEND
  8
0
  0
SOLID
  8
0
 62
    15
 10
4.681600
 20
1.982640
 11
4.678080
 21
2.713920
 12
4.711960
 22
1.982200
 13
4.708440
 23
2.713040
  0
POLYLINE
  8
0
  6
CONTINUOUS
 66
     1
 40
0.000000
 41
0.000000
  0
VERTEX
  8
0
  6
CONTINUOUS
 10
4.681600
 20
1.982640
  0
VERTEX
  8
0
  6
CONTINUOUS
 10
4.678080
 20
2.713920
  0
VERTEX
  8
0
  6
CONTINUOUS
 10
4.708440
 20
2.713040
  0
VERTEX
  8
0
  6
CONTINUOUS
 10
4.711960
 20
1.982200
  0
VERTEX
  8
0
  6
CONTINUOUS
 10
4.681600
 20
1.982640
  0
SEQEND
  8
0
  0
SOLID
  8
0
 62
    15
 10
2.993760
 20
1.990120
 11
2.990240
 21
2.720960
 12
3.020160
 22
1.939520
 13
3.016640
 23
2.670800
  0
POLYLINE
  8
0
  6
CONTINUOUS
 66
     1
 40
0.000000
 41
0.000000
  0
VERTEX
  8
0
  6
CONTINUOUS
 10
2.993760
 20
1.990120
  0
VERTEX
  8
0
  6
CONTINUOUS
 10
2.990240
 20
2.720960
  0
VERTEX
  8
0
  6
CONTINUOUS
 10
3.016640
 20
2.670800
  0
VERTEX
  8
0
  6
CONTINUOUS
 10
3.020160
 20
1.939520
  0
VERTEX
  8
0
  6
CONTINUOUS
 10
2.993760
 20
1.990120
  0
SEQEND
  8
0
  0
SOLID
  8
0
 62
    15
 10
3.020160
 20
1.939520
 11
3.016640
 21
2.670800
 12
3.052280
 22
1.895520
 13
3.048760
 23
2.626360
  0
POLYLINE
  8
0
  6
CONTINUOUS
 66
     1
 40
0.000000
 41
0.000000
  0
VERTEX
  8
0
  6
CONTINUOUS
 10
3.020160
 20
1.939520
  0
VERTEX
  8
0
  6
CONTINUOUS
 10
3.016640
 20
2.670800
  0
VERTEX
  8
0
  6
CONTINUOUS
 10
3.048760
 20
2.626360
  0
VERTEX
  8
0
  6
CONTINUOUS
 10
3.052280
 20
1.895520
  0
VERTEX
  8
0
  6
CONTINUOUS
 10
3.020160
 20
1.939520
  0
SEQEND
  8
0
  0
SOLID
  8
0
 62
    15
 10
3.052280
 20
1.895520
 11
3.048760
 21
2.626360
 12
3.091000
 22
1.859880
 13
3.087040
 23
2.591160
  0
POLYLINE
  8
0
  6
CONTINUOUS
 66
     1
 40
0.000000
 41
0.000000
  0
VERTEX
  8
0
  6
CONTINUOUS
 10
3.052280
 20
1.895520
  0
VERTEX
  8
0
  6
CONTINUOUS
 10
3.048760
 20
2.626360
  0
VERTEX
  8
0
  6
CONTINUOUS
 10
3.087040
 20
2.591160
  0
VERTEX
  8
0
  6
CONTINUOUS
 10
3.091000
 20
1.859880
  0
VERTEX
  8
0
  6
CONTINUOUS
 10
3.052280
 20
1.895520
  0
SEQEND
  8
0
  0
SOLID
  8
0
 62
    15
 10
3.091000
 20
1.859880
 11
3.087040
 21
2.591160
 12
3.136760
 22
1.835240
 13
3.133240
 23
2.566080
  0
POLYLINE
  8
0
  6
CONTINUOUS
 66
     1
 40
0.000000
 41
0.000000
  0
VERTEX
  8
0
  6
CONTINUOUS
 10
3.091000
 20
1.859880
  0
VERTEX
  8
0
  6
CONTINUOUS
 10
3.087040
 20
2.591160
  0
VERTEX
  8
0
  6
CONTINUOUS
 10
3.133240
 20
2.566080
  0
VERTEX
  8
0
  6
CONTINUOUS
 10
3.136760
 20
1.835240
  0
VERTEX
  8
0
  6
CONTINUOUS
 10
3.091000
 20
1.859880
  0
SEQEND
  8
0
  0
SOLID
  8
0
 62
    15
 10
3.136760
 20
1.835240
 11
3.133240
 21
2.566080
 12
3.190880
 22
1.822920
 13
3.187360
 23
2.553760
  0
POLYLINE
  8
0
  6
CONTINUOUS
 66
     1
 40
0.000000
 41
0.000000
  0
VERTEX
  8
0
  6
CONTINUOUS
 10
3.136760
 20
1.835240
  0
VERTEX
  8
0
  6
CONTINUOUS
 10
3.133240
 20
2.566080
  0
VERTEX
  8
0
  6
CONTINUOUS
 10
3.187360
 20
2.553760
  0
VERTEX
  8
0
  6
CONTINUOUS
 10
3.190880
 20
1.822920
  0
VERTEX
  8
0
  6
CONTINUOUS
 10
3.136760
 20
1.835240
  0
SEQEND
  8
0
  0
SOLID
  8
0
 62
    15
 10
3.190880
 20
1.822920
 11
3.187360
 21
2.553760
 12
3.221240
 22
1.822040
 13
3.217720
 23
2.552880
  0
POLYLINE
  8
0
  6
CONTINUOUS
 66
     1
 40
0.000000
 41
0.000000
  0
VERTEX
  8
0
  6
CONTINUOUS
 10
3.190880
 20
1.822920
  0
VERTEX
  8
0
  6
CONTINUOUS
 10
3.187360
 20
2.553760
  0
VERTEX
  8
0
  6
CONTINUOUS
 10
3.217720
 20
2.552880
  0
VERTEX
  8
0
  6
CONTINUOUS
 10
3.221240
 20
1.822040
  0
VERTEX
  8
0
  6
CONTINUOUS
 10
3.190880
 20
1.822920
  0
SEQEND
  8
0
  0
SOLID
  8
0
 62
    15
 10
3.221240
 20
1.822040
 11
3.217720
 21
2.552880
 12
3.254240
 22
1.825120
 13
3.250720
 23
2.555960
  0
POLYLINE
  8
0
  6
CONTINUOUS
 66
     1
 40
0.000000
 41
0.000000
  0
VERTEX
  8
0
  6
CONTINUOUS
 10
3.221240
 20
1.822040
  0
VERTEX
  8
0
  6
CONTINUOUS
 10
3.217720
 20
2.552880
  0
VERTEX
  8
0
  6
CONTINUOUS
 10
3.250720
 20
2.555960
  0
VERTEX
  8
0
  6
CONTINUOUS
 10
3.254240
 20
1.825120
  0
VERTEX
  8
0
  6
CONTINUOUS
 10
3.221240
 20
1.822040
  0
SEQEND
  8
0
  0
SOLID
  8
0
 62
    15
 10
3.254240
 20
1.825120
 11
3.250720
 21
2.555960
 12
3.289880
 22
1.832160
 13
3.286360
 23
2.563440
  0
POLYLINE
  8
0
  6
CONTINUOUS
 66
     1
 40
0.000000
 41
0.000000
  0
VERTEX
  8
0
  6
CONTINUOUS
 10
3.254240
 20
1.825120
  0
VERTEX
  8
0
  6
CONTINUOUS
 10
3.250720
 20
2.555960
  0
VERTEX
  8
0
  6
CONTINUOUS
 10
3.286360
 20
2.563440
  0
VERTEX
  8
0
  6
CONTINUOUS
 10
3.289880
 20
1.832160
  0
VERTEX
  8
0
  6
CONTINUOUS
 10
3.254240
 20
1.825120
  0
SEQEND
  8
0
  0
SOLID
  8
0
 62
    15
 10
3.289880
 20
1.832160
 11
3.286360
 21
2.563440
 12
3.328160
 22
1.844040
 13
3.324640
 23
2.574880
  0
POLYLINE
  8
0
  6
CONTINUOUS
 66
     1
 40
0.000000
 41
0.000000
  0
VERTEX
  8
0
  6
CONTINUOUS
 10
3.289880
 20
1.832160
  0
VERTEX
  8
0
  6
CONTINUOUS
 10
3.286360
 20
2.563440
  0
VERTEX
  8
0
  6
CONTINUOUS
 10
3.324640
 20
2.574880
  0
VERTEX
  8
0
  6
CONTINUOUS
 10
3.328160
 20
1.844040
  0
VERTEX
  8
0
  6
CONTINUOUS
 10
3.289880
 20
1.832160
  0
SEQEND
  8
0
  0
SOLID
  8
0
 62
    15
 10
3.328160
 20
1.844040
 11
3.324640
 21
2.574880
 12
3.369080
 22
1.860320
 13
3.365560
 23
2.591160
  0
POLYLINE
  8
0
  6
CONTINUOUS
 66
     1
 40
0.000000
 41
0.000000
  0
VERTEX
  8
0
  6
CONTINUOUS
 10
3.328160
 20
1.844040
  0
VERTEX
  8
0
  6
CONTINUOUS
 10
3.324640
 20
2.574880
  0
VERTEX
  8
0
  6
CONTINUOUS
 10
3.365560
 20
2.591160
  0
VERTEX
  8
0
  6
CONTINUOUS
 10
3.369080
 20
1.860320
  0
VERTEX
  8
0
  6
CONTINUOUS
 10
3.328160
 20
1.844040
  0
SEQEND
  8
0
  0
SOLID
  8
0
 62
    15
 10
3.369080
 20
1.860320
 11
3.365560
 21
2.591160
 12
3.413080
 22
1.881440
 13
3.409560
 23
2.612280
  0
POLYLINE
  8
0
  6
CONTINUOUS
 66
     1
 40
0.000000
 41
0.000000
  0
VERTEX
  8
0
  6
CONTINUOUS
 10
3.369080
 20
1.860320
  0
VERTEX
  8
0
  6
CONTINUOUS
 10
3.365560
 20
2.591160
  0
VERTEX
  8
0
  6
CONTINUOUS
 10
3.409560
 20
2.612280
  0
VERTEX
  8
0
  6
CONTINUOUS
 10
3.413080
 20
1.881440
  0
VERTEX
  8
0
  6
CONTINUOUS
 10
3.369080
 20
1.860320
  0
SEQEND
  8
0
  0
SOLID
  8
0
 62
    15
 10
3.413080
 20
1.881440
 11
3.409560
 21
2.612280
 12
3.456640
 22
1.902560
 13
3.452680
 23
2.633840
  0
POLYLINE
  8
0
  6
CONTINUOUS
 66
     1
 40
0.000000
 41
0.000000
  0
VERTEX
  8
0
  6
CONTINUOUS
 10
3.413080
 20
1.881440
  0
VERTEX
  8
0
  6
CONTINUOUS
 10
3.409560
 20
2.612280
  0
VERTEX
  8
0
  6
CONTINUOUS
 10
3.452680
 20
2.633840
  0
VERTEX
  8
0
  6
CONTINUOUS
 10
3.456640
 20
1.902560
  0
VERTEX
  8
0
  6
CONTINUOUS
 10
3.413080
 20
1.881440
  0
SEQEND
  8
0
  0
SOLID
  8
0
 62
    15
 10
3.456640
 20
1.902560
 11
3.452680
 21
2.633840
 12
3.496240
 22
1.918840
 13
3.492720
 23
2.649680
  0
POLYLINE
  8
0
  6
CONTINUOUS
 66
     1
 40
0.000000
 41
0.000000
  0
VERTEX
  8
0
  6
CONTINUOUS
 10
3.456640
 20
1.902560
  0
VERTEX
  8
0
  6
CONTINUOUS
 10
3.452680
 20
2.633840
  0
VERTEX
  8
0
  6
CONTINUOUS
 10
3.492720
 20
2.649680
  0
VERTEX
  8
0
  6
CONTINUOUS
 10
3.496240
 20
1.918840
  0
VERTEX
  8
0
  6
CONTINUOUS
 10
3.456640
 20
1.902560
  0
SEQEND
  8
0
  0
SOLID
  8
0
 62
    15
 10
3.496240
 20
1.918840
 11
3.492720
 21
2.649680
 12
3.532760
 22
1.930280
 13
3.528800
 23
2.661560
  0
POLYLINE
  8
0
  6
CONTINUOUS
 66
     1
 40
0.000000
 41
0.000000
  0
VERTEX
  8
0
  6
CONTINUOUS
 10
3.496240
 20
1.918840
  0
VERTEX
  8
0
  6
CONTINUOUS
 10
3.492720
 20
2.649680
  0
VERTEX
  8
0
  6
CONTINUOUS
 10
3.528800
 20
2.661560
  0
VERTEX
  8
0
  6
CONTINUOUS
 10
3.532760
 20
1.930280
  0
VERTEX
  8
0
  6
CONTINUOUS
 10
3.496240
 20
1.918840
  0
SEQEND
  8
0
  0
SOLID
  8
0
 62
    15
 10
3.532760
 20
1.930280
 11
3.528800
 21
2.661560
 12
3.565760
 22
1.937760
 13
3.562240
 23
2.669040
  0
POLYLINE
  8
0
  6
CONTINUOUS
 66
     1
 40
0.000000
 41
0.000000
  0
VERTEX
  8
0
  6
CONTINUOUS
 10
3.532760
 20
1.930280
  0
VERTEX
  8
0
  6
CONTINUOUS
 10
3.528800
 20
2.661560
  0
VERTEX
  8
0
  6
CONTINUOUS
 10
3.562240
 20
2.669040
  0
VERTEX
  8
0
  6
CONTINUOUS
 10
3.565760
 20
1.937760
  0
VERTEX
  8
0
  6
CONTINUOUS
 10
3.532760
 20
1.930280
  0
SEQEND
  8
0
  0
SOLID
  8
0
 62
    15
 10
3.565760
 20
1.937760
 11
3.562240
 21
2.669040
 12
3.595680
 22
1.941280
 13
3.592160
 23
2.672560
  0
POLYLINE
  8
0
  6
CONTINUOUS
 66
     1
 40
0.000000
 41
0.000000
  0
VERTEX
  8
0
  6
CONTINUOUS
 10
3.565760
 20
1.937760
  0
VERTEX
  8
0
  6
CONTINUOUS
 10
3.562240
 20
2.669040
  0
VERTEX
  8
0
  6
CONTINUOUS
 10
3.592160
 20
2.672560
  0
VERTEX
  8
0
  6
CONTINUOUS
 10
3.595680
 20
1.941280
  0
VERTEX
  8
0
  6
CONTINUOUS
 10
3.565760
 20
1.937760
  0
SEQEND
  8
0
  0
SOLID
  8
0
 62
    15
 10
3.595680
 20
1.941280
 11
3.592160
 21
2.672560
 12
3.622960
 22
1.941720
 13
3.619440
 23
2.672560
  0
POLYLINE
  8
0
  6
CONTINUOUS
 66
     1
 40
0.000000
 41
0.000000
  0
VERTEX
  8
0
  6
CONTINUOUS
 10
3.595680
 20
1.941280
  0
VERTEX
  8
0
  6
CONTINUOUS
 10
3.592160
 20
2.672560
  0
VERTEX
  8
0
  6
CONTINUOUS
 10
3.619440
 20
2.672560
  0
VERTEX
  8
0
  6
CONTINUOUS
 10
3.622960
 20
1.941720
  0
VERTEX
  8
0
  6
CONTINUOUS
 10
3.595680
 20
1.941280
  0
SEQEND
  8
0
  0
SOLID
  8
0
 62
    15
 10
3.622960
 20
1.941720
 11
3.619440
 21
2.672560
 12
3.670040
 22
1.932920
 13
3.666520
 23
2.664200
  0
POLYLINE
  8
0
  6
CONTINUOUS
 66
     1
 40
0.000000
 41
0.000000
  0
VERTEX
  8
0
  6
CONTINUOUS
 10
3.622960
 20
1.941720
  0
VERTEX
  8
0
  6
CONTINUOUS
 10
3.619440
 20
2.672560
  0
VERTEX
  8
0
  6
CONTINUOUS
 10
3.666520
 20
2.664200
  0
VERTEX
  8
0
  6
CONTINUOUS
 10
3.670040
 20
1.932920
  0
VERTEX
  8
0
  6
CONTINUOUS
 10
3.622960
 20
1.941720
  0
SEQEND
  8
0
  0
SOLID
  8
0
 62
    15
 10
3.670040
 20
1.932920
 11
3.666520
 21
2.664200
 12
3.708320
 22
1.915320
 13
3.704800
 23
2.646160
  0
POLYLINE
  8
0
  6
CONTINUOUS
 66
     1
 40
0.000000
 41
0.000000
  0
VERTEX
  8
0
  6
CONTINUOUS
 10
3.670040
 20
1.932920
  0
VERTEX
  8
0
  6
CONTINUOUS
 10
3.666520
 20
2.664200
  0
VERTEX
  8
0
  6
CONTINUOUS
 10
3.704800
 20
2.646160
  0
VERTEX
  8
0
  6
CONTINUOUS
 10
3.708320
 20
1.915320
  0
VERTEX
  8
0
  6
CONTINUOUS
 10
3.670040
 20
1.932920
  0
SEQEND
  8
0
  0
SOLID
  8
0
 62
    15
 10
3.708320
 20
1.915320
 11
3.704800
 21
2.646160
 12
3.740000
 22
1.891560
 13
3.736040
 23
2.622400
  0
POLYLINE
  8
0
  6
CONTINUOUS
 66
     1
 40
0.000000
 41
0.000000
  0
VERTEX
  8
0
  6
CONTINUOUS
 10
3.708320
 20
1.915320
  0
VERTEX
  8
0
  6
CONTINUOUS
 10
3.704800
 20
2.646160
  0
VERTEX
  8
0
  6
CONTINUOUS
 10
3.736040
 20
2.622400
  0
VERTEX
  8
0
  6
CONTINUOUS
 10
3.740000
 20
1.891560
  0
VERTEX
  8
0
  6
CONTINUOUS
 10
3.708320
 20
1.915320
  0
SEQEND
  8
0
  0
SOLID
  8
0
 62
    15
 10
3.740000
 20
1.891560
 11
3.736040
 21
2.622400
 12
3.766400
 22
1.864720
 13
3.762440
 23
2.595560
  0
POLYLINE
  8
0
  6
CONTINUOUS
 66
     1
 40
0.000000
 41
0.000000
  0
VERTEX
  8
0
  6
CONTINUOUS
 10
3.740000
 20
1.891560
  0
VERTEX
  8
0
  6
CONTINUOUS
 10
3.736040
 20
2.622400
  0
VERTEX
  8
0
  6
CONTINUOUS
 10
3.762440
 20
2.595560
  0
VERTEX
  8
0
  6
CONTINUOUS
 10
3.766400
 20
1.864720
  0
VERTEX
  8
0
  6
CONTINUOUS
 10
3.740000
 20
1.891560
  0
SEQEND
  8
0
  0
SOLID
  8
0
 62
    15
 10
3.766400
 20
1.864720
 11
3.762440
 21
2.595560
 12
3.778280
 22
1.850640
 13
3.774320
 23
2.581920
  0
POLYLINE
  8
0
  6
CONTINUOUS
 66
     1
 40
0.000000
 41
0.000000
  0
VERTEX
  8
0
  6
CONTINUOUS
 10
3.766400
 20
1.864720
  0
VERTEX
  8
0
  6
CONTINUOUS
 10
3.762440
 20
2.595560
  0
VERTEX
  8
0
  6
CONTINUOUS
 10
3.774320
 20
2.581920
  0
VERTEX
  8
0
  6
CONTINUOUS
 10
3.778280
 20
1.850640
  0
VERTEX
  8
0
  6
CONTINUOUS
 10
3.766400
 20
1.864720
  0
SEQEND
  8
0
  0
SOLID
  8
0
 62
    15
 10
3.778280
 20
1.850640
 11
3.774320
 21
2.581920
 12
3.789280
 22
1.837440
 13
3.785760
 23
2.568720
  0
POLYLINE
  8
0
  6
CONTINUOUS
 66
     1
 40
0.000000
 41
0.000000
  0
VERTEX
  8
0
  6
CONTINUOUS
 10
3.778280
 20
1.850640
  0
VERTEX
  8
0
  6
CONTINUOUS
 10
3.774320
 20
2.581920
  0
VERTEX
  8
0
  6
CONTINUOUS
 10
3.785760
 20
2.568720
  0
VERTEX
  8
0
  6
CONTINUOUS
 10
3.789280
 20
1.837440
  0
VERTEX
  8
0
  6
CONTINUOUS
 10
3.778280
 20
1.850640
  0
SEQEND
  8
0
  0
SOLID
  8
0
 62
    15
 10
3.789280
 20
1.837440
 11
3.785760
 21
2.568720
 12
3.870240
 22
1.910480
 13
3.866720
 23
2.641760
  0
POLYLINE
  8
0
  6
CONTINUOUS
 66
     1
 40
0.000000
 41
0.000000
  0
VERTEX
  8
0
  6
CONTINUOUS
 10
3.789280
 20
1.837440
  0
VERTEX
  8
0
  6
CONTINUOUS
 10
3.785760
 20
2.568720
  0
VERTEX
  8
0
  6
CONTINUOUS
 10
3.866720
 20
2.641760
  0
VERTEX
  8
0
  6
CONTINUOUS
 10
3.870240
 20
1.910480
  0
VERTEX
  8
0
  6
CONTINUOUS
 10
3.789280
 20
1.837440
  0
SEQEND
  8
0
  0
SOLID
  8
0
 62
    15
 10
3.870240
 20
1.910480
 11
3.866720
 21
2.641760
 12
3.897520
 22
1.884960
 13
3.894000
 23
2.616240
  0
POLYLINE
  8
0
  6
CONTINUOUS
 66
     1
 40
0.000000
 41
0.000000
  0
VERTEX
  8
0
  6
CONTINUOUS
 10
3.870240
 20
1.910480
  0
VERTEX
  8
0
  6
CONTINUOUS
 10
3.866720
 20
2.641760
  0
VERTEX
  8
0
  6
CONTINUOUS
 10
3.894000
 20
2.616240
  0
VERTEX
  8
0
  6
CONTINUOUS
 10
3.897520
 20
1.884960
  0
VERTEX
  8
0
  6
CONTINUOUS
 10
3.870240
 20
1.910480
  0
SEQEND
  8
0
  0
SOLID
  8
0
 62
    15
 10
3.897520
 20
1.884960
 11
3.894000
 21
2.616240
 12
3.923920
 22
1.866480
 13
3.920400
 23
2.597320
  0
POLYLINE
  8
0
  6
CONTINUOUS
 66
     1
 40
0.000000
 41
0.000000
  0
VERTEX
  8
0
  6
CONTINUOUS
 10
3.897520
 20
1.884960
  0
VERTEX
  8
0
  6
CONTINUOUS
 10
3.894000
 20
2.616240
  0
VERTEX
  8
0
  6
CONTINUOUS
 10
3.920400
 20
2.597320
  0
VERTEX
  8
0
  6
CONTINUOUS
 10
3.923920
 20
1.866480
  0
VERTEX
  8
0
  6
CONTINUOUS
 10
3.897520
 20
1.884960
  0
SEQEND
  8
0
  0
SOLID
  8
0
 62
    15
 10
3.923920
 20
1.866480
 11
3.920400
 21
2.597320
 12
3.949000
 22
1.853280
 13
3.945480
 23
2.584120
  0
POLYLINE
  8
0
  6
CONTINUOUS
 66
     1
 40
0.000000
 41
0.000000
  0
VERTEX
  8
0
  6
CONTINUOUS
 10
3.923920
 20
1.866480
  0
VERTEX
  8
0
  6
CONTINUOUS
 10
3.920400
 20
2.597320
  0
VERTEX
  8
0
  6
CONTINUOUS
 10
3.945480
 20
2.584120
  0
VERTEX
  8
0
  6
CONTINUOUS
 10
3.949000
 20
1.853280
  0
VERTEX
  8
0
  6
CONTINUOUS
 10
3.923920
 20
1.866480
  0
SEQEND
  8
0
  0
SOLID
  8
0
 62
    15
 10
3.949000
 20
1.853280
 11
3.945480
 21
2.584120
 12
3.972320
 22
1.844480
 13
3.968800
 23
2.575760
  0
POLYLINE
  8
0
  6
CONTINUOUS
 66
     1
 40
0.000000
 41
0.000000
  0
VERTEX
  8
0
  6
CONTINUOUS
 10
3.949000
 20
1.853280
  0
VERTEX
  8
0
  6
CONTINUOUS
 10
3.945480
 20
2.584120
  0
VERTEX
  8
0
  6
CONTINUOUS
 10
3.968800
 20
2.575760
  0
VERTEX
  8
0
  6
CONTINUOUS
 10
3.972320
 20
1.844480
  0
VERTEX
  8
0
  6
CONTINUOUS
 10
3.949000
 20
1.853280
  0
SEQEND
  8
0
  0
SOLID
  8
0
 62
    15
 10
3.972320
 20
1.844480
 11
3.968800
 21
2.575760
 12
4.013240
 22
1.837440
 13
4.009280
 23
2.568720
  0
POLYLINE
  8
0
  6
CONTINUOUS
 66
     1
 40
0.000000
 41
0.000000
  0
VERTEX
  8
0
  6
CONTINUOUS
 10
3.972320
 20
1.844480
  0
VERTEX
  8
0
  6
CONTINUOUS
 10
3.968800
 20
2.575760
  0
VERTEX
  8
0
  6
CONTINUOUS
 10
4.009280
 20
2.568720
  0
VERTEX
  8
0
  6
CONTINUOUS
 10
4.013240
 20
1.837440
  0
VERTEX
  8
0
  6
CONTINUOUS
 10
3.972320
 20
1.844480
  0
SEQEND
  8
0
  0
SOLID
  8
0
 62
    15
 10
4.013240
 20
1.837440
 11
4.009280
 21
2.568720
 12
4.029960
 22
1.836560
 13
4.026440
 23
2.567840
  0
POLYLINE
  8
0
  6
CONTINUOUS
 66
     1
 40
0.000000
 41
0.000000
  0
VERTEX
  8
0
  6
CONTINUOUS
 10
4.013240
 20
1.837440
  0
VERTEX
  8
0
  6
CONTINUOUS
 10
4.009280
 20
2.568720
  0
VERTEX
  8
0
  6
CONTINUOUS
 10
4.026440
 20
2.567840
  0
VERTEX
  8
0
  6
CONTINUOUS
 10
4.029960
 20
1.836560
  0
VERTEX
  8
0
  6
CONTINUOUS
 10
4.013240
 20
1.837440
  0
SEQEND
  8
0
  0
SOLID
  8
0
 62
    15
 10
4.029960
 20
1.836560
 11
4.026440
 21
2.567840
 12
4.043600
 22
1.836560
 13
4.040080
 23
2.567400
  0
POLYLINE
  8
0
  6
CONTINUOUS
 66
     1
 40
0.000000
 41
0.000000
  0
VERTEX
  8
0
  6
CONTINUOUS
 10
4.029960
 20
1.836560
  0
VERTEX
  8
0
  6
CONTINUOUS
 10
4.026440
 20
2.567840
  0
VERTEX
  8
0
  6
CONTINUOUS
 10
4.040080
 20
2.567400
  0
VERTEX
  8
0
  6
CONTINUOUS
 10
4.043600
 20
1.836560
  0
VERTEX
  8
0
  6
CONTINUOUS
 10
4.029960
 20
1.836560
  0
SEQEND
  8
0
  0
SOLID
  8
0
 62
    15
 10
4.043600
 20
1.836560
 11
4.040080
 21
2.567400
 12
4.094200
 22
1.841400
 13
4.090680
 23
2.572680
  0
POLYLINE
  8
0
  6
CONTINUOUS
 66
     1
 40
0.000000
 41
0.000000
  0
VERTEX
  8
0
  6
CONTINUOUS
 10
4.043600
 20
1.836560
  0
VERTEX
  8
0
  6
CONTINUOUS
 10
4.040080
 20
2.567400
  0
VERTEX
  8
0
  6
CONTINUOUS
 10
4.090680
 20
2.572680
  0
VERTEX
  8
0
  6
CONTINUOUS
 10
4.094200
 20
1.841400
  0
VERTEX
  8
0
  6
CONTINUOUS
 10
4.043600
 20
1.836560
  0
SEQEND
  8
0
  0
SOLID
  8
0
 62
    15
 10
4.094200
 20
1.841400
 11
4.090680
 21
2.572680
 12
4.137320
 22
1.856360
 13
4.133800
 23
2.587200
  0
POLYLINE
  8
0
  6
CONTINUOUS
 66
     1
 40
0.000000
 41
0.000000
  0
VERTEX
  8
0
  6
CONTINUOUS
 10
4.094200
 20
1.841400
  0
VERTEX
  8
0
  6
CONTINUOUS
 10
4.090680
 20
2.572680
  0
VERTEX
  8
0
  6
CONTINUOUS
 10
4.133800
 20
2.587200
  0
VERTEX
  8
0
  6
CONTINUOUS
 10
4.137320
 20
1.856360
  0
VERTEX
  8
0
  6
CONTINUOUS
 10
4.094200
 20
1.841400
  0
SEQEND
  8
0
  0
SOLID
  8
0
 62
    15
 10
4.137320
 20
1.856360
 11
4.133800
 21
2.587200
 12
4.173400
 22
1.879680
 13
4.169880
 23
2.610520
  0
POLYLINE
  8
0
  6
CONTINUOUS
 66
     1
 40
0.000000
 41
0.000000
  0
VERTEX
  8
0
  6
CONTINUOUS
 10
4.137320
 20
1.856360
  0
VERTEX
  8
0
  6
CONTINUOUS
 10
4.133800
 20
2.587200
  0
VERTEX
  8
0
  6
CONTINUOUS
 10
4.169880
 20
2.610520
  0
VERTEX
  8
0
  6
CONTINUOUS
 10
4.173400
 20
1.879680
  0
VERTEX
  8
0
  6
CONTINUOUS
 10
4.137320
 20
1.856360
  0
SEQEND
  8
0
  0
SOLID
  8
0
 62
    15
 10
4.173400
 20
1.879680
 11
4.169880
 21
2.610520
 12
4.202440
 22
1.910920
 13
4.198920
 23
2.642200
  0
POLYLINE
  8
0
  6
CONTINUOUS
 66
     1
 40
0.000000
 41
0.000000
  0
VERTEX
  8
0
  6
CONTINUOUS
 10
4.173400
 20
1.879680
  0
VERTEX
  8
0
  6
CONTINUOUS
 10
4.169880
 20
2.610520
  0
VERTEX
  8
0
  6
CONTINUOUS
 10
4.198920
 20
2.642200
  0
VERTEX
  8
0
  6
CONTINUOUS
 10
4.202440
 20
1.910920
  0
VERTEX
  8
0
  6
CONTINUOUS
 10
4.173400
 20
1.879680
  0
SEQEND
  8
0
  0
SOLID
  8
0
 62
    15
 10
4.202440
 20
1.910920
 11
4.198920
 21
2.642200
 12
4.305840
 22
1.803120
 13
4.302320
 23
2.534400
  0
POLYLINE
  8
0
  6
CONTINUOUS
 66
     1
 40
0.000000
 41
0.000000
  0
VERTEX
  8
0
  6
CONTINUOUS
 10
4.202440
 20
1.910920
  0
VERTEX
  8
0
  6
CONTINUOUS
 10
4.198920
 20
2.642200
  0
VERTEX
  8
0
  6
CONTINUOUS
 10
4.302320
 20
2.534400
  0
VERTEX
  8
0
  6
CONTINUOUS
 10
4.305840
 20
1.803120
  0
VERTEX
  8
0
  6
CONTINUOUS
 10
4.202440
 20
1.910920
  0
SEQEND
  8
0
  0
SOLID
  8
0
 62
    15
 10
4.305840
 20
1.803120
 11
4.302320
 21
2.534400
 12
4.368760
 22
1.858560
 13
4.364800
 23
2.589400
  0
POLYLINE
  8
0
  6
CONTINUOUS
 66
     1
 40
0.000000
 41
0.000000
  0
VERTEX
  8
0
  6
CONTINUOUS
 10
4.305840
 20
1.803120
  0
VERTEX
  8
0
  6
CONTINUOUS
 10
4.302320
 20
2.534400
  0
VERTEX
  8
0
  6
CONTINUOUS
 10
4.364800
 20
2.589400
  0
VERTEX
  8
0
  6
CONTINUOUS
 10
4.368760
 20
1.858560
  0
VERTEX
  8
0
  6
CONTINUOUS
 10
4.305840
 20
1.803120
  0
SEQEND
  8
0
  0
SOLID
  8
0
 62
    15
 10
4.368760
 20
1.858560
 11
4.364800
 21
2.589400
 12
4.427720
 22
1.900800
 13
4.424200
 23
2.631640
  0
POLYLINE
  8
0
  6
CONTINUOUS
 66
     1
 40
0.000000
 41
0.000000
  0
VERTEX
  8
0
  6
CONTINUOUS
 10
4.368760
 20
1.858560
  0
VERTEX
  8
0
  6
CONTINUOUS
 10
4.364800
 20
2.589400
  0
VERTEX
  8
0
  6
CONTINUOUS
 10
4.424200
 20
2.631640
  0
VERTEX
  8
0
  6
CONTINUOUS
 10
4.427720
 20
1.900800
  0
VERTEX
  8
0
  6
CONTINUOUS
 10
4.368760
 20
1.858560
  0
SEQEND
  8
0
  0
SOLID
  8
0
 62
    15
 10
4.427720
 20
1.900800
 11
4.424200
 21
2.631640
 12
4.482720
 22
1.932040
 13
4.479200
 23
2.662880
  0
POLYLINE
  8
0
  6
CONTINUOUS
 66
     1
 40
0.000000
 41
0.000000
  0
VERTEX
  8
0
  6
CONTINUOUS
 10
4.427720
 20
1.900800
  0
VERTEX
  8
0
  6
CONTINUOUS
 10
4.424200
 20
2.631640
  0
VERTEX
  8
0
  6
CONTINUOUS
 10
4.479200
 20
2.662880
  0
VERTEX
  8
0
  6
CONTINUOUS
 10
4.482720
 20
1.932040
  0
VERTEX
  8
0
  6
CONTINUOUS
 10
4.427720
 20
1.900800
  0
SEQEND
  8
0
  0
SOLID
  8
0
 62
    15
 10
4.482720
 20
1.932040
 11
4.479200
 21
2.662880
 12
4.533320
 22
1.953600
 13
4.529800
 23
2.684880
  0
POLYLINE
  8
0
  6
CONTINUOUS
 66
     1
 40
0.000000
 41
0.000000
  0
VERTEX
  8
0
  6
CONTINUOUS
 10
4.482720
 20
1.932040
  0
VERTEX
  8
0
  6
CONTINUOUS
 10
4.479200
 20
2.662880
  0
VERTEX
  8
0
  6
CONTINUOUS
 10
4.529800
 20
2.684880
  0
VERTEX
  8
0
  6
CONTINUOUS
 10
4.533320
 20
1.953600
  0
VERTEX
  8
0
  6
CONTINUOUS
 10
4.482720
 20
1.932040
  0
SEQEND
  8
0
  0
SOLID
  8
0
 62
    15
 10
4.533320
 20
1.953600
 11
4.529800
 21
2.684880
 12
4.578640
 22
1.967680
 13
4.575120
 23
2.698960
  0
POLYLINE
  8
0
  6
CONTINUOUS
 66
     1
 40
0.000000
 41
0.000000
  0
VERTEX
  8
0
  6
CONTINUOUS
 10
4.533320
 20
1.953600
  0
VERTEX
  8
0
  6
CONTINUOUS
 10
4.529800
 20
2.684880
  0
VERTEX
  8
0
  6
CONTINUOUS
 10
4.575120
 20
2.698960
  0
VERTEX
  8
0
  6
CONTINUOUS
 10
4.578640
 20
1.967680
  0
VERTEX
  8
0
  6
CONTINUOUS
 10
4.533320
 20
1.953600
  0
SEQEND
  8
0
  0
SOLID
  8
0
 62
    15
 10
4.578640
 20
1.967680
 11
4.575120
 21
2.698960
 12
4.618680
 22
1.976040
 13
4.615160
 23
2.707320
  0
POLYLINE
  8
0
  6
CONTINUOUS
 66
     1
 40
0.000000
 41
0.000000
  0
VERTEX
  8
0
  6
CONTINUOUS
 10
4.578640
 20
1.967680
  0
VERTEX
  8
0
  6
CONTINUOUS
 10
4.575120
 20
2.698960
  0
VERTEX
  8
0
  6
CONTINUOUS
 10
4.615160
 20
2.707320
  0
VERTEX
  8
0
  6
CONTINUOUS
 10
4.618680
 20
1.976040
  0
VERTEX
  8
0
  6
CONTINUOUS
 10
4.578640
 20
1.967680
  0
SEQEND
  8
0
  0
SOLID
  8
0
 62
    15
 10
4.618680
 20
1.976040
 11
4.615160
 21
2.707320
 12
4.652560
 22
1.980440
 13
4.648600
 23
2.711280
  0
POLYLINE
  8
0
  6
CONTINUOUS
 66
     1
 40
0.000000
 41
0.000000
  0
VERTEX
  8
0
  6
CONTINUOUS
 10
4.618680
 20
1.976040
  0
VERTEX
  8
0
  6
CONTINUOUS
 10
4.615160
 20
2.707320
  0
VERTEX
  8
0
  6
CONTINUOUS
 10
4.648600
 20
2.711280
  0
VERTEX
  8
0
  6
CONTINUOUS
 10
4.652560
 20
1.980440
  0
VERTEX
  8
0
  6
CONTINUOUS
 10
4.618680
 20
1.976040
  0
SEQEND
  8
0
  0
SOLID
  8
0
 62
    15
 10
4.652560
 20
1.980440
 11
4.648600
 21
2.711280
 12
4.679400
 22
1.982200
 13
4.675880
 23
2.713040
  0
POLYLINE
  8
0
  6
CONTINUOUS
 66
     1
 40
0.000000
 41
0.000000
  0
VERTEX
  8
0
  6
CONTINUOUS
 10
4.652560
 20
1.980440
  0
VERTEX
  8
0
  6
CONTINUOUS
 10
4.648600
 20
2.711280
  0
VERTEX
  8
0
  6
CONTINUOUS
 10
4.675880
 20
2.713040
  0
VERTEX
  8
0
  6
CONTINUOUS
 10
4.679400
 20
1.982200
  0
VERTEX
  8
0
  6
CONTINUOUS
 10
4.652560
 20
1.980440
  0
SEQEND
  8
0
  0
SOLID
  8
0
 62
    15
 10
4.679400
 20
1.982200
 11
4.675880
 21
2.713040
 12
4.681600
 22
1.982640
 13
4.678080
 23
2.713920
  0
POLYLINE
  8
0
  6
CONTINUOUS
 66
     1
 40
0.000000
 41
0.000000
  0
VERTEX
  8
0
  6
CONTINUOUS
 10
4.679400
 20
1.982200
  0
VERTEX
  8
0
  6
CONTINUOUS
 10
4.675880
 20
2.713040
  0
VERTEX
  8
0
  6
CONTINUOUS
 10
4.678080
 20
2.713920
  0
VERTEX
  8
0
  6
CONTINUOUS
 10
4.681600
 20
1.982640
  0
VERTEX
  8
0
  6
CONTINUOUS
 10
4.679400
 20
1.982200
  0
SEQEND
  8
0
  0
POLYLINE
  8
0
  6
CONTINUOUS
 66
     1
 40
0.000000
 41
0.000000
  0
VERTEX
  8
0
  6
CONTINUOUS
 10
4.681600
 20
1.982640
  0
VERTEX
  8
0
  6
CONTINUOUS
 10
4.711960
 20
1.982200
  0
VERTEX
  8
0
  6
CONTINUOUS
 10
4.752440
 20
1.978680
  0
VERTEX
  8
0
  6
CONTINUOUS
 10
4.801280
 20
1.970760
  0
VERTEX
  8
0
  6
CONTINUOUS
 10
4.855840
 20
1.956240
  0
VERTEX
  8
0
  6
CONTINUOUS
 10
4.914800
 20
1.933800
  0
VERTEX
  8
0
  6
CONTINUOUS
 10
4.975960
 20
1.902120
  0
VERTEX
  8
0
  6
CONTINUOUS
 10
5.037560
 20
1.858560
  0
VERTEX
  8
0
  6
CONTINUOUS
 10
5.097400
 20
1.802240
  0
VERTEX
  8
0
  6
CONTINUOUS
 10
5.199920
 20
1.893320
  0
VERTEX
  8
0
  6
CONTINUOUS
 10
5.226760
 20
1.864720
  0
VERTEX
  8
0
  6
CONTINUOUS
 10
5.258440
 20
1.846680
  0
VERTEX
  8
0
  6
CONTINUOUS
 10
5.297160
 20
1.837440
  0
VERTEX
  8
0
  6
CONTINUOUS
 10
5.345560
 20
1.835240
  0
VERTEX
  8
0
  6
CONTINUOUS
 10
5.376800
 20
1.837440
  0
VERTEX
  8
0
  6
CONTINUOUS
 10
5.418160
 20
1.847560
  0
VERTEX
  8
0
  6
CONTINUOUS
 10
5.441920
 20
1.857680
  0
VERTEX
  8
0
  6
CONTINUOUS
 10
5.467440
 20
1.872200
  0
VERTEX
  8
0
  6
CONTINUOUS
 10
5.493840
 20
1.892000
  0
VERTEX
  8
0
  6
CONTINUOUS
 10
5.521560
 20
1.917960
  0
VERTEX
  8
0
  6
CONTINUOUS
 10
5.593280
 20
1.854160
  0
VERTEX
  8
0
  6
CONTINUOUS
 10
5.616160
 20
1.880560
  0
VERTEX
  8
0
  6
CONTINUOUS
 10
5.643440
 20
1.906080
  0
VERTEX
  8
0
  6
CONTINUOUS
 10
5.676000
 20
1.928080
  0
VERTEX
  8
0
  6
CONTINUOUS
 10
5.716040
 20
1.943040
  0
VERTEX
  8
0
  6
CONTINUOUS
 10
5.764000
 20
1.949200
  0
VERTEX
  8
0
  6
CONTINUOUS
 10
5.792160
 20
1.948320
  0
VERTEX
  8
0
  6
CONTINUOUS
 10
5.822520
 20
1.943480
  0
VERTEX
  8
0
  6
CONTINUOUS
 10
5.855960
 20
1.935560
  0
VERTEX
  8
0
  6
CONTINUOUS
 10
5.892920
 20
1.923240
  0
VERTEX
  8
0
  6
CONTINUOUS
 10
5.932960
 20
1.906520
  0
VERTEX
  8
0
  6
CONTINUOUS
 10
6.020080
 20
1.863840
  0
VERTEX
  8
0
  6
CONTINUOUS
 10
6.060120
 20
1.847560
  0
VERTEX
  8
0
  6
CONTINUOUS
 10
6.097520
 20
1.835680
  0
VERTEX
  8
0
  6
CONTINUOUS
 10
6.131400
 20
1.828200
  0
VERTEX
  8
0
  6
CONTINUOUS
 10
6.163080
 20
1.825120
  0
VERTEX
  8
0
  6
CONTINUOUS
 10
6.191680
 20
1.825560
  0
VERTEX
  8
0
  6
CONTINUOUS
 10
6.218080
 20
1.829960
  0
VERTEX
  8
0
  6
CONTINUOUS
 10
6.242280
 20
1.837440
  0
VERTEX
  8
0
  6
CONTINUOUS
 10
6.284520
 20
1.861640
  0
VERTEX
  8
0
  6
CONTINUOUS
 10
6.319720
 20
1.896840
  0
VERTEX
  8
0
  6
CONTINUOUS
 10
6.349200
 20
1.940400
  0
VERTEX
  8
0
  6
CONTINUOUS
 10
6.375160
 20
1.991000
  0
VERTEX
  8
0
  6
CONTINUOUS
 10
7.161880
 20
1.991000
  0
VERTEX
  8
0
  6
CONTINUOUS
 10
7.161440
 20
1.120680
  0
VERTEX
  8
0
  6
CONTINUOUS
 10
2.225520
 20
1.119800
  0
VERTEX
  8
0
  6
CONTINUOUS
 10
2.225520
 20
1.990120
  0
VERTEX
  8
0
  6
CONTINUOUS
 10
2.993760
 20
1.990120
  0
VERTEX
  8
0
  6
CONTINUOUS
 10
3.020160
 20
1.939520
  0
VERTEX
  8
0
  6
CONTINUOUS
 10
3.052280
 20
1.895520
  0
VERTEX
  8
0
  6
CONTINUOUS
 10
3.091000
 20
1.859880
  0
VERTEX
  8
0
  6
CONTINUOUS
 10
3.136760
 20
1.835240
  0
VERTEX
  8
0
  6
CONTINUOUS
 10
3.190880
 20
1.822920
  0
VERTEX
  8
0
  6
CONTINUOUS
 10
3.221240
 20
1.822040
  0
VERTEX
  8
0
  6
CONTINUOUS
 10
3.254240
 20
1.825120
  0
VERTEX
  8
0
  6
CONTINUOUS
 10
3.289880
 20
1.832160
  0
VERTEX
  8
0
  6
CONTINUOUS
 10
3.328160
 20
1.844040
  0
VERTEX
  8
0
  6
CONTINUOUS
 10
3.369080
 20
1.860320
  0
VERTEX
  8
0
  6
CONTINUOUS
 10
3.456640
 20
1.902560
  0
VERTEX
  8
0
  6
CONTINUOUS
 10
3.496240
 20
1.918840
  0
VERTEX
  8
0
  6
CONTINUOUS
 10
3.532760
 20
1.930280
  0
VERTEX
  8
0
  6
CONTINUOUS
 10
3.565760
 20
1.937760
  0
VERTEX
  8
0
  6
CONTINUOUS
 10
3.595680
 20
1.941280
  0
VERTEX
  8
0
  6
CONTINUOUS
 10
3.622960
 20
1.941720
  0
VERTEX
  8
0
  6
CONTINUOUS
 10
3.670040
 20
1.932920
  0
VERTEX
  8
0
  6
CONTINUOUS
 10
3.708320
 20
1.915320
  0
VERTEX
  8
0
  6
CONTINUOUS
 10
3.740000
 20
1.891560
  0
VERTEX
  8
0
  6
CONTINUOUS
 10
3.766400
 20
1.864720
  0
VERTEX
  8
0
  6
CONTINUOUS
 10
3.789280
 20
1.837440
  0
VERTEX
  8
0
  6
CONTINUOUS
 10
3.870240
 20
1.910480
  0
VERTEX
  8
0
  6
CONTINUOUS
 10
3.897520
 20
1.884960
  0
VERTEX
  8
0
  6
CONTINUOUS
 10
3.923920
 20
1.866480
  0
VERTEX
  8
0
  6
CONTINUOUS
 10
3.949000
 20
1.853280
  0
VERTEX
  8
0
  6
CONTINUOUS
 10
3.972320
 20
1.844480
  0
VERTEX
  8
0
  6
CONTINUOUS
 10
4.013240
 20
1.837440
  0
VERTEX
  8
0
  6
CONTINUOUS
 10
4.043600
 20
1.836560
  0
VERTEX
  8
0
  6
CONTINUOUS
 10
4.094200
 20
1.841400
  0
VERTEX
  8
0
  6
CONTINUOUS
 10
4.137320
 20
1.856360
  0
VERTEX
  8
0
  6
CONTINUOUS
 10
4.173400
 20
1.879680
  0
VERTEX
  8
0
  6
CONTINUOUS
 10
4.202440
 20
1.910920
  0
VERTEX
  8
0
  6
CONTINUOUS
 10
4.305840
 20
1.803120
  0
VERTEX
  8
0
  6
CONTINUOUS
 10
4.368760
 20
1.858560
  0
VERTEX
  8
0
  6
CONTINUOUS
 10
4.427720
 20
1.900800
  0
VERTEX
  8
0
  6
CONTINUOUS
 10
4.482720
 20
1.932040
  0
VERTEX
  8
0
  6
CONTINUOUS
 10
4.533320
 20
1.953600
  0
VERTEX
  8
0
  6
CONTINUOUS
 10
4.578640
 20
1.967680
  0
VERTEX
  8
0
  6
CONTINUOUS
 10
4.618680
 20
1.976040
  0
VERTEX
  8
0
  6
CONTINUOUS
 10
4.652560
 20
1.980440
  0
VERTEX
  8
0
  6
CONTINUOUS
 10
4.681600
 20
1.982640
  0
SEQEND
  8
0
  0
TEXT
  8
0
 10
4.396040
 20
0.875600
 40
0.138006
  1
BA  891
 41
1.000000
  7
SN0
 71
     0
 72
     5
 11
4.986837
 21
0.875600
  0
TEXT
  8
0
 10
4.383280
 20
0.683760
 40
0.138006
  1
7/8" x 5"
 41
1.000000
  7
SN0
 71
     0
 72
     5
 11
4.999581
 21
0.683760
  0
POLYLINE
  8
0
  6
CONTINUOUS
 66
     1
 40
0.014080
 41
0.014080
  0
VERTEX
  8
0
  6
CONTINUOUS
 10
4.671920
 20
4.147000
  0
VERTEX
  8
0
  6
CONTINUOUS
 10
4.628800
 20
4.143480
  0
VERTEX
  8
0
  6
CONTINUOUS
 10
4.591840
 20
4.137760
  0
VERTEX
  8
0
  6
CONTINUOUS
 10
4.549160
 20
4.126760
  0
VERTEX
  8
0
  6
CONTINUOUS
 10
4.525400
 20
4.118840
  0
VERTEX
  8
0
  6
CONTINUOUS
 10
4.461600
 20
4.090240
  0
VERTEX
  8
0
  6
CONTINUOUS
 10
4.405280
 20
4.056360
  0
VERTEX
  8
0
  6
CONTINUOUS
 10
4.360840
 20
4.023360
  0
VERTEX
  8
0
  6
CONTINUOUS
 10
4.314200
 20
3.983320
  0
VERTEX
  8
0
  6
CONTINUOUS
 10
4.298360
 20
3.968360
  0
VERTEX
  8
0
  6
CONTINUOUS
 10
4.194520
 20
4.076160
  0
VERTEX
  8
0
  6
CONTINUOUS
 10
4.173400
 20
4.051960
  0
VERTEX
  8
0
  6
CONTINUOUS
 10
4.148760
 20
4.032160
  0
VERTEX
  8
0
  6
CONTINUOUS
 10
4.119720
 20
4.016760
  0
VERTEX
  8
0
  6
CONTINUOUS
 10
4.098160
 20
4.009280
  0
VERTEX
  8
0
  6
CONTINUOUS
 10
4.074840
 20
4.004440
  0
VERTEX
  8
0
  6
CONTINUOUS
 10
4.036120
 20
4.001800
  0
VERTEX
  8
0
  6
CONTINUOUS
 10
3.996080
 20
4.003560
  0
VERTEX
  8
0
  6
CONTINUOUS
 10
3.964840
 20
4.009720
  0
VERTEX
  8
0
  6
CONTINUOUS
 10
3.928760
 20
4.024240
  0
VERTEX
  8
0
  6
CONTINUOUS
 10
3.903240
 20
4.040080
  0
VERTEX
  8
0
  6
CONTINUOUS
 10
3.875960
 20
4.062080
  0
VERTEX
  8
0
  6
CONTINUOUS
 10
3.862320
 20
4.075720
  0
VERTEX
  8
0
  6
CONTINUOUS
 10
3.781360
 20
4.002680
  0
VERTEX
  8
0
  6
CONTINUOUS
 10
3.745720
 20
4.043160
  0
VERTEX
  8
0
  6
CONTINUOUS
 10
3.717120
 20
4.069120
  0
VERTEX
  8
0
  6
CONTINUOUS
 10
3.700400
 20
4.080560
  0
VERTEX
  8
0
  6
CONTINUOUS
 10
3.672680
 20
4.094200
  0
VERTEX
  8
0
  6
CONTINUOUS
 10
3.640120
 20
4.103880
  0
VERTEX
  8
0
  6
CONTINUOUS
 10
3.615040
 20
4.106520
  0
VERTEX
  8
0
  6
CONTINUOUS
 10
3.587760
 20
4.106520
  0
VERTEX
  8
0
  6
CONTINUOUS
 10
3.541560
 20
4.099920
  0
VERTEX
  8
0
  6
CONTINUOUS
 10
3.488320
 20
4.084080
  0
VERTEX
  8
0
  6
CONTINUOUS
 10
3.427160
 20
4.057680
  0
VERTEX
  8
0
  6
CONTINUOUS
 10
3.361160
 20
4.025560
  0
VERTEX
  8
0
  6
CONTINUOUS
 10
3.320240
 20
4.008840
  0
VERTEX
  8
0
  6
CONTINUOUS
 10
3.264360
 20
3.993000
  0
VERTEX
  8
0
  6
CONTINUOUS
 10
3.230040
 20
3.988160
  0
VERTEX
  8
0
  6
CONTINUOUS
 10
3.198360
 20
3.986840
  0
VERTEX
  8
0
  6
CONTINUOUS
 10
3.168880
 20
3.989480
  0
VERTEX
  8
0
  6
CONTINUOUS
 10
3.141600
 20
3.995640
  0
VERTEX
  8
0
  6
CONTINUOUS
 10
3.116960
 20
4.005320
  0
VERTEX
  8
0
  6
CONTINUOUS
 10
3.093640
 20
4.017640
  0
VERTEX
  8
0
  6
CONTINUOUS
 10
3.062840
 20
4.041400
  0
VERTEX
  8
0
  6
CONTINUOUS
 10
3.044360
 20
4.060320
  0
VERTEX
  8
0
  6
CONTINUOUS
 10
3.027640
 20
4.081440
  0
VERTEX
  8
0
  6
CONTINUOUS
 10
3.012240
 20
4.104760
  0
VERTEX
  8
0
  6
CONTINUOUS
 10
2.985840
 20
4.155360
  0
VERTEX
  8
0
  6
CONTINUOUS
 10
2.217600
 20
4.155360
  0
VERTEX
  8
0
  6
CONTINUOUS
 10
2.217600
 20
3.285040
  0
VERTEX
  8
0
  6
CONTINUOUS
 10
7.153520
 20
3.285480
  0
VERTEX
  8
0
  6
CONTINUOUS
 10
7.154400
 20
3.289880
  0
VERTEX
  8
0
  6
CONTINUOUS
 10
7.154400
 20
4.156240
  0
VERTEX
  8
0
  6
CONTINUOUS
 10
6.367240
 20
4.156240
  0
VERTEX
  8
0
  6
CONTINUOUS
 10
6.341720
 20
4.105640
  0
VERTEX
  8
0
  6
CONTINUOUS
 10
6.327200
 20
4.082760
  0
VERTEX
  8
0
  6
CONTINUOUS
 10
6.303440
 20
4.052400
  0
VERTEX
  8
0
  6
CONTINUOUS
 10
6.286280
 20
4.034800
  0
VERTEX
  8
0
  6
CONTINUOUS
 10
6.256800
 20
4.013240
  0
VERTEX
  8
0
  6
CONTINUOUS
 10
6.234800
 20
4.002240
  0
VERTEX
  8
0
  6
CONTINUOUS
 10
6.210600
 20
3.994760
  0
VERTEX
  8
0
  6
CONTINUOUS
 10
6.184200
 20
3.990800
  0
VERTEX
  8
0
  6
CONTINUOUS
 10
6.155160
 20
3.989920
  0
VERTEX
  8
0
  6
CONTINUOUS
 10
6.123920
 20
3.993440
  0
VERTEX
  8
0
  6
CONTINUOUS
 10
6.089600
 20
4.000920
  0
VERTEX
  8
0
  6
CONTINUOUS
 10
6.052640
 20
4.012360
  0
VERTEX
  8
0
  6
CONTINUOUS
 10
5.991040
 20
4.038760
  0
VERTEX
  8
0
  6
CONTINUOUS
 10
5.925040
 20
4.071320
  0
VERTEX
  8
0
  6
CONTINUOUS
 10
5.885000
 20
4.088040
  0
VERTEX
  8
0
  6
CONTINUOUS
 10
5.848480
 20
4.100360
  0
VERTEX
  8
0
  6
CONTINUOUS
 10
5.799200
 20
4.111360
  0
VERTEX
  8
0
  6
CONTINUOUS
 10
5.756520
 20
4.114440
  0
VERTEX
  8
0
  6
CONTINUOUS
 10
5.731000
 20
4.112680
  0
VERTEX
  8
0
  6
CONTINUOUS
 10
5.708120
 20
4.108280
  0
VERTEX
  8
0
  6
CONTINUOUS
 10
5.687000
 20
4.101680
  0
VERTEX
  8
0
  6
CONTINUOUS
 10
5.651360
 20
4.082760
  0
VERTEX
  8
0
  6
CONTINUOUS
 10
5.635520
 20
4.071320
  0
VERTEX
  8
0
  6
CONTINUOUS
 10
5.596360
 20
4.032600
  0
VERTEX
  8
0
  6
CONTINUOUS
 10
5.585360
 20
4.019400
  0
VERTEX
  8
0
  6
CONTINUOUS
 10
5.513640
 20
4.082760
  0
VERTEX
  8
0
  6
CONTINUOUS
 10
5.486360
 20
4.056800
  0
VERTEX
  8
0
  6
CONTINUOUS
 10
5.446760
 20
4.029080
  0
VERTEX
  8
0
  6
CONTINUOUS
 10
5.410680
 20
4.012360
  0
VERTEX
  8
0
  6
CONTINUOUS
 10
5.378560
 20
4.004000
  0
VERTEX
  8
0
  6
CONTINUOUS
 10
5.344240
 20
4.000040
  0
VERTEX
  8
0
  6
CONTINUOUS
 10
5.300240
 20
4.001360
  0
VERTEX
  8
0
  6
CONTINUOUS
 10
5.268560
 20
4.006200
  0
VERTEX
  8
0
  6
CONTINUOUS
 10
5.242160
 20
4.015440
  0
VERTEX
  8
0
  6
CONTINUOUS
 10
5.218840
 20
4.029520
  0
VERTEX
  8
0
  6
CONTINUOUS
 10
5.198600
 20
4.050200
  0
VERTEX
  8
0
  6
CONTINUOUS
 10
5.192000
 20
4.058560
  0
VERTEX
  8
0
  6
CONTINUOUS
 10
5.089920
 20
3.967480
  0
VERTEX
  8
0
  6
CONTINUOUS
 10
5.060440
 20
3.997400
  0
VERTEX
  8
0
  6
CONTINUOUS
 10
5.014680
 20
4.035680
  0
VERTEX
  8
0
  6
CONTINUOUS
 10
4.968480
 20
4.066920
  0
VERTEX
  8
0
  6
CONTINUOUS
 10
4.922280
 20
4.092000
  0
VERTEX
  8
0
  6
CONTINUOUS
 10
4.877400
 20
4.111360
  0
VERTEX
  8
0
  6
CONTINUOUS
 10
4.848360
 20
4.121480
  0
VERTEX
  8
0
  6
CONTINUOUS
 10
4.793360
 20
4.135560
  0
VERTEX
  8
0
  6
CONTINUOUS
 10
4.744960
 20
4.143920
  0
VERTEX
  8
0
  6
CONTINUOUS
 10
4.696120
 20
4.147880
  0
VERTEX
  8
0
  6
CONTINUOUS
 10
4.674120
 20
4.147880
  0
VERTEX
  8
0
  6
CONTINUOUS
 10
4.671920
 20
4.147000
  0
SEQEND
  8
0
  0
ENDSEC
  0
EOF
