  0
SECTION
  2
HEADER
  9
$ACADVER
  1
AC1006
  9
$EXTMIN
 10
3.801160
 20
0.467280
  9
$EXTMAX
 10
6.798880
 20
3.037760
  9
$LTSCALE
 40
0.044000
  9
$PDMODE
 70
    35
  9
$PDSIZE
 40
0.035200
  0
ENDSEC
  0
SECTION
  2
TABLES
  0
TABLE
  2
LTYPE
 70
     9
  0
LTYPE
  2
CONTINUOUS
 70
    64
  3
Solid line
 72
    65
 73
     0
 40
0.000000
  0
LTYPE
  2
DASHED
 70
    64
  3
__ __ __ __ __ __ __ __ __ __ __ __ __ __ __
 72
    65
 73
     2
 40
0.000330
 49
0.000220
 49
-0.000110
  0
LTYPE
  2
HIDDEN
 70
    64
  3
 _ _ _ _ _ _ _ _ _ _ _ _ _ _ _ _ _ _ _ _ _ _
 72
    65
 73
     2
 40
0.000165
 49
0.000110
 49
-0.000055
  0
LTYPE
  2
CENTER
 70
    64
  3
____ _ ____ _ ____ _ ____ _ ____ _ ____ _ ____
 72
    65
 73
     4
 40
0.000880
 49
0.000550
 49
-0.000110
 49
0.000110
 49
-0.000110
  0
LTYPE
  2
PHANTOM
 70
    64
  3
_____ _ _ _____ _ _ _____ _ _ _____ _ _ ____
 72
    65
 73
     6
 40
0.001100
 49
0.000550
 49
-0.000110
 49
0.000110
 49
-0.000110
 49
0.000110
 49
-0.000110
  0
LTYPE
  2
DOT
 70
    64
  3
...............................................
 72
    65
 73
     2
 40
0.000110
 49
0.000000
 49
-0.000110
  0
LTYPE
  2
DASHDOT
 70
    64
  3
__ . __ . __ . __ . __ . __ . __ . __ . __ . __
 72
    65
 73
     4
 40
0.000440
 49
0.000220
 49
-0.000110
 49
0.000000
 49
-0.000110
  0
LTYPE
  2
BORDER
 70
    64
  3
__ __ . __ __ . __ __ . __ __ . __ __ . __ __
 72
    65
 73
     6
 40
0.000770
 49
0.000220
 49
-0.000110
 49
0.000220
 49
-0.000110
 49
0.000000
 49
-0.000110
  0
LTYPE
  2
DIVIDE
 70
    64
  3
__ . . __ . . __ . . __ . . __ . . __ . . __
 72
    65
 73
     6
 40
0.000550
 49
0.000220
 49
-0.000110
 49
0.000000
 49
-0.000110
 49
0.000000
 49
-0.000110
  0
LTYPE
  2
DOTDOT
 70
    64
  3
 . .  . .  . .  . .  . .  . . 
 72
    65
 73
     5
 40
0.000242
 49
-0.000110
 49
0.000000
 49
-0.000110
 49
0.000000
 49
-0.000110
  0
ENDTAB
  0
TABLE
  2
STYLE
 70
     2
  0
STYLE
 70
     0
  2
SN0
 40
0.000000
 41
0.000440
 50
0.000000
 71
     0
 42
0.000000
  3
ROMAND
  0
STYLE
 70
    68
  2
SV0
 40
0.000000
 41
0.000440
 50
0.000000
 71
     0
 42
0.000000
  3
ROMAND
  0
ENDTAB
  0
TABLE
  2
LAYER
 70
     3
  0
LAYER
  2
FOREGROUND
 70
    64
 62
     7
  6
CONTINUOUS
  0
LAYER
  2
BACKGROUND
 70
    65
 62
    -7
  6
CONTINUOUS
  0
LAYER
  2
0
 70
    64
 62
     7
  6
CONTINUOUS
  0
ENDTAB
  0
ENDSEC
  0
SECTION
  2
ENTITIES
  0
POLYLINE
  8
FOREGROUND
  6
CONTINUOUS
 66
     1
 40
0.000000
 41
0.000000
  0
VERTEX
  8
FOREGROUND
  6
CONTINUOUS
 10
0.000000
 20
3.505040
  0
VERTEX
  8
FOREGROUND
  6
CONTINUOUS
 10
8.499920
 20
3.505040
  0
VERTEX
  8
FOREGROUND
  6
CONTINUOUS
 10
8.499920
 20
-7.494960
  0
VERTEX
  8
FOREGROUND
  6
CONTINUOUS
 10
0.000000
 20
-7.494960
  0
VERTEX
  8
FOREGROUND
  6
CONTINUOUS
 10
0.000000
 20
3.505040
  0
SEQEND
  8
0
  0
POLYLINE
  8
FOREGROUND
  6
CONTINUOUS
 66
     1
 40
0.000000
 41
0.000000
  0
VERTEX
  8
FOREGROUND
  6
CONTINUOUS
 10
0.000000
 20
3.505040
  0
VERTEX
  8
FOREGROUND
  6
CONTINUOUS
 10
8.499920
 20
3.505040
  0
VERTEX
  8
FOREGROUND
  6
CONTINUOUS
 10
8.499920
 20
-7.494960
  0
VERTEX
  8
FOREGROUND
  6
CONTINUOUS
 10
0.000000
 20
-7.494960
  0
VERTEX
  8
FOREGROUND
  6
CONTINUOUS
 10
0.000000
 20
3.505040
  0
SEQEND
  8
0
  0
SOLID
  8
0
 62
     7
 10
4.043160
 20
1.865160
 11
4.683800
 21
2.240480
 12
4.066920
 22
1.829080
 13
4.707560
 23
2.204400
  0
POLYLINE
  8
0
  6
CONTINUOUS
 66
     1
 40
0.000000
 41
0.000000
  0
VERTEX
  8
0
  6
CONTINUOUS
 10
4.043160
 20
1.865160
  0
VERTEX
  8
0
  6
CONTINUOUS
 10
4.683800
 20
2.240480
  0
VERTEX
  8
0
  6
CONTINUOUS
 10
4.707560
 20
2.204400
  0
VERTEX
  8
0
  6
CONTINUOUS
 10
4.066920
 20
1.829080
  0
VERTEX
  8
0
  6
CONTINUOUS
 10
4.043160
 20
1.865160
  0
SEQEND
  8
0
  0
SOLID
  8
0
 62
    15
 10
3.802040
 20
2.658920
 11
4.442680
 21
3.034240
 12
3.962200
 22
2.658920
 13
4.602840
 23
3.034240
  0
POLYLINE
  8
0
  6
CONTINUOUS
 66
     1
 40
0.000000
 41
0.000000
  0
VERTEX
  8
0
  6
CONTINUOUS
 10
3.802040
 20
2.658920
  0
VERTEX
  8
0
  6
CONTINUOUS
 10
4.442680
 20
3.034240
  0
VERTEX
  8
0
  6
CONTINUOUS
 10
4.602840
 20
3.034240
  0
VERTEX
  8
0
  6
CONTINUOUS
 10
3.962200
 20
2.658920
  0
VERTEX
  8
0
  6
CONTINUOUS
 10
3.802040
 20
2.658920
  0
SEQEND
  8
0
  0
SOLID
  8
0
 62
    15
 10
3.962200
 20
2.658920
 11
4.602840
 21
3.034240
 12
3.962200
 22
2.579280
 13
4.602840
 23
2.955040
  0
POLYLINE
  8
0
  6
CONTINUOUS
 66
     1
 40
0.000000
 41
0.000000
  0
VERTEX
  8
0
  6
CONTINUOUS
 10
3.962200
 20
2.658920
  0
VERTEX
  8
0
  6
CONTINUOUS
 10
4.602840
 20
3.034240
  0
VERTEX
  8
0
  6
CONTINUOUS
 10
4.602840
 20
2.955040
  0
VERTEX
  8
0
  6
CONTINUOUS
 10
3.962200
 20
2.579280
  0
VERTEX
  8
0
  6
CONTINUOUS
 10
3.962200
 20
2.658920
  0
SEQEND
  8
0
  0
SOLID
  8
0
 62
    15
 10
3.962200
 20
2.579280
 11
4.602840
 21
2.955040
 12
3.981560
 22
2.576200
 13
4.622200
 23
2.951520
  0
POLYLINE
  8
0
  6
CONTINUOUS
 66
     1
 40
0.000000
 41
0.000000
  0
VERTEX
  8
0
  6
CONTINUOUS
 10
3.962200
 20
2.579280
  0
VERTEX
  8
0
  6
CONTINUOUS
 10
4.602840
 20
2.955040
  0
VERTEX
  8
0
  6
CONTINUOUS
 10
4.622200
 20
2.951520
  0
VERTEX
  8
0
  6
CONTINUOUS
 10
3.981560
 20
2.576200
  0
VERTEX
  8
0
  6
CONTINUOUS
 10
3.962200
 20
2.579280
  0
SEQEND
  8
0
  0
SOLID
  8
0
 62
    15
 10
3.981560
 20
2.576200
 11
4.622200
 21
2.951520
 12
3.998280
 22
2.566520
 13
4.638920
 23
2.941840
  0
POLYLINE
  8
0
  6
CONTINUOUS
 66
     1
 40
0.000000
 41
0.000000
  0
VERTEX
  8
0
  6
CONTINUOUS
 10
3.981560
 20
2.576200
  0
VERTEX
  8
0
  6
CONTINUOUS
 10
4.622200
 20
2.951520
  0
VERTEX
  8
0
  6
CONTINUOUS
 10
4.638920
 20
2.941840
  0
VERTEX
  8
0
  6
CONTINUOUS
 10
3.998280
 20
2.566520
  0
VERTEX
  8
0
  6
CONTINUOUS
 10
3.981560
 20
2.576200
  0
SEQEND
  8
0
  0
SOLID
  8
0
 62
    15
 10
3.998280
 20
2.566520
 11
4.638920
 21
2.941840
 12
4.011920
 22
2.551120
 13
4.652560
 23
2.926880
  0
POLYLINE
  8
0
  6
CONTINUOUS
 66
     1
 40
0.000000
 41
0.000000
  0
VERTEX
  8
0
  6
CONTINUOUS
 10
3.998280
 20
2.566520
  0
VERTEX
  8
0
  6
CONTINUOUS
 10
4.638920
 20
2.941840
  0
VERTEX
  8
0
  6
CONTINUOUS
 10
4.652560
 20
2.926880
  0
VERTEX
  8
0
  6
CONTINUOUS
 10
4.011920
 20
2.551120
  0
VERTEX
  8
0
  6
CONTINUOUS
 10
3.998280
 20
2.566520
  0
SEQEND
  8
0
  0
SOLID
  8
0
 62
     7
 10
4.011920
 20
2.551120
 11
4.652560
 21
2.926880
 12
4.023360
 22
2.531760
 13
4.664000
 23
2.907080
  0
POLYLINE
  8
0
  6
CONTINUOUS
 66
     1
 40
0.000000
 41
0.000000
  0
VERTEX
  8
0
  6
CONTINUOUS
 10
4.011920
 20
2.551120
  0
VERTEX
  8
0
  6
CONTINUOUS
 10
4.652560
 20
2.926880
  0
VERTEX
  8
0
  6
CONTINUOUS
 10
4.664000
 20
2.907080
  0
VERTEX
  8
0
  6
CONTINUOUS
 10
4.023360
 20
2.531760
  0
VERTEX
  8
0
  6
CONTINUOUS
 10
4.011920
 20
2.551120
  0
SEQEND
  8
0
  0
SOLID
  8
0
 62
     7
 10
4.023360
 20
2.531760
 11
4.664000
 21
2.907080
 12
4.038320
 22
2.482480
 13
4.678960
 23
2.858240
  0
POLYLINE
  8
0
  6
CONTINUOUS
 66
     1
 40
0.000000
 41
0.000000
  0
VERTEX
  8
0
  6
CONTINUOUS
 10
4.023360
 20
2.531760
  0
VERTEX
  8
0
  6
CONTINUOUS
 10
4.664000
 20
2.907080
  0
VERTEX
  8
0
  6
CONTINUOUS
 10
4.678960
 20
2.858240
  0
VERTEX
  8
0
  6
CONTINUOUS
 10
4.038320
 20
2.482480
  0
VERTEX
  8
0
  6
CONTINUOUS
 10
4.023360
 20
2.531760
  0
SEQEND
  8
0
  0
SOLID
  8
0
 62
    15
 10
4.038320
 20
2.482480
 11
4.678960
 21
2.858240
 12
4.043160
 22
2.425720
 13
4.683800
 23
2.801040
  0
POLYLINE
  8
0
  6
CONTINUOUS
 66
     1
 40
0.000000
 41
0.000000
  0
VERTEX
  8
0
  6
CONTINUOUS
 10
4.038320
 20
2.482480
  0
VERTEX
  8
0
  6
CONTINUOUS
 10
4.678960
 20
2.858240
  0
VERTEX
  8
0
  6
CONTINUOUS
 10
4.683800
 20
2.801040
  0
VERTEX
  8
0
  6
CONTINUOUS
 10
4.043160
 20
2.425720
  0
VERTEX
  8
0
  6
CONTINUOUS
 10
4.038320
 20
2.482480
  0
SEQEND
  8
0
  0
SOLID
  8
0
 62
    15
 10
4.043160
 20
2.425720
 11
4.683800
 21
2.801040
 12
4.049760
 22
2.370720
 13
4.690400
 23
2.746480
  0
POLYLINE
  8
0
  6
CONTINUOUS
 66
     1
 40
0.000000
 41
0.000000
  0
VERTEX
  8
0
  6
CONTINUOUS
 10
4.043160
 20
2.425720
  0
VERTEX
  8
0
  6
CONTINUOUS
 10
4.683800
 20
2.801040
  0
VERTEX
  8
0
  6
CONTINUOUS
 10
4.690400
 20
2.746480
  0
VERTEX
  8
0
  6
CONTINUOUS
 10
4.049760
 20
2.370720
  0
VERTEX
  8
0
  6
CONTINUOUS
 10
4.043160
 20
2.425720
  0
SEQEND
  8
0
  0
SOLID
  8
0
 62
     7
 10
4.049760
 20
2.370720
 11
4.690400
 21
2.746480
 12
4.069120
 22
2.323640
 13
4.709760
 23
2.699400
  0
POLYLINE
  8
0
  6
CONTINUOUS
 66
     1
 40
0.000000
 41
0.000000
  0
VERTEX
  8
0
  6
CONTINUOUS
 10
4.049760
 20
2.370720
  0
VERTEX
  8
0
  6
CONTINUOUS
 10
4.690400
 20
2.746480
  0
VERTEX
  8
0
  6
CONTINUOUS
 10
4.709760
 20
2.699400
  0
VERTEX
  8
0
  6
CONTINUOUS
 10
4.069120
 20
2.323640
  0
VERTEX
  8
0
  6
CONTINUOUS
 10
4.049760
 20
2.370720
  0
SEQEND
  8
0
  0
SOLID
  8
0
 62
     7
 10
4.069120
 20
2.323640
 11
4.709760
 21
2.699400
 12
4.099480
 22
2.284920
 13
4.740120
 23
2.660680
  0
POLYLINE
  8
0
  6
CONTINUOUS
 66
     1
 40
0.000000
 41
0.000000
  0
VERTEX
  8
0
  6
CONTINUOUS
 10
4.069120
 20
2.323640
  0
VERTEX
  8
0
  6
CONTINUOUS
 10
4.709760
 20
2.699400
  0
VERTEX
  8
0
  6
CONTINUOUS
 10
4.740120
 20
2.660680
  0
VERTEX
  8
0
  6
CONTINUOUS
 10
4.099480
 20
2.284920
  0
VERTEX
  8
0
  6
CONTINUOUS
 10
4.069120
 20
2.323640
  0
SEQEND
  8
0
  0
SOLID
  8
0
 62
    15
 10
4.099480
 20
2.284920
 11
4.740120
 21
2.660680
 12
4.139080
 22
2.255000
 13
4.779720
 23
2.630320
  0
POLYLINE
  8
0
  6
CONTINUOUS
 66
     1
 40
0.000000
 41
0.000000
  0
VERTEX
  8
0
  6
CONTINUOUS
 10
4.099480
 20
2.284920
  0
VERTEX
  8
0
  6
CONTINUOUS
 10
4.740120
 20
2.660680
  0
VERTEX
  8
0
  6
CONTINUOUS
 10
4.779720
 20
2.630320
  0
VERTEX
  8
0
  6
CONTINUOUS
 10
4.139080
 20
2.255000
  0
VERTEX
  8
0
  6
CONTINUOUS
 10
4.099480
 20
2.284920
  0
SEQEND
  8
0
  0
SOLID
  8
0
 62
    15
 10
4.139080
 20
2.255000
 11
4.779720
 21
2.630320
 12
4.139080
 22
2.119480
 13
4.779720
 23
2.494800
  0
POLYLINE
  8
0
  6
CONTINUOUS
 66
     1
 40
0.000000
 41
0.000000
  0
VERTEX
  8
0
  6
CONTINUOUS
 10
4.139080
 20
2.255000
  0
VERTEX
  8
0
  6
CONTINUOUS
 10
4.779720
 20
2.630320
  0
VERTEX
  8
0
  6
CONTINUOUS
 10
4.779720
 20
2.494800
  0
VERTEX
  8
0
  6
CONTINUOUS
 10
4.139080
 20
2.119480
  0
VERTEX
  8
0
  6
CONTINUOUS
 10
4.139080
 20
2.255000
  0
SEQEND
  8
0
  0
SOLID
  8
0
 62
    15
 10
4.139080
 20
2.119480
 11
4.779720
 21
2.494800
 12
4.095520
 22
2.089560
 13
4.736160
 23
2.465320
  0
POLYLINE
  8
0
  6
CONTINUOUS
 66
     1
 40
0.000000
 41
0.000000
  0
VERTEX
  8
0
  6
CONTINUOUS
 10
4.139080
 20
2.119480
  0
VERTEX
  8
0
  6
CONTINUOUS
 10
4.779720
 20
2.494800
  0
VERTEX
  8
0
  6
CONTINUOUS
 10
4.736160
 20
2.465320
  0
VERTEX
  8
0
  6
CONTINUOUS
 10
4.095520
 20
2.089560
  0
VERTEX
  8
0
  6
CONTINUOUS
 10
4.139080
 20
2.119480
  0
SEQEND
  8
0
  0
SOLID
  8
0
 62
    15
 10
4.095520
 20
2.089560
 11
4.736160
 21
2.465320
 12
4.061640
 22
2.059640
 13
4.702280
 23
2.435400
  0
POLYLINE
  8
0
  6
CONTINUOUS
 66
     1
 40
0.000000
 41
0.000000
  0
VERTEX
  8
0
  6
CONTINUOUS
 10
4.095520
 20
2.089560
  0
VERTEX
  8
0
  6
CONTINUOUS
 10
4.736160
 20
2.465320
  0
VERTEX
  8
0
  6
CONTINUOUS
 10
4.702280
 20
2.435400
  0
VERTEX
  8
0
  6
CONTINUOUS
 10
4.061640
 20
2.059640
  0
VERTEX
  8
0
  6
CONTINUOUS
 10
4.095520
 20
2.089560
  0
SEQEND
  8
0
  0
SOLID
  8
0
 62
    15
 10
4.061640
 20
2.059640
 11
4.702280
 21
2.435400
 12
4.037440
 22
2.029280
 13
4.678080
 23
2.404600
  0
POLYLINE
  8
0
  6
CONTINUOUS
 66
     1
 40
0.000000
 41
0.000000
  0
VERTEX
  8
0
  6
CONTINUOUS
 10
4.061640
 20
2.059640
  0
VERTEX
  8
0
  6
CONTINUOUS
 10
4.702280
 20
2.435400
  0
VERTEX
  8
0
  6
CONTINUOUS
 10
4.678080
 20
2.404600
  0
VERTEX
  8
0
  6
CONTINUOUS
 10
4.037440
 20
2.029280
  0
VERTEX
  8
0
  6
CONTINUOUS
 10
4.061640
 20
2.059640
  0
SEQEND
  8
0
  0
SOLID
  8
0
 62
    15
 10
4.037440
 20
2.029280
 11
4.678080
 21
2.404600
 12
4.022040
 22
1.998040
 13
4.662680
 23
2.373800
  0
POLYLINE
  8
0
  6
CONTINUOUS
 66
     1
 40
0.000000
 41
0.000000
  0
VERTEX
  8
0
  6
CONTINUOUS
 10
4.037440
 20
2.029280
  0
VERTEX
  8
0
  6
CONTINUOUS
 10
4.678080
 20
2.404600
  0
VERTEX
  8
0
  6
CONTINUOUS
 10
4.662680
 20
2.373800
  0
VERTEX
  8
0
  6
CONTINUOUS
 10
4.022040
 20
1.998040
  0
VERTEX
  8
0
  6
CONTINUOUS
 10
4.037440
 20
2.029280
  0
SEQEND
  8
0
  0
SOLID
  8
0
 62
    15
 10
4.022040
 20
1.998040
 11
4.662680
 21
2.373800
 12
4.015440
 22
1.966360
 13
4.656080
 23
2.341680
  0
POLYLINE
  8
0
  6
CONTINUOUS
 66
     1
 40
0.000000
 41
0.000000
  0
VERTEX
  8
0
  6
CONTINUOUS
 10
4.022040
 20
1.998040
  0
VERTEX
  8
0
  6
CONTINUOUS
 10
4.662680
 20
2.373800
  0
VERTEX
  8
0
  6
CONTINUOUS
 10
4.656080
 20
2.341680
  0
VERTEX
  8
0
  6
CONTINUOUS
 10
4.015440
 20
1.966360
  0
VERTEX
  8
0
  6
CONTINUOUS
 10
4.022040
 20
1.998040
  0
SEQEND
  8
0
  0
SOLID
  8
0
 62
    15
 10
4.015440
 20
1.966360
 11
4.656080
 21
2.341680
 12
4.016760
 22
1.933360
 13
4.657400
 23
2.309120
  0
POLYLINE
  8
0
  6
CONTINUOUS
 66
     1
 40
0.000000
 41
0.000000
  0
VERTEX
  8
0
  6
CONTINUOUS
 10
4.015440
 20
1.966360
  0
VERTEX
  8
0
  6
CONTINUOUS
 10
4.656080
 20
2.341680
  0
VERTEX
  8
0
  6
CONTINUOUS
 10
4.657400
 20
2.309120
  0
VERTEX
  8
0
  6
CONTINUOUS
 10
4.016760
 20
1.933360
  0
VERTEX
  8
0
  6
CONTINUOUS
 10
4.015440
 20
1.966360
  0
SEQEND
  8
0
  0
SOLID
  8
0
 62
     7
 10
4.016760
 20
1.933360
 11
4.657400
 21
2.309120
 12
4.026440
 22
1.899920
 13
4.667080
 23
2.275240
  0
POLYLINE
  8
0
  6
CONTINUOUS
 66
     1
 40
0.000000
 41
0.000000
  0
VERTEX
  8
0
  6
CONTINUOUS
 10
4.016760
 20
1.933360
  0
VERTEX
  8
0
  6
CONTINUOUS
 10
4.657400
 20
2.309120
  0
VERTEX
  8
0
  6
CONTINUOUS
 10
4.667080
 20
2.275240
  0
VERTEX
  8
0
  6
CONTINUOUS
 10
4.026440
 20
1.899920
  0
VERTEX
  8
0
  6
CONTINUOUS
 10
4.016760
 20
1.933360
  0
SEQEND
  8
0
  0
SOLID
  8
0
 62
     7
 10
4.026440
 20
1.899920
 11
4.667080
 21
2.275240
 12
4.043160
 22
1.865160
 13
4.683800
 23
2.240480
  0
POLYLINE
  8
0
  6
CONTINUOUS
 66
     1
 40
0.000000
 41
0.000000
  0
VERTEX
  8
0
  6
CONTINUOUS
 10
4.026440
 20
1.899920
  0
VERTEX
  8
0
  6
CONTINUOUS
 10
4.667080
 20
2.275240
  0
VERTEX
  8
0
  6
CONTINUOUS
 10
4.683800
 20
2.240480
  0
VERTEX
  8
0
  6
CONTINUOUS
 10
4.043160
 20
1.865160
  0
VERTEX
  8
0
  6
CONTINUOUS
 10
4.026440
 20
1.899920
  0
SEQEND
  8
0
  0
SOLID
  8
0
 62
    15
 10
4.455880
 20
1.042800
 11
5.096520
 21
1.418120
 12
4.455880
 22
0.919600
 13
5.096520
 23
1.295360
  0
POLYLINE
  8
0
  6
CONTINUOUS
 66
     1
 40
0.000000
 41
0.000000
  0
VERTEX
  8
0
  6
CONTINUOUS
 10
4.455880
 20
1.042800
  0
VERTEX
  8
0
  6
CONTINUOUS
 10
5.096520
 20
1.418120
  0
VERTEX
  8
0
  6
CONTINUOUS
 10
5.096520
 20
1.295360
  0
VERTEX
  8
0
  6
CONTINUOUS
 10
4.455880
 20
0.919600
  0
VERTEX
  8
0
  6
CONTINUOUS
 10
4.455880
 20
1.042800
  0
SEQEND
  8
0
  0
SOLID
  8
0
 62
     7
 10
4.066920
 20
1.829080
 11
4.707560
 21
2.204400
 12
4.097720
 22
1.791680
 13
4.738360
 23
2.167440
  0
POLYLINE
  8
0
  6
CONTINUOUS
 66
     1
 40
0.000000
 41
0.000000
  0
VERTEX
  8
0
  6
CONTINUOUS
 10
4.066920
 20
1.829080
  0
VERTEX
  8
0
  6
CONTINUOUS
 10
4.707560
 20
2.204400
  0
VERTEX
  8
0
  6
CONTINUOUS
 10
4.738360
 20
2.167440
  0
VERTEX
  8
0
  6
CONTINUOUS
 10
4.097720
 20
1.791680
  0
VERTEX
  8
0
  6
CONTINUOUS
 10
4.066920
 20
1.829080
  0
SEQEND
  8
0
  0
SOLID
  8
0
 62
     7
 10
4.097720
 20
1.791680
 11
4.738360
 21
2.167440
 12
4.134680
 22
1.752960
 13
4.775320
 23
2.128720
  0
POLYLINE
  8
0
  6
CONTINUOUS
 66
     1
 40
0.000000
 41
0.000000
  0
VERTEX
  8
0
  6
CONTINUOUS
 10
4.097720
 20
1.791680
  0
VERTEX
  8
0
  6
CONTINUOUS
 10
4.738360
 20
2.167440
  0
VERTEX
  8
0
  6
CONTINUOUS
 10
4.775320
 20
2.128720
  0
VERTEX
  8
0
  6
CONTINUOUS
 10
4.134680
 20
1.752960
  0
VERTEX
  8
0
  6
CONTINUOUS
 10
4.097720
 20
1.791680
  0
SEQEND
  8
0
  0
SOLID
  8
0
 62
     7
 10
4.134680
 20
1.752960
 11
4.775320
 21
2.128720
 12
4.177800
 22
1.712920
 13
4.818440
 23
2.088240
  0
POLYLINE
  8
0
  6
CONTINUOUS
 66
     1
 40
0.000000
 41
0.000000
  0
VERTEX
  8
0
  6
CONTINUOUS
 10
4.134680
 20
1.752960
  0
VERTEX
  8
0
  6
CONTINUOUS
 10
4.775320
 20
2.128720
  0
VERTEX
  8
0
  6
CONTINUOUS
 10
4.818440
 20
2.088240
  0
VERTEX
  8
0
  6
CONTINUOUS
 10
4.177800
 20
1.712920
  0
VERTEX
  8
0
  6
CONTINUOUS
 10
4.134680
 20
1.752960
  0
SEQEND
  8
0
  0
SOLID
  8
0
 62
     7
 10
4.177800
 20
1.712920
 11
4.818440
 21
2.088240
 12
4.226200
 22
1.671120
 13
4.866840
 23
2.046440
  0
POLYLINE
  8
0
  6
CONTINUOUS
 66
     1
 40
0.000000
 41
0.000000
  0
VERTEX
  8
0
  6
CONTINUOUS
 10
4.177800
 20
1.712920
  0
VERTEX
  8
0
  6
CONTINUOUS
 10
4.818440
 20
2.088240
  0
VERTEX
  8
0
  6
CONTINUOUS
 10
4.866840
 20
2.046440
  0
VERTEX
  8
0
  6
CONTINUOUS
 10
4.226200
 20
1.671120
  0
VERTEX
  8
0
  6
CONTINUOUS
 10
4.177800
 20
1.712920
  0
SEQEND
  8
0
  0
SOLID
  8
0
 62
     7
 10
4.226200
 20
1.671120
 11
4.866840
 21
2.046440
 12
4.280320
 22
1.627120
 13
4.920960
 23
2.002880
  0
POLYLINE
  8
0
  6
CONTINUOUS
 66
     1
 40
0.000000
 41
0.000000
  0
VERTEX
  8
0
  6
CONTINUOUS
 10
4.226200
 20
1.671120
  0
VERTEX
  8
0
  6
CONTINUOUS
 10
4.866840
 20
2.046440
  0
VERTEX
  8
0
  6
CONTINUOUS
 10
4.920960
 20
2.002880
  0
VERTEX
  8
0
  6
CONTINUOUS
 10
4.280320
 20
1.627120
  0
VERTEX
  8
0
  6
CONTINUOUS
 10
4.226200
 20
1.671120
  0
SEQEND
  8
0
  0
SOLID
  8
0
 62
    15
 10
4.280320
 20
1.627120
 11
4.920960
 21
2.002880
 12
4.338840
 22
1.581800
 13
4.979480
 23
1.957560
  0
POLYLINE
  8
0
  6
CONTINUOUS
 66
     1
 40
0.000000
 41
0.000000
  0
VERTEX
  8
0
  6
CONTINUOUS
 10
4.280320
 20
1.627120
  0
VERTEX
  8
0
  6
CONTINUOUS
 10
4.920960
 20
2.002880
  0
VERTEX
  8
0
  6
CONTINUOUS
 10
4.979480
 20
1.957560
  0
VERTEX
  8
0
  6
CONTINUOUS
 10
4.338840
 20
1.581800
  0
VERTEX
  8
0
  6
CONTINUOUS
 10
4.280320
 20
1.627120
  0
SEQEND
  8
0
  0
SOLID
  8
0
 62
    15
 10
4.338840
 20
1.581800
 11
4.979480
 21
1.957560
 12
4.401760
 22
1.534280
 13
5.042400
 23
1.910040
  0
POLYLINE
  8
0
  6
CONTINUOUS
 66
     1
 40
0.000000
 41
0.000000
  0
VERTEX
  8
0
  6
CONTINUOUS
 10
4.338840
 20
1.581800
  0
VERTEX
  8
0
  6
CONTINUOUS
 10
4.979480
 20
1.957560
  0
VERTEX
  8
0
  6
CONTINUOUS
 10
5.042400
 20
1.910040
  0
VERTEX
  8
0
  6
CONTINUOUS
 10
4.401760
 20
1.534280
  0
VERTEX
  8
0
  6
CONTINUOUS
 10
4.338840
 20
1.581800
  0
SEQEND
  8
0
  0
SOLID
  8
0
 62
     7
 10
4.401760
 20
1.534280
 11
5.042400
 21
1.910040
 12
4.462040
 22
1.486760
 13
5.102680
 23
1.862520
  0
POLYLINE
  8
0
  6
CONTINUOUS
 66
     1
 40
0.000000
 41
0.000000
  0
VERTEX
  8
0
  6
CONTINUOUS
 10
4.401760
 20
1.534280
  0
VERTEX
  8
0
  6
CONTINUOUS
 10
5.042400
 20
1.910040
  0
VERTEX
  8
0
  6
CONTINUOUS
 10
5.102680
 20
1.862520
  0
VERTEX
  8
0
  6
CONTINUOUS
 10
4.462040
 20
1.486760
  0
VERTEX
  8
0
  6
CONTINUOUS
 10
4.401760
 20
1.534280
  0
SEQEND
  8
0
  0
SOLID
  8
0
 62
     7
 10
4.462040
 20
1.486760
 11
5.102680
 21
1.862520
 12
4.513080
 22
1.441880
 13
5.153720
 23
1.817640
  0
POLYLINE
  8
0
  6
CONTINUOUS
 66
     1
 40
0.000000
 41
0.000000
  0
VERTEX
  8
0
  6
CONTINUOUS
 10
4.462040
 20
1.486760
  0
VERTEX
  8
0
  6
CONTINUOUS
 10
5.102680
 20
1.862520
  0
VERTEX
  8
0
  6
CONTINUOUS
 10
5.153720
 20
1.817640
  0
VERTEX
  8
0
  6
CONTINUOUS
 10
4.513080
 20
1.441880
  0
VERTEX
  8
0
  6
CONTINUOUS
 10
4.462040
 20
1.486760
  0
SEQEND
  8
0
  0
SOLID
  8
0
 62
     7
 10
4.513080
 20
1.441880
 11
5.153720
 21
1.817640
 12
4.554880
 22
1.399200
 13
5.195520
 23
1.774520
  0
POLYLINE
  8
0
  6
CONTINUOUS
 66
     1
 40
0.000000
 41
0.000000
  0
VERTEX
  8
0
  6
CONTINUOUS
 10
4.513080
 20
1.441880
  0
VERTEX
  8
0
  6
CONTINUOUS
 10
5.153720
 20
1.817640
  0
VERTEX
  8
0
  6
CONTINUOUS
 10
5.195520
 20
1.774520
  0
VERTEX
  8
0
  6
CONTINUOUS
 10
4.554880
 20
1.399200
  0
VERTEX
  8
0
  6
CONTINUOUS
 10
4.513080
 20
1.441880
  0
SEQEND
  8
0
  0
SOLID
  8
0
 62
     7
 10
4.554880
 20
1.399200
 11
5.195520
 21
1.774520
 12
4.588320
 22
1.358720
 13
5.228960
 23
1.734040
  0
POLYLINE
  8
0
  6
CONTINUOUS
 66
     1
 40
0.000000
 41
0.000000
  0
VERTEX
  8
0
  6
CONTINUOUS
 10
4.554880
 20
1.399200
  0
VERTEX
  8
0
  6
CONTINUOUS
 10
5.195520
 20
1.774520
  0
VERTEX
  8
0
  6
CONTINUOUS
 10
5.228960
 20
1.734040
  0
VERTEX
  8
0
  6
CONTINUOUS
 10
4.588320
 20
1.358720
  0
VERTEX
  8
0
  6
CONTINUOUS
 10
4.554880
 20
1.399200
  0
SEQEND
  8
0
  0
SOLID
  8
0
 62
     7
 10
4.588320
 20
1.358720
 11
5.228960
 21
1.734040
 12
4.612960
 22
1.320440
 13
5.253600
 23
1.695760
  0
POLYLINE
  8
0
  6
CONTINUOUS
 66
     1
 40
0.000000
 41
0.000000
  0
VERTEX
  8
0
  6
CONTINUOUS
 10
4.588320
 20
1.358720
  0
VERTEX
  8
0
  6
CONTINUOUS
 10
5.228960
 20
1.734040
  0
VERTEX
  8
0
  6
CONTINUOUS
 10
5.253600
 20
1.695760
  0
VERTEX
  8
0
  6
CONTINUOUS
 10
4.612960
 20
1.320440
  0
VERTEX
  8
0
  6
CONTINUOUS
 10
4.588320
 20
1.358720
  0
SEQEND
  8
0
  0
SOLID
  8
0
 62
     7
 10
4.612960
 20
1.320440
 11
5.253600
 21
1.695760
 12
4.630120
 22
1.283920
 13
5.270760
 23
1.659680
  0
POLYLINE
  8
0
  6
CONTINUOUS
 66
     1
 40
0.000000
 41
0.000000
  0
VERTEX
  8
0
  6
CONTINUOUS
 10
4.612960
 20
1.320440
  0
VERTEX
  8
0
  6
CONTINUOUS
 10
5.253600
 20
1.695760
  0
VERTEX
  8
0
  6
CONTINUOUS
 10
5.270760
 20
1.659680
  0
VERTEX
  8
0
  6
CONTINUOUS
 10
4.630120
 20
1.283920
  0
VERTEX
  8
0
  6
CONTINUOUS
 10
4.612960
 20
1.320440
  0
SEQEND
  8
0
  0
SOLID
  8
0
 62
    15
 10
4.630120
 20
1.283920
 11
5.270760
 21
1.659680
 12
4.639800
 22
1.250040
 13
5.280440
 23
1.625800
  0
POLYLINE
  8
0
  6
CONTINUOUS
 66
     1
 40
0.000000
 41
0.000000
  0
VERTEX
  8
0
  6
CONTINUOUS
 10
4.630120
 20
1.283920
  0
VERTEX
  8
0
  6
CONTINUOUS
 10
5.270760
 20
1.659680
  0
VERTEX
  8
0
  6
CONTINUOUS
 10
5.280440
 20
1.625800
  0
VERTEX
  8
0
  6
CONTINUOUS
 10
4.639800
 20
1.250040
  0
VERTEX
  8
0
  6
CONTINUOUS
 10
4.630120
 20
1.283920
  0
SEQEND
  8
0
  0
SOLID
  8
0
 62
    15
 10
4.639800
 20
1.250040
 11
5.280440
 21
1.625800
 12
4.642440
 22
1.218360
 13
5.283080
 23
1.594120
  0
POLYLINE
  8
0
  6
CONTINUOUS
 66
     1
 40
0.000000
 41
0.000000
  0
VERTEX
  8
0
  6
CONTINUOUS
 10
4.639800
 20
1.250040
  0
VERTEX
  8
0
  6
CONTINUOUS
 10
5.280440
 20
1.625800
  0
VERTEX
  8
0
  6
CONTINUOUS
 10
5.283080
 20
1.594120
  0
VERTEX
  8
0
  6
CONTINUOUS
 10
4.642440
 20
1.218360
  0
VERTEX
  8
0
  6
CONTINUOUS
 10
4.639800
 20
1.250040
  0
SEQEND
  8
0
  0
SOLID
  8
0
 62
    15
 10
4.642440
 20
1.218360
 11
5.283080
 21
1.594120
 12
4.638480
 22
1.188880
 13
5.279120
 23
1.564640
  0
POLYLINE
  8
0
  6
CONTINUOUS
 66
     1
 40
0.000000
 41
0.000000
  0
VERTEX
  8
0
  6
CONTINUOUS
 10
4.642440
 20
1.218360
  0
VERTEX
  8
0
  6
CONTINUOUS
 10
5.283080
 20
1.594120
  0
VERTEX
  8
0
  6
CONTINUOUS
 10
5.279120
 20
1.564640
  0
VERTEX
  8
0
  6
CONTINUOUS
 10
4.638480
 20
1.188880
  0
VERTEX
  8
0
  6
CONTINUOUS
 10
4.642440
 20
1.218360
  0
SEQEND
  8
0
  0
SOLID
  8
0
 62
    15
 10
4.638480
 20
1.188880
 11
5.279120
 21
1.564640
 12
4.627920
 22
1.161600
 13
5.268560
 23
1.537360
  0
POLYLINE
  8
0
  6
CONTINUOUS
 66
     1
 40
0.000000
 41
0.000000
  0
VERTEX
  8
0
  6
CONTINUOUS
 10
4.638480
 20
1.188880
  0
VERTEX
  8
0
  6
CONTINUOUS
 10
5.279120
 20
1.564640
  0
VERTEX
  8
0
  6
CONTINUOUS
 10
5.268560
 20
1.537360
  0
VERTEX
  8
0
  6
CONTINUOUS
 10
4.627920
 20
1.161600
  0
VERTEX
  8
0
  6
CONTINUOUS
 10
4.638480
 20
1.188880
  0
SEQEND
  8
0
  0
SOLID
  8
0
 62
    15
 10
4.627920
 20
1.161600
 11
5.268560
 21
1.537360
 12
4.611640
 22
1.136520
 13
5.252280
 23
1.512280
  0
POLYLINE
  8
0
  6
CONTINUOUS
 66
     1
 40
0.000000
 41
0.000000
  0
VERTEX
  8
0
  6
CONTINUOUS
 10
4.627920
 20
1.161600
  0
VERTEX
  8
0
  6
CONTINUOUS
 10
5.268560
 20
1.537360
  0
VERTEX
  8
0
  6
CONTINUOUS
 10
5.252280
 20
1.512280
  0
VERTEX
  8
0
  6
CONTINUOUS
 10
4.611640
 20
1.136520
  0
VERTEX
  8
0
  6
CONTINUOUS
 10
4.627920
 20
1.161600
  0
SEQEND
  8
0
  0
SOLID
  8
0
 62
    15
 10
4.611640
 20
1.136520
 11
5.252280
 21
1.512280
 12
4.590080
 22
1.113640
 13
5.230720
 23
1.488960
  0
POLYLINE
  8
0
  6
CONTINUOUS
 66
     1
 40
0.000000
 41
0.000000
  0
VERTEX
  8
0
  6
CONTINUOUS
 10
4.611640
 20
1.136520
  0
VERTEX
  8
0
  6
CONTINUOUS
 10
5.252280
 20
1.512280
  0
VERTEX
  8
0
  6
CONTINUOUS
 10
5.230720
 20
1.488960
  0
VERTEX
  8
0
  6
CONTINUOUS
 10
4.590080
 20
1.113640
  0
VERTEX
  8
0
  6
CONTINUOUS
 10
4.611640
 20
1.136520
  0
SEQEND
  8
0
  0
SOLID
  8
0
 62
    15
 10
4.563680
 20
1.092520
 11
5.204320
 21
1.468280
 12
4.532000
 22
1.073600
 13
5.172640
 23
1.449360
  0
POLYLINE
  8
0
  6
CONTINUOUS
 66
     1
 40
0.000000
 41
0.000000
  0
VERTEX
  8
0
  6
CONTINUOUS
 10
4.563680
 20
1.092520
  0
VERTEX
  8
0
  6
CONTINUOUS
 10
5.204320
 20
1.468280
  0
VERTEX
  8
0
  6
CONTINUOUS
 10
5.172640
 20
1.449360
  0
VERTEX
  8
0
  6
CONTINUOUS
 10
4.532000
 20
1.073600
  0
VERTEX
  8
0
  6
CONTINUOUS
 10
4.563680
 20
1.092520
  0
SEQEND
  8
0
  0
SOLID
  8
0
 62
    15
 10
4.590080
 20
1.113640
 11
5.230720
 21
1.488960
 12
4.563680
 22
1.092520
 13
5.204320
 23
1.468280
  0
POLYLINE
  8
0
  6
CONTINUOUS
 66
     1
 40
0.000000
 41
0.000000
  0
VERTEX
  8
0
  6
CONTINUOUS
 10
4.590080
 20
1.113640
  0
VERTEX
  8
0
  6
CONTINUOUS
 10
5.230720
 20
1.488960
  0
VERTEX
  8
0
  6
CONTINUOUS
 10
5.204320
 20
1.468280
  0
VERTEX
  8
0
  6
CONTINUOUS
 10
4.563680
 20
1.092520
  0
VERTEX
  8
0
  6
CONTINUOUS
 10
4.590080
 20
1.113640
  0
SEQEND
  8
0
  0
POLYLINE
  8
0
  6
CONTINUOUS
 66
     1
 40
0.000000
 41
0.000000
  0
VERTEX
  8
0
  6
CONTINUOUS
 10
4.455880
 20
1.042800
  0
VERTEX
  8
0
  6
CONTINUOUS
 10
4.455880
 20
0.919600
  0
VERTEX
  8
0
  6
CONTINUOUS
 10
3.802040
 20
0.919600
  0
VERTEX
  8
0
  6
CONTINUOUS
 10
3.802040
 20
2.658920
  0
VERTEX
  8
0
  6
CONTINUOUS
 10
3.962200
 20
2.658920
  0
VERTEX
  8
0
  6
CONTINUOUS
 10
3.962200
 20
2.579280
  0
VERTEX
  8
0
  6
CONTINUOUS
 10
3.981560
 20
2.576200
  0
VERTEX
  8
0
  6
CONTINUOUS
 10
3.998280
 20
2.566520
  0
VERTEX
  8
0
  6
CONTINUOUS
 10
4.011920
 20
2.551120
  0
VERTEX
  8
0
  6
CONTINUOUS
 10
4.023360
 20
2.531760
  0
VERTEX
  8
0
  6
CONTINUOUS
 10
4.038320
 20
2.482480
  0
VERTEX
  8
0
  6
CONTINUOUS
 10
4.043160
 20
2.425720
  0
VERTEX
  8
0
  6
CONTINUOUS
 10
4.049760
 20
2.370720
  0
VERTEX
  8
0
  6
CONTINUOUS
 10
4.069120
 20
2.323640
  0
VERTEX
  8
0
  6
CONTINUOUS
 10
4.099480
 20
2.284920
  0
VERTEX
  8
0
  6
CONTINUOUS
 10
4.139080
 20
2.255000
  0
VERTEX
  8
0
  6
CONTINUOUS
 10
4.139080
 20
2.119480
  0
VERTEX
  8
0
  6
CONTINUOUS
 10
4.095520
 20
2.089560
  0
VERTEX
  8
0
  6
CONTINUOUS
 10
4.061640
 20
2.059640
  0
VERTEX
  8
0
  6
CONTINUOUS
 10
4.037440
 20
2.029280
  0
VERTEX
  8
0
  6
CONTINUOUS
 10
4.022040
 20
1.998040
  0
VERTEX
  8
0
  6
CONTINUOUS
 10
4.015440
 20
1.966360
  0
VERTEX
  8
0
  6
CONTINUOUS
 10
4.016760
 20
1.933360
  0
VERTEX
  8
0
  6
CONTINUOUS
 10
4.026440
 20
1.899920
  0
VERTEX
  8
0
  6
CONTINUOUS
 10
4.043160
 20
1.865160
  0
VERTEX
  8
0
  6
CONTINUOUS
 10
4.066920
 20
1.829080
  0
VERTEX
  8
0
  6
CONTINUOUS
 10
4.097720
 20
1.791680
  0
VERTEX
  8
0
  6
CONTINUOUS
 10
4.134680
 20
1.752960
  0
VERTEX
  8
0
  6
CONTINUOUS
 10
4.177800
 20
1.712920
  0
VERTEX
  8
0
  6
CONTINUOUS
 10
4.226200
 20
1.671120
  0
VERTEX
  8
0
  6
CONTINUOUS
 10
4.280320
 20
1.627120
  0
VERTEX
  8
0
  6
CONTINUOUS
 10
4.338840
 20
1.581800
  0
VERTEX
  8
0
  6
CONTINUOUS
 10
4.401760
 20
1.534280
  0
VERTEX
  8
0
  6
CONTINUOUS
 10
4.462040
 20
1.486760
  0
VERTEX
  8
0
  6
CONTINUOUS
 10
4.513080
 20
1.441880
  0
VERTEX
  8
0
  6
CONTINUOUS
 10
4.554880
 20
1.399200
  0
VERTEX
  8
0
  6
CONTINUOUS
 10
4.588320
 20
1.358720
  0
VERTEX
  8
0
  6
CONTINUOUS
 10
4.612960
 20
1.320440
  0
VERTEX
  8
0
  6
CONTINUOUS
 10
4.630120
 20
1.283920
  0
VERTEX
  8
0
  6
CONTINUOUS
 10
4.639800
 20
1.250040
  0
VERTEX
  8
0
  6
CONTINUOUS
 10
4.642440
 20
1.218360
  0
VERTEX
  8
0
  6
CONTINUOUS
 10
4.638480
 20
1.188880
  0
VERTEX
  8
0
  6
CONTINUOUS
 10
4.627920
 20
1.161600
  0
VERTEX
  8
0
  6
CONTINUOUS
 10
4.611640
 20
1.136520
  0
VERTEX
  8
0
  6
CONTINUOUS
 10
4.590080
 20
1.113640
  0
VERTEX
  8
0
  6
CONTINUOUS
 10
4.563680
 20
1.092520
  0
VERTEX
  8
0
  6
CONTINUOUS
 10
4.532000
 20
1.073600
  0
VERTEX
  8
0
  6
CONTINUOUS
 10
4.496360
 20
1.057320
  0
VERTEX
  8
0
  6
CONTINUOUS
 10
4.456760
 20
1.042800
  0
VERTEX
  8
0
  6
CONTINUOUS
 10
4.455880
 20
1.042800
  0
SEQEND
  8
0
  0
TEXT
  8
0
 10
4.247760
 20
0.702680
 40
0.138087
  1
BA  890
 41
1.000000
  7
SN0
 71
     0
 72
     5
 11
4.837561
 21
0.702680
  0
TEXT
  8
0
 10
3.999600
 20
0.511280
 40
0.138087
  1
13/16" x 1-3/4"
 41
1.000000
  7
SN0
 71
     0
 72
     5
 11
5.084175
 21
0.511280
  0
POLYLINE
  8
0
  6
CONTINUOUS
 66
     1
 40
0.014080
 41
0.014080
  0
VERTEX
  8
0
  6
CONTINUOUS
 10
6.606160
 20
1.413720
  0
VERTEX
  8
0
  6
CONTINUOUS
 10
6.664240
 20
1.436160
  0
VERTEX
  8
0
  6
CONTINUOUS
 10
6.697680
 20
1.454200
  0
VERTEX
  8
0
  6
CONTINUOUS
 10
6.726720
 20
1.474000
  0
VERTEX
  8
0
  6
CONTINUOUS
 10
6.750920
 20
1.496000
  0
VERTEX
  8
0
  6
CONTINUOUS
 10
6.769840
 20
1.520200
  0
VERTEX
  8
0
  6
CONTINUOUS
 10
6.783040
 20
1.546160
  0
VERTEX
  8
0
  6
CONTINUOUS
 10
6.790520
 20
1.574760
  0
VERTEX
  8
0
  6
CONTINUOUS
 10
6.791840
 20
1.589720
  0
VERTEX
  8
0
  6
CONTINUOUS
 10
6.791400
 20
1.605120
  0
VERTEX
  8
0
  6
CONTINUOUS
 10
6.789200
 20
1.621400
  0
VERTEX
  8
0
  6
CONTINUOUS
 10
6.779520
 20
1.655280
  0
VERTEX
  8
0
  6
CONTINUOUS
 10
6.772040
 20
1.673320
  0
VERTEX
  8
0
  6
CONTINUOUS
 10
6.750920
 20
1.710280
  0
VERTEX
  8
0
  6
CONTINUOUS
 10
6.721880
 20
1.749880
  0
VERTEX
  8
0
  6
CONTINUOUS
 10
6.684480
 20
1.791680
  0
VERTEX
  8
0
  6
CONTINUOUS
 10
6.638280
 20
1.835240
  0
VERTEX
  8
0
  6
CONTINUOUS
 10
6.567000
 20
1.893760
  0
VERTEX
  8
0
  6
CONTINUOUS
 10
6.429280
 20
1.998480
  0
VERTEX
  8
0
  6
CONTINUOUS
 10
6.350520
 20
2.063600
  0
VERTEX
  8
0
  6
CONTINUOUS
 10
6.284080
 20
2.124320
  0
VERTEX
  8
0
  6
CONTINUOUS
 10
6.230840
 20
2.181960
  0
VERTEX
  8
0
  6
CONTINUOUS
 10
6.203560
 20
2.218480
  0
VERTEX
  8
0
  6
CONTINUOUS
 10
6.183320
 20
2.253680
  0
VERTEX
  8
0
  6
CONTINUOUS
 10
6.175400
 20
2.271280
  0
VERTEX
  8
0
  6
CONTINUOUS
 10
6.166160
 20
2.304720
  0
VERTEX
  8
0
  6
CONTINUOUS
 10
6.164400
 20
2.321440
  0
VERTEX
  8
0
  6
CONTINUOUS
 10
6.164840
 20
2.337720
  0
VERTEX
  8
0
  6
CONTINUOUS
 10
6.167040
 20
2.353560
  0
VERTEX
  8
0
  6
CONTINUOUS
 10
6.171440
 20
2.369400
  0
VERTEX
  8
0
  6
CONTINUOUS
 10
6.178040
 20
2.385240
  0
VERTEX
  8
0
  6
CONTINUOUS
 10
6.186840
 20
2.400640
  0
VERTEX
  8
0
  6
CONTINUOUS
 10
6.197840
 20
2.416040
  0
VERTEX
  8
0
  6
CONTINUOUS
 10
6.226880
 20
2.446400
  0
VERTEX
  8
0
  6
CONTINUOUS
 10
6.244920
 20
2.461360
  0
VERTEX
  8
0
  6
CONTINUOUS
 10
6.288480
 20
2.490840
  0
VERTEX
  8
0
  6
CONTINUOUS
 10
6.288480
 20
2.626360
  0
VERTEX
  8
0
  6
CONTINUOUS
 10
6.257680
 20
2.647920
  0
VERTEX
  8
0
  6
CONTINUOUS
 10
6.232600
 20
2.674760
  0
VERTEX
  8
0
  6
CONTINUOUS
 10
6.218520
 20
2.695000
  0
VERTEX
  8
0
  6
CONTINUOUS
 10
6.203120
 20
2.729760
  0
VERTEX
  8
0
  6
CONTINUOUS
 10
6.196520
 20
2.755280
  0
VERTEX
  8
0
  6
CONTINUOUS
 10
6.193000
 20
2.782560
  0
VERTEX
  8
0
  6
CONTINUOUS
 10
6.189920
 20
2.840200
  0
VERTEX
  8
0
  6
CONTINUOUS
 10
6.185080
 20
2.867040
  0
VERTEX
  8
0
  6
CONTINUOUS
 10
6.177600
 20
2.891680
  0
VERTEX
  8
0
  6
CONTINUOUS
 10
6.167480
 20
2.913240
  0
VERTEX
  8
0
  6
CONTINUOUS
 10
6.154720
 20
2.930840
  0
VERTEX
  8
0
  6
CONTINUOUS
 10
6.139320
 20
2.943160
  0
VERTEX
  8
0
  6
CONTINUOUS
 10
6.121720
 20
2.949760
  0
VERTEX
  8
0
  6
CONTINUOUS
 10
6.111600
 20
2.950640
  0
VERTEX
  8
0
  6
CONTINUOUS
 10
6.111600
 20
3.030280
  0
VERTEX
  8
0
  6
CONTINUOUS
 10
5.951440
 20
3.030280
  0
VERTEX
  8
0
  6
CONTINUOUS
 10
5.951440
 20
1.290960
  0
VERTEX
  8
0
  6
CONTINUOUS
 10
6.605280
 20
1.290960
  0
VERTEX
  8
0
  6
CONTINUOUS
 10
6.605280
 20
1.414160
  0
VERTEX
  8
0
  6
CONTINUOUS
 10
6.606160
 20
1.413720
  0
SEQEND
  8
0
  0
ENDSEC
  0
EOF
