  0
SECTION
  2
HEADER
  9
$ACADVER
  1
AC1006
  9
$EXTMIN
 10
2.654520
 20
0.820600
  9
$EXTMAX
 10
7.167600
 20
4.209480
  9
$LTSCALE
 40
0.044000
  9
$PDMODE
 70
    35
  9
$PDSIZE
 40
0.035200
  0
ENDSEC
  0
SECTION
  2
TABLES
  0
TABLE
  2
LTYPE
 70
     9
  0
LTYPE
  2
CONTINUOUS
 70
    64
  3
Solid line
 72
    65
 73
     0
 40
0.000000
  0
LTYPE
  2
DASHED
 70
    64
  3
__ __ __ __ __ __ __ __ __ __ __ __ __ __ __
 72
    65
 73
     2
 40
0.000330
 49
0.000220
 49
-0.000110
  0
LTYPE
  2
HIDDEN
 70
    64
  3
 _ _ _ _ _ _ _ _ _ _ _ _ _ _ _ _ _ _ _ _ _ _
 72
    65
 73
     2
 40
0.000165
 49
0.000110
 49
-0.000055
  0
LTYPE
  2
CENTER
 70
    64
  3
____ _ ____ _ ____ _ ____ _ ____ _ ____ _ ____
 72
    65
 73
     4
 40
0.000880
 49
0.000550
 49
-0.000110
 49
0.000110
 49
-0.000110
  0
LTYPE
  2
PHANTOM
 70
    64
  3
_____ _ _ _____ _ _ _____ _ _ _____ _ _ ____
 72
    65
 73
     6
 40
0.001100
 49
0.000550
 49
-0.000110
 49
0.000110
 49
-0.000110
 49
0.000110
 49
-0.000110
  0
LTYPE
  2
DOT
 70
    64
  3
...............................................
 72
    65
 73
     2
 40
0.000110
 49
0.000000
 49
-0.000110
  0
LTYPE
  2
DASHDOT
 70
    64
  3
__ . __ . __ . __ . __ . __ . __ . __ . __ . __
 72
    65
 73
     4
 40
0.000440
 49
0.000220
 49
-0.000110
 49
0.000000
 49
-0.000110
  0
LTYPE
  2
BORDER
 70
    64
  3
__ __ . __ __ . __ __ . __ __ . __ __ . __ __
 72
    65
 73
     6
 40
0.000770
 49
0.000220
 49
-0.000110
 49
0.000220
 49
-0.000110
 49
0.000000
 49
-0.000110
  0
LTYPE
  2
DIVIDE
 70
    64
  3
__ . . __ . . __ . . __ . . __ . . __ . . __
 72
    65
 73
     6
 40
0.000550
 49
0.000220
 49
-0.000110
 49
0.000000
 49
-0.000110
 49
0.000000
 49
-0.000110
  0
LTYPE
  2
DOTDOT
 70
    64
  3
 . .  . .  . .  . .  . .  . . 
 72
    65
 73
     5
 40
0.000242
 49
-0.000110
 49
0.000000
 49
-0.000110
 49
0.000000
 49
-0.000110
  0
ENDTAB
  0
TABLE
  2
STYLE
 70
     2
  0
STYLE
 70
     0
  2
SN0
 40
0.000000
 41
0.000440
 50
0.000000
 71
     0
 42
0.000000
  3
ROMAND
  0
STYLE
 70
    68
  2
SV0
 40
0.000000
 41
0.000440
 50
0.000000
 71
     0
 42
0.000000
  3
ROMAND
  0
ENDTAB
  0
TABLE
  2
LAYER
 70
     3
  0
LAYER
  2
FOREGROUND
 70
    64
 62
     7
  6
CONTINUOUS
  0
LAYER
  2
BACKGROUND
 70
    65
 62
    -7
  6
CONTINUOUS
  0
LAYER
  2
0
 70
    64
 62
     7
  6
CONTINUOUS
  0
ENDTAB
  0
ENDSEC
  0
SECTION
  2
ENTITIES
  0
POLYLINE
  8
FOREGROUND
  6
CONTINUOUS
 66
     1
 40
0.000000
 41
0.000000
  0
VERTEX
  8
FOREGROUND
  6
CONTINUOUS
 10
0.000000
 20
5.030080
  0
VERTEX
  8
FOREGROUND
  6
CONTINUOUS
 10
8.499920
 20
5.030080
  0
VERTEX
  8
FOREGROUND
  6
CONTINUOUS
 10
8.499920
 20
-5.969920
  0
VERTEX
  8
FOREGROUND
  6
CONTINUOUS
 10
0.000000
 20
-5.969920
  0
VERTEX
  8
FOREGROUND
  6
CONTINUOUS
 10
0.000000
 20
5.030080
  0
SEQEND
  8
0
  0
POLYLINE
  8
FOREGROUND
  6
CONTINUOUS
 66
     1
 40
0.000000
 41
0.000000
  0
VERTEX
  8
FOREGROUND
  6
CONTINUOUS
 10
0.000000
 20
5.030080
  0
VERTEX
  8
FOREGROUND
  6
CONTINUOUS
 10
8.499920
 20
5.030080
  0
VERTEX
  8
FOREGROUND
  6
CONTINUOUS
 10
8.499920
 20
-5.969920
  0
VERTEX
  8
FOREGROUND
  6
CONTINUOUS
 10
0.000000
 20
-5.969920
  0
VERTEX
  8
FOREGROUND
  6
CONTINUOUS
 10
0.000000
 20
5.030080
  0
SEQEND
  8
0
  0
POLYLINE
  8
0
  6
CONTINUOUS
 66
     1
 40
0.000000
 41
0.000000
  0
VERTEX
  8
0
  6
CONTINUOUS
 10
7.167600
 20
1.911360
  0
VERTEX
  8
0
  6
CONTINUOUS
 10
7.025920
 20
1.911800
  0
VERTEX
  8
0
  6
CONTINUOUS
 10
6.974880
 20
1.914440
  0
VERTEX
  8
0
  6
CONTINUOUS
 10
6.924280
 20
1.919280
  0
VERTEX
  8
0
  6
CONTINUOUS
 10
6.849920
 20
1.931600
  0
VERTEX
  8
0
  6
CONTINUOUS
 10
6.777760
 20
1.949200
  0
VERTEX
  8
0
  6
CONTINUOUS
 10
6.707800
 20
1.972080
  0
VERTEX
  8
0
  6
CONTINUOUS
 10
6.662040
 20
1.990120
  0
VERTEX
  8
0
  6
CONTINUOUS
 10
6.617600
 20
2.009920
  0
VERTEX
  8
0
  6
CONTINUOUS
 10
6.574480
 20
2.032360
  0
VERTEX
  8
0
  6
CONTINUOUS
 10
6.532680
 20
2.056560
  0
VERTEX
  8
0
  6
CONTINUOUS
 10
6.492200
 20
2.082520
  0
VERTEX
  8
0
  6
CONTINUOUS
 10
6.453040
 20
2.110240
  0
VERTEX
  8
0
  6
CONTINUOUS
 10
6.415200
 20
2.140160
  0
VERTEX
  8
0
  6
CONTINUOUS
 10
6.378680
 20
2.171400
  0
VERTEX
  8
0
  6
CONTINUOUS
 10
6.343920
 20
2.204840
  0
VERTEX
  8
0
  6
CONTINUOUS
 10
6.310920
 20
2.239600
  0
VERTEX
  8
0
  6
CONTINUOUS
 10
6.279240
 20
2.275680
  0
VERTEX
  8
0
  6
CONTINUOUS
 10
6.249760
 20
2.313520
  0
VERTEX
  8
0
  6
CONTINUOUS
 10
6.221600
 20
2.352680
  0
VERTEX
  8
0
  6
CONTINUOUS
 10
6.195640
 20
2.393600
  0
VERTEX
  8
0
  6
CONTINUOUS
 10
6.171440
 20
2.435400
  0
VERTEX
  8
0
  6
CONTINUOUS
 10
6.149440
 20
2.478520
  0
VERTEX
  8
0
  6
CONTINUOUS
 10
6.129640
 20
2.522960
  0
VERTEX
  8
0
  6
CONTINUOUS
 10
6.103240
 20
2.591600
  0
VERTEX
  8
0
  6
CONTINUOUS
 10
6.082560
 20
2.662440
  0
VERTEX
  8
0
  6
CONTINUOUS
 10
6.071120
 20
2.710840
  0
VERTEX
  8
0
  6
CONTINUOUS
 10
6.058800
 20
2.785200
  0
VERTEX
  8
0
  6
CONTINUOUS
 10
6.052200
 20
2.861320
  0
VERTEX
  8
0
  6
CONTINUOUS
 10
6.050880
 20
2.912800
  0
VERTEX
  8
0
  6
CONTINUOUS
 10
6.052200
 20
2.964280
  0
VERTEX
  8
0
  6
CONTINUOUS
 10
6.058800
 20
3.040400
  0
VERTEX
  8
0
  6
CONTINUOUS
 10
6.071120
 20
3.114320
  0
VERTEX
  8
0
  6
CONTINUOUS
 10
6.088720
 20
3.186920
  0
VERTEX
  8
0
  6
CONTINUOUS
 10
6.111600
 20
3.256880
  0
VERTEX
  8
0
  6
CONTINUOUS
 10
6.129640
 20
3.302200
  0
VERTEX
  8
0
  6
CONTINUOUS
 10
6.149440
 20
3.346640
  0
VERTEX
  8
0
  6
CONTINUOUS
 10
6.171440
 20
3.389760
  0
VERTEX
  8
0
  6
CONTINUOUS
 10
6.195640
 20
3.431560
  0
VERTEX
  8
0
  6
CONTINUOUS
 10
6.221600
 20
3.472480
  0
VERTEX
  8
0
  6
CONTINUOUS
 10
6.249760
 20
3.511640
  0
VERTEX
  8
0
  6
CONTINUOUS
 10
6.279240
 20
3.549480
  0
VERTEX
  8
0
  6
CONTINUOUS
 10
6.310920
 20
3.585560
  0
VERTEX
  8
0
  6
CONTINUOUS
 10
6.343920
 20
3.620320
  0
VERTEX
  8
0
  6
CONTINUOUS
 10
6.378680
 20
3.653760
  0
VERTEX
  8
0
  6
CONTINUOUS
 10
6.415200
 20
3.685000
  0
VERTEX
  8
0
  6
CONTINUOUS
 10
6.453040
 20
3.714920
  0
VERTEX
  8
0
  6
CONTINUOUS
 10
6.492200
 20
3.742640
  0
VERTEX
  8
0
  6
CONTINUOUS
 10
6.532680
 20
3.769040
  0
VERTEX
  8
0
  6
CONTINUOUS
 10
6.574480
 20
3.792800
  0
VERTEX
  8
0
  6
CONTINUOUS
 10
6.617600
 20
3.815240
  0
VERTEX
  8
0
  6
CONTINUOUS
 10
6.662040
 20
3.835040
  0
VERTEX
  8
0
  6
CONTINUOUS
 10
6.730680
 20
3.861000
  0
VERTEX
  8
0
  6
CONTINUOUS
 10
6.777760
 20
3.875960
  0
VERTEX
  8
0
  6
CONTINUOUS
 10
6.849920
 20
3.893560
  0
VERTEX
  8
0
  6
CONTINUOUS
 10
6.924280
 20
3.905880
  0
VERTEX
  8
0
  6
CONTINUOUS
 10
7.000400
 20
3.912480
  0
VERTEX
  8
0
  6
CONTINUOUS
 10
7.051880
 20
3.913800
  0
VERTEX
  8
0
  6
CONTINUOUS
 10
7.167600
 20
3.913800
  0
VERTEX
  8
0
  6
CONTINUOUS
 10
7.167600
 20
4.161080
  0
VERTEX
  8
0
  6
CONTINUOUS
 10
5.381640
 20
4.161080
  0
VERTEX
  8
0
  6
CONTINUOUS
 10
5.381640
 20
1.665400
  0
VERTEX
  8
0
  6
CONTINUOUS
 10
7.167600
 20
1.665400
  0
VERTEX
  8
0
  6
CONTINUOUS
 10
7.167600
 20
1.911360
  0
SEQEND
  8
0
  0
SOLID
  8
0
 62
    15
 10
3.344880
 20
2.395800
 11
3.978480
 21
2.758800
 12
3.369520
 22
2.299880
 13
4.003120
 23
2.662880
  0
POLYLINE
  8
0
  6
CONTINUOUS
 66
     1
 40
0.000000
 41
0.000000
  0
VERTEX
  8
0
  6
CONTINUOUS
 10
3.344880
 20
2.395800
  0
VERTEX
  8
0
  6
CONTINUOUS
 10
3.978480
 20
2.758800
  0
VERTEX
  8
0
  6
CONTINUOUS
 10
4.003120
 20
2.662880
  0
VERTEX
  8
0
  6
CONTINUOUS
 10
3.369520
 20
2.299880
  0
VERTEX
  8
0
  6
CONTINUOUS
 10
3.344880
 20
2.395800
  0
SEQEND
  8
0
  0
SOLID
  8
0
 62
    15
 10
3.848240
 20
3.478200
 11
4.482280
 21
3.840760
 12
3.765960
 22
3.428040
 13
4.399560
 23
3.790600
  0
POLYLINE
  8
0
  6
CONTINUOUS
 66
     1
 40
0.000000
 41
0.000000
  0
VERTEX
  8
0
  6
CONTINUOUS
 10
3.848240
 20
3.478200
  0
VERTEX
  8
0
  6
CONTINUOUS
 10
4.482280
 20
3.840760
  0
VERTEX
  8
0
  6
CONTINUOUS
 10
4.399560
 20
3.790600
  0
VERTEX
  8
0
  6
CONTINUOUS
 10
3.765960
 20
3.428040
  0
VERTEX
  8
0
  6
CONTINUOUS
 10
3.848240
 20
3.478200
  0
SEQEND
  8
0
  0
SOLID
  8
0
 62
    15
 10
4.441360
 20
3.846040
 11
5.074960
 21
4.208600
 12
4.441360
 22
3.598760
 13
5.074960
 23
3.961320
  0
POLYLINE
  8
0
  6
CONTINUOUS
 66
     1
 40
0.000000
 41
0.000000
  0
VERTEX
  8
0
  6
CONTINUOUS
 10
4.441360
 20
3.846040
  0
VERTEX
  8
0
  6
CONTINUOUS
 10
5.074960
 20
4.208600
  0
VERTEX
  8
0
  6
CONTINUOUS
 10
5.074960
 20
3.961320
  0
VERTEX
  8
0
  6
CONTINUOUS
 10
4.441360
 20
3.598760
  0
VERTEX
  8
0
  6
CONTINUOUS
 10
4.441360
 20
3.846040
  0
SEQEND
  8
0
  0
SOLID
  8
0
 62
    15
 10
3.765960
 20
3.428040
 11
4.399560
 21
3.790600
 12
3.688520
 22
3.370400
 13
4.322560
 23
3.732960
  0
POLYLINE
  8
0
  6
CONTINUOUS
 66
     1
 40
0.000000
 41
0.000000
  0
VERTEX
  8
0
  6
CONTINUOUS
 10
3.765960
 20
3.428040
  0
VERTEX
  8
0
  6
CONTINUOUS
 10
4.399560
 20
3.790600
  0
VERTEX
  8
0
  6
CONTINUOUS
 10
4.322560
 20
3.732960
  0
VERTEX
  8
0
  6
CONTINUOUS
 10
3.688520
 20
3.370400
  0
VERTEX
  8
0
  6
CONTINUOUS
 10
3.765960
 20
3.428040
  0
SEQEND
  8
0
  0
SOLID
  8
0
 62
    15
 10
3.688520
 20
3.370400
 11
4.322560
 21
3.732960
 12
3.617680
 22
3.305720
 13
4.251720
 23
3.668280
  0
POLYLINE
  8
0
  6
CONTINUOUS
 66
     1
 40
0.000000
 41
0.000000
  0
VERTEX
  8
0
  6
CONTINUOUS
 10
3.688520
 20
3.370400
  0
VERTEX
  8
0
  6
CONTINUOUS
 10
4.322560
 20
3.732960
  0
VERTEX
  8
0
  6
CONTINUOUS
 10
4.251720
 20
3.668280
  0
VERTEX
  8
0
  6
CONTINUOUS
 10
3.617680
 20
3.305720
  0
VERTEX
  8
0
  6
CONTINUOUS
 10
3.688520
 20
3.370400
  0
SEQEND
  8
0
  0
SOLID
  8
0
 62
    15
 10
3.617680
 20
3.305720
 11
4.251720
 21
3.668280
 12
3.553000
 22
3.234440
 13
4.187040
 23
3.597000
  0
POLYLINE
  8
0
  6
CONTINUOUS
 66
     1
 40
0.000000
 41
0.000000
  0
VERTEX
  8
0
  6
CONTINUOUS
 10
3.617680
 20
3.305720
  0
VERTEX
  8
0
  6
CONTINUOUS
 10
4.251720
 20
3.668280
  0
VERTEX
  8
0
  6
CONTINUOUS
 10
4.187040
 20
3.597000
  0
VERTEX
  8
0
  6
CONTINUOUS
 10
3.553000
 20
3.234440
  0
VERTEX
  8
0
  6
CONTINUOUS
 10
3.617680
 20
3.305720
  0
SEQEND
  8
0
  0
SOLID
  8
0
 62
    15
 10
3.553000
 20
3.234440
 11
4.187040
 21
3.597000
 12
3.495360
 22
3.157440
 13
4.129400
 23
3.520000
  0
POLYLINE
  8
0
  6
CONTINUOUS
 66
     1
 40
0.000000
 41
0.000000
  0
VERTEX
  8
0
  6
CONTINUOUS
 10
3.553000
 20
3.234440
  0
VERTEX
  8
0
  6
CONTINUOUS
 10
4.187040
 20
3.597000
  0
VERTEX
  8
0
  6
CONTINUOUS
 10
4.129400
 20
3.520000
  0
VERTEX
  8
0
  6
CONTINUOUS
 10
3.495360
 20
3.157440
  0
VERTEX
  8
0
  6
CONTINUOUS
 10
3.553000
 20
3.234440
  0
SEQEND
  8
0
  0
SOLID
  8
0
 62
    15
 10
3.495360
 20
3.157440
 11
4.129400
 21
3.520000
 12
3.445200
 22
3.074720
 13
4.079240
 23
3.437720
  0
POLYLINE
  8
0
  6
CONTINUOUS
 66
     1
 40
0.000000
 41
0.000000
  0
VERTEX
  8
0
  6
CONTINUOUS
 10
3.495360
 20
3.157440
  0
VERTEX
  8
0
  6
CONTINUOUS
 10
4.129400
 20
3.520000
  0
VERTEX
  8
0
  6
CONTINUOUS
 10
4.079240
 20
3.437720
  0
VERTEX
  8
0
  6
CONTINUOUS
 10
3.445200
 20
3.074720
  0
VERTEX
  8
0
  6
CONTINUOUS
 10
3.495360
 20
3.157440
  0
SEQEND
  8
0
  0
SOLID
  8
0
 62
    15
 10
3.445200
 20
3.074720
 11
4.079240
 21
3.437720
 12
3.402960
 22
2.987160
 13
4.037000
 23
3.350160
  0
POLYLINE
  8
0
  6
CONTINUOUS
 66
     1
 40
0.000000
 41
0.000000
  0
VERTEX
  8
0
  6
CONTINUOUS
 10
3.445200
 20
3.074720
  0
VERTEX
  8
0
  6
CONTINUOUS
 10
4.079240
 20
3.437720
  0
VERTEX
  8
0
  6
CONTINUOUS
 10
4.037000
 20
3.350160
  0
VERTEX
  8
0
  6
CONTINUOUS
 10
3.402960
 20
2.987160
  0
VERTEX
  8
0
  6
CONTINUOUS
 10
3.445200
 20
3.074720
  0
SEQEND
  8
0
  0
SOLID
  8
0
 62
    15
 10
3.402960
 20
2.987160
 11
4.037000
 21
3.350160
 12
3.369520
 22
2.895200
 13
4.003120
 23
3.258200
  0
POLYLINE
  8
0
  6
CONTINUOUS
 66
     1
 40
0.000000
 41
0.000000
  0
VERTEX
  8
0
  6
CONTINUOUS
 10
3.402960
 20
2.987160
  0
VERTEX
  8
0
  6
CONTINUOUS
 10
4.037000
 20
3.350160
  0
VERTEX
  8
0
  6
CONTINUOUS
 10
4.003120
 20
3.258200
  0
VERTEX
  8
0
  6
CONTINUOUS
 10
3.369520
 20
2.895200
  0
VERTEX
  8
0
  6
CONTINUOUS
 10
3.402960
 20
2.987160
  0
SEQEND
  8
0
  0
SOLID
  8
0
 62
    15
 10
3.369520
 20
2.895200
 11
4.003120
 21
3.258200
 12
3.344880
 22
2.799280
 13
3.978480
 23
3.162280
  0
POLYLINE
  8
0
  6
CONTINUOUS
 66
     1
 40
0.000000
 41
0.000000
  0
VERTEX
  8
0
  6
CONTINUOUS
 10
3.369520
 20
2.895200
  0
VERTEX
  8
0
  6
CONTINUOUS
 10
4.003120
 20
3.258200
  0
VERTEX
  8
0
  6
CONTINUOUS
 10
3.978480
 20
3.162280
  0
VERTEX
  8
0
  6
CONTINUOUS
 10
3.344880
 20
2.799280
  0
VERTEX
  8
0
  6
CONTINUOUS
 10
3.369520
 20
2.895200
  0
SEQEND
  8
0
  0
SOLID
  8
0
 62
    15
 10
3.344880
 20
2.799280
 11
3.978480
 21
3.162280
 12
3.329480
 22
2.699840
 13
3.963520
 23
3.062840
  0
POLYLINE
  8
0
  6
CONTINUOUS
 66
     1
 40
0.000000
 41
0.000000
  0
VERTEX
  8
0
  6
CONTINUOUS
 10
3.344880
 20
2.799280
  0
VERTEX
  8
0
  6
CONTINUOUS
 10
3.978480
 20
3.162280
  0
VERTEX
  8
0
  6
CONTINUOUS
 10
3.963520
 20
3.062840
  0
VERTEX
  8
0
  6
CONTINUOUS
 10
3.329480
 20
2.699840
  0
VERTEX
  8
0
  6
CONTINUOUS
 10
3.344880
 20
2.799280
  0
SEQEND
  8
0
  0
SOLID
  8
0
 62
    15
 10
3.329480
 20
2.699840
 11
3.963520
 21
3.062840
 12
3.324200
 22
2.597760
 13
3.958240
 23
2.960320
  0
POLYLINE
  8
0
  6
CONTINUOUS
 66
     1
 40
0.000000
 41
0.000000
  0
VERTEX
  8
0
  6
CONTINUOUS
 10
3.329480
 20
2.699840
  0
VERTEX
  8
0
  6
CONTINUOUS
 10
3.963520
 20
3.062840
  0
VERTEX
  8
0
  6
CONTINUOUS
 10
3.958240
 20
2.960320
  0
VERTEX
  8
0
  6
CONTINUOUS
 10
3.324200
 20
2.597760
  0
VERTEX
  8
0
  6
CONTINUOUS
 10
3.329480
 20
2.699840
  0
SEQEND
  8
0
  0
SOLID
  8
0
 62
    15
 10
3.324200
 20
2.597760
 11
3.958240
 21
2.960320
 12
3.329480
 22
2.495240
 13
3.963520
 23
2.857800
  0
POLYLINE
  8
0
  6
CONTINUOUS
 66
     1
 40
0.000000
 41
0.000000
  0
VERTEX
  8
0
  6
CONTINUOUS
 10
3.324200
 20
2.597760
  0
VERTEX
  8
0
  6
CONTINUOUS
 10
3.958240
 20
2.960320
  0
VERTEX
  8
0
  6
CONTINUOUS
 10
3.963520
 20
2.857800
  0
VERTEX
  8
0
  6
CONTINUOUS
 10
3.329480
 20
2.495240
  0
VERTEX
  8
0
  6
CONTINUOUS
 10
3.324200
 20
2.597760
  0
SEQEND
  8
0
  0
SOLID
  8
0
 62
    15
 10
3.329480
 20
2.495240
 11
3.963520
 21
2.857800
 12
3.344880
 22
2.395800
 13
3.978480
 23
2.758800
  0
POLYLINE
  8
0
  6
CONTINUOUS
 66
     1
 40
0.000000
 41
0.000000
  0
VERTEX
  8
0
  6
CONTINUOUS
 10
3.329480
 20
2.495240
  0
VERTEX
  8
0
  6
CONTINUOUS
 10
3.963520
 20
2.857800
  0
VERTEX
  8
0
  6
CONTINUOUS
 10
3.978480
 20
2.758800
  0
VERTEX
  8
0
  6
CONTINUOUS
 10
3.344880
 20
2.395800
  0
VERTEX
  8
0
  6
CONTINUOUS
 10
3.329480
 20
2.495240
  0
SEQEND
  8
0
  0
SOLID
  8
0
 62
    15
 10
2.655400
 20
3.846040
 11
3.289000
 21
4.208600
 12
4.441360
 22
3.846040
 13
5.074960
 23
4.208600
  0
POLYLINE
  8
0
  6
CONTINUOUS
 66
     1
 40
0.000000
 41
0.000000
  0
VERTEX
  8
0
  6
CONTINUOUS
 10
2.655400
 20
3.846040
  0
VERTEX
  8
0
  6
CONTINUOUS
 10
3.289000
 20
4.208600
  0
VERTEX
  8
0
  6
CONTINUOUS
 10
5.074960
 20
4.208600
  0
VERTEX
  8
0
  6
CONTINUOUS
 10
4.441360
 20
3.846040
  0
VERTEX
  8
0
  6
CONTINUOUS
 10
2.655400
 20
3.846040
  0
SEQEND
  8
0
  0
SOLID
  8
0
 62
    15
 10
3.369520
 20
2.299880
 11
4.003120
 21
2.662880
 12
3.402960
 22
2.207920
 13
4.037000
 23
2.570480
  0
POLYLINE
  8
0
  6
CONTINUOUS
 66
     1
 40
0.000000
 41
0.000000
  0
VERTEX
  8
0
  6
CONTINUOUS
 10
3.369520
 20
2.299880
  0
VERTEX
  8
0
  6
CONTINUOUS
 10
4.003120
 20
2.662880
  0
VERTEX
  8
0
  6
CONTINUOUS
 10
4.037000
 20
2.570480
  0
VERTEX
  8
0
  6
CONTINUOUS
 10
3.402960
 20
2.207920
  0
VERTEX
  8
0
  6
CONTINUOUS
 10
3.369520
 20
2.299880
  0
SEQEND
  8
0
  0
SOLID
  8
0
 62
    15
 10
3.402960
 20
2.207920
 11
4.037000
 21
2.570480
 12
3.445200
 22
2.120360
 13
4.079240
 23
2.483360
  0
POLYLINE
  8
0
  6
CONTINUOUS
 66
     1
 40
0.000000
 41
0.000000
  0
VERTEX
  8
0
  6
CONTINUOUS
 10
3.402960
 20
2.207920
  0
VERTEX
  8
0
  6
CONTINUOUS
 10
4.037000
 20
2.570480
  0
VERTEX
  8
0
  6
CONTINUOUS
 10
4.079240
 20
2.483360
  0
VERTEX
  8
0
  6
CONTINUOUS
 10
3.445200
 20
2.120360
  0
VERTEX
  8
0
  6
CONTINUOUS
 10
3.402960
 20
2.207920
  0
SEQEND
  8
0
  0
SOLID
  8
0
 62
    15
 10
3.445200
 20
2.120360
 11
4.079240
 21
2.483360
 12
3.495360
 22
2.038080
 13
4.129400
 23
2.400640
  0
POLYLINE
  8
0
  6
CONTINUOUS
 66
     1
 40
0.000000
 41
0.000000
  0
VERTEX
  8
0
  6
CONTINUOUS
 10
3.445200
 20
2.120360
  0
VERTEX
  8
0
  6
CONTINUOUS
 10
4.079240
 20
2.483360
  0
VERTEX
  8
0
  6
CONTINUOUS
 10
4.129400
 20
2.400640
  0
VERTEX
  8
0
  6
CONTINUOUS
 10
3.495360
 20
2.038080
  0
VERTEX
  8
0
  6
CONTINUOUS
 10
3.445200
 20
2.120360
  0
SEQEND
  8
0
  0
SOLID
  8
0
 62
    15
 10
3.495360
 20
2.038080
 11
4.129400
 21
2.400640
 12
3.553000
 22
1.960640
 13
4.187040
 23
2.323640
  0
POLYLINE
  8
0
  6
CONTINUOUS
 66
     1
 40
0.000000
 41
0.000000
  0
VERTEX
  8
0
  6
CONTINUOUS
 10
3.495360
 20
2.038080
  0
VERTEX
  8
0
  6
CONTINUOUS
 10
4.129400
 20
2.400640
  0
VERTEX
  8
0
  6
CONTINUOUS
 10
4.187040
 20
2.323640
  0
VERTEX
  8
0
  6
CONTINUOUS
 10
3.553000
 20
1.960640
  0
VERTEX
  8
0
  6
CONTINUOUS
 10
3.495360
 20
2.038080
  0
SEQEND
  8
0
  0
SOLID
  8
0
 62
    15
 10
3.553000
 20
1.960640
 11
4.187040
 21
2.323640
 12
3.617680
 22
1.889800
 13
4.251720
 23
2.252360
  0
POLYLINE
  8
0
  6
CONTINUOUS
 66
     1
 40
0.000000
 41
0.000000
  0
VERTEX
  8
0
  6
CONTINUOUS
 10
3.553000
 20
1.960640
  0
VERTEX
  8
0
  6
CONTINUOUS
 10
4.187040
 20
2.323640
  0
VERTEX
  8
0
  6
CONTINUOUS
 10
4.251720
 20
2.252360
  0
VERTEX
  8
0
  6
CONTINUOUS
 10
3.617680
 20
1.889800
  0
VERTEX
  8
0
  6
CONTINUOUS
 10
3.553000
 20
1.960640
  0
SEQEND
  8
0
  0
SOLID
  8
0
 62
    15
 10
3.617680
 20
1.889800
 11
4.251720
 21
2.252360
 12
3.688520
 22
1.825120
 13
4.322560
 23
2.187680
  0
POLYLINE
  8
0
  6
CONTINUOUS
 66
     1
 40
0.000000
 41
0.000000
  0
VERTEX
  8
0
  6
CONTINUOUS
 10
3.617680
 20
1.889800
  0
VERTEX
  8
0
  6
CONTINUOUS
 10
4.251720
 20
2.252360
  0
VERTEX
  8
0
  6
CONTINUOUS
 10
4.322560
 20
2.187680
  0
VERTEX
  8
0
  6
CONTINUOUS
 10
3.688520
 20
1.825120
  0
VERTEX
  8
0
  6
CONTINUOUS
 10
3.617680
 20
1.889800
  0
SEQEND
  8
0
  0
SOLID
  8
0
 62
    15
 10
3.688520
 20
1.825120
 11
4.322560
 21
2.187680
 12
3.765960
 22
1.767480
 13
4.399560
 23
2.130040
  0
POLYLINE
  8
0
  6
CONTINUOUS
 66
     1
 40
0.000000
 41
0.000000
  0
VERTEX
  8
0
  6
CONTINUOUS
 10
3.688520
 20
1.825120
  0
VERTEX
  8
0
  6
CONTINUOUS
 10
4.322560
 20
2.187680
  0
VERTEX
  8
0
  6
CONTINUOUS
 10
4.399560
 20
2.130040
  0
VERTEX
  8
0
  6
CONTINUOUS
 10
3.765960
 20
1.767480
  0
VERTEX
  8
0
  6
CONTINUOUS
 10
3.688520
 20
1.825120
  0
SEQEND
  8
0
  0
SOLID
  8
0
 62
    15
 10
3.765960
 20
1.767480
 11
4.399560
 21
2.130040
 12
3.848240
 22
1.717320
 13
4.482280
 23
2.079880
  0
POLYLINE
  8
0
  6
CONTINUOUS
 66
     1
 40
0.000000
 41
0.000000
  0
VERTEX
  8
0
  6
CONTINUOUS
 10
3.765960
 20
1.767480
  0
VERTEX
  8
0
  6
CONTINUOUS
 10
4.399560
 20
2.130040
  0
VERTEX
  8
0
  6
CONTINUOUS
 10
4.482280
 20
2.079880
  0
VERTEX
  8
0
  6
CONTINUOUS
 10
3.848240
 20
1.717320
  0
VERTEX
  8
0
  6
CONTINUOUS
 10
3.765960
 20
1.767480
  0
SEQEND
  8
0
  0
SOLID
  8
0
 62
    15
 10
3.848240
 20
1.717320
 11
4.482280
 21
2.079880
 12
3.935800
 22
1.675080
 13
4.569840
 23
2.038080
  0
POLYLINE
  8
0
  6
CONTINUOUS
 66
     1
 40
0.000000
 41
0.000000
  0
VERTEX
  8
0
  6
CONTINUOUS
 10
3.848240
 20
1.717320
  0
VERTEX
  8
0
  6
CONTINUOUS
 10
4.482280
 20
2.079880
  0
VERTEX
  8
0
  6
CONTINUOUS
 10
4.569840
 20
2.038080
  0
VERTEX
  8
0
  6
CONTINUOUS
 10
3.935800
 20
1.675080
  0
VERTEX
  8
0
  6
CONTINUOUS
 10
3.848240
 20
1.717320
  0
SEQEND
  8
0
  0
SOLID
  8
0
 62
    15
 10
3.935800
 20
1.675080
 11
4.569840
 21
2.038080
 12
4.027760
 22
1.641640
 13
4.661800
 23
2.004200
  0
POLYLINE
  8
0
  6
CONTINUOUS
 66
     1
 40
0.000000
 41
0.000000
  0
VERTEX
  8
0
  6
CONTINUOUS
 10
3.935800
 20
1.675080
  0
VERTEX
  8
0
  6
CONTINUOUS
 10
4.569840
 20
2.038080
  0
VERTEX
  8
0
  6
CONTINUOUS
 10
4.661800
 20
2.004200
  0
VERTEX
  8
0
  6
CONTINUOUS
 10
4.027760
 20
1.641640
  0
VERTEX
  8
0
  6
CONTINUOUS
 10
3.935800
 20
1.675080
  0
SEQEND
  8
0
  0
SOLID
  8
0
 62
    15
 10
4.027760
 20
1.641640
 11
4.661800
 21
2.004200
 12
4.123680
 22
1.617000
 13
4.757720
 23
1.979560
  0
POLYLINE
  8
0
  6
CONTINUOUS
 66
     1
 40
0.000000
 41
0.000000
  0
VERTEX
  8
0
  6
CONTINUOUS
 10
4.027760
 20
1.641640
  0
VERTEX
  8
0
  6
CONTINUOUS
 10
4.661800
 20
2.004200
  0
VERTEX
  8
0
  6
CONTINUOUS
 10
4.757720
 20
1.979560
  0
VERTEX
  8
0
  6
CONTINUOUS
 10
4.123680
 20
1.617000
  0
VERTEX
  8
0
  6
CONTINUOUS
 10
4.027760
 20
1.641640
  0
SEQEND
  8
0
  0
SOLID
  8
0
 62
    15
 10
4.123680
 20
1.617000
 11
4.757720
 21
1.979560
 12
4.223120
 22
1.601600
 13
4.857160
 23
1.964160
  0
POLYLINE
  8
0
  6
CONTINUOUS
 66
     1
 40
0.000000
 41
0.000000
  0
VERTEX
  8
0
  6
CONTINUOUS
 10
4.123680
 20
1.617000
  0
VERTEX
  8
0
  6
CONTINUOUS
 10
4.757720
 20
1.979560
  0
VERTEX
  8
0
  6
CONTINUOUS
 10
4.857160
 20
1.964160
  0
VERTEX
  8
0
  6
CONTINUOUS
 10
4.223120
 20
1.601600
  0
VERTEX
  8
0
  6
CONTINUOUS
 10
4.123680
 20
1.617000
  0
SEQEND
  8
0
  0
SOLID
  8
0
 62
    15
 10
4.223120
 20
1.601600
 11
4.857160
 21
1.964160
 12
4.325640
 22
1.596320
 13
4.959240
 23
1.959320
  0
POLYLINE
  8
0
  6
CONTINUOUS
 66
     1
 40
0.000000
 41
0.000000
  0
VERTEX
  8
0
  6
CONTINUOUS
 10
4.223120
 20
1.601600
  0
VERTEX
  8
0
  6
CONTINUOUS
 10
4.857160
 20
1.964160
  0
VERTEX
  8
0
  6
CONTINUOUS
 10
4.959240
 20
1.959320
  0
VERTEX
  8
0
  6
CONTINUOUS
 10
4.325640
 20
1.596320
  0
VERTEX
  8
0
  6
CONTINUOUS
 10
4.223120
 20
1.601600
  0
SEQEND
  8
0
  0
SOLID
  8
0
 62
    15
 10
4.325640
 20
1.596320
 11
4.959240
 21
1.959320
 12
4.441360
 22
1.596320
 13
5.074960
 23
1.959320
  0
POLYLINE
  8
0
  6
CONTINUOUS
 66
     1
 40
0.000000
 41
0.000000
  0
VERTEX
  8
0
  6
CONTINUOUS
 10
4.325640
 20
1.596320
  0
VERTEX
  8
0
  6
CONTINUOUS
 10
4.959240
 20
1.959320
  0
VERTEX
  8
0
  6
CONTINUOUS
 10
5.074960
 20
1.959320
  0
VERTEX
  8
0
  6
CONTINUOUS
 10
4.441360
 20
1.596320
  0
VERTEX
  8
0
  6
CONTINUOUS
 10
4.325640
 20
1.596320
  0
SEQEND
  8
0
  0
SOLID
  8
0
 62
    15
 10
4.441360
 20
1.596320
 11
5.074960
 21
1.959320
 12
4.441360
 22
1.350360
 13
5.074960
 23
1.713360
  0
POLYLINE
  8
0
  6
CONTINUOUS
 66
     1
 40
0.000000
 41
0.000000
  0
VERTEX
  8
0
  6
CONTINUOUS
 10
4.441360
 20
1.596320
  0
VERTEX
  8
0
  6
CONTINUOUS
 10
5.074960
 20
1.959320
  0
VERTEX
  8
0
  6
CONTINUOUS
 10
5.074960
 20
1.713360
  0
VERTEX
  8
0
  6
CONTINUOUS
 10
4.441360
 20
1.350360
  0
VERTEX
  8
0
  6
CONTINUOUS
 10
4.441360
 20
1.596320
  0
SEQEND
  8
0
  0
POLYLINE
  8
0
  6
CONTINUOUS
 66
     1
 40
0.000000
 41
0.000000
  0
VERTEX
  8
0
  6
CONTINUOUS
 10
4.441360
 20
1.350360
  0
VERTEX
  8
0
  6
CONTINUOUS
 10
2.655400
 20
1.350360
  0
VERTEX
  8
0
  6
CONTINUOUS
 10
2.655400
 20
3.846040
  0
VERTEX
  8
0
  6
CONTINUOUS
 10
4.441360
 20
3.846040
  0
VERTEX
  8
0
  6
CONTINUOUS
 10
4.441360
 20
3.598760
  0
VERTEX
  8
0
  6
CONTINUOUS
 10
4.325640
 20
3.598760
  0
VERTEX
  8
0
  6
CONTINUOUS
 10
4.223120
 20
3.593480
  0
VERTEX
  8
0
  6
CONTINUOUS
 10
4.123680
 20
3.578520
  0
VERTEX
  8
0
  6
CONTINUOUS
 10
4.027760
 20
3.553880
  0
VERTEX
  8
0
  6
CONTINUOUS
 10
3.935800
 20
3.520000
  0
VERTEX
  8
0
  6
CONTINUOUS
 10
3.848240
 20
3.478200
  0
VERTEX
  8
0
  6
CONTINUOUS
 10
3.765960
 20
3.428040
  0
VERTEX
  8
0
  6
CONTINUOUS
 10
3.688520
 20
3.370400
  0
VERTEX
  8
0
  6
CONTINUOUS
 10
3.617680
 20
3.305720
  0
VERTEX
  8
0
  6
CONTINUOUS
 10
3.553000
 20
3.234440
  0
VERTEX
  8
0
  6
CONTINUOUS
 10
3.495360
 20
3.157440
  0
VERTEX
  8
0
  6
CONTINUOUS
 10
3.445200
 20
3.074720
  0
VERTEX
  8
0
  6
CONTINUOUS
 10
3.402960
 20
2.987160
  0
VERTEX
  8
0
  6
CONTINUOUS
 10
3.369520
 20
2.895200
  0
VERTEX
  8
0
  6
CONTINUOUS
 10
3.344880
 20
2.799280
  0
VERTEX
  8
0
  6
CONTINUOUS
 10
3.329480
 20
2.699840
  0
VERTEX
  8
0
  6
CONTINUOUS
 10
3.324200
 20
2.597760
  0
VERTEX
  8
0
  6
CONTINUOUS
 10
3.329480
 20
2.495240
  0
VERTEX
  8
0
  6
CONTINUOUS
 10
3.344880
 20
2.395800
  0
VERTEX
  8
0
  6
CONTINUOUS
 10
3.369520
 20
2.299880
  0
VERTEX
  8
0
  6
CONTINUOUS
 10
3.402960
 20
2.207920
  0
VERTEX
  8
0
  6
CONTINUOUS
 10
3.445200
 20
2.120360
  0
VERTEX
  8
0
  6
CONTINUOUS
 10
3.495360
 20
2.038080
  0
VERTEX
  8
0
  6
CONTINUOUS
 10
3.553000
 20
1.960640
  0
VERTEX
  8
0
  6
CONTINUOUS
 10
3.617680
 20
1.889800
  0
VERTEX
  8
0
  6
CONTINUOUS
 10
3.688520
 20
1.825120
  0
VERTEX
  8
0
  6
CONTINUOUS
 10
3.765960
 20
1.767480
  0
VERTEX
  8
0
  6
CONTINUOUS
 10
3.848240
 20
1.717320
  0
VERTEX
  8
0
  6
CONTINUOUS
 10
3.935800
 20
1.675080
  0
VERTEX
  8
0
  6
CONTINUOUS
 10
4.027760
 20
1.641640
  0
VERTEX
  8
0
  6
CONTINUOUS
 10
4.123680
 20
1.617000
  0
VERTEX
  8
0
  6
CONTINUOUS
 10
4.223120
 20
1.601600
  0
VERTEX
  8
0
  6
CONTINUOUS
 10
4.325640
 20
1.596320
  0
VERTEX
  8
0
  6
CONTINUOUS
 10
4.441360
 20
1.596320
  0
VERTEX
  8
0
  6
CONTINUOUS
 10
4.441360
 20
1.350360
  0
SEQEND
  8
0
  0
TEXT
  8
0
 10
3.542880
 20
1.056000
 40
0.138180
  1
BA  889
 41
1.000000
  7
SN0
 71
     0
 72
     5
 11
4.133642
 21
1.056000
  0
TEXT
  8
0
 10
3.197920
 20
0.864600
 40
0.138180
  1
1-13/16 " x 2-1/2" 
 41
1.000000
  7
SN0
 71
     0
 72
     5
 11
4.524089
 21
0.864600
  0
ENDSEC
  0
EOF
