  0
SECTION
  2
HEADER
  9
$ACADVER
  1
AC1006
  9
$EXTMIN
 10
3.858360
 20
0.611160
  9
$EXTMAX
 10
6.884680
 20
4.619120
  9
$LTSCALE
 40
0.044000
  9
$PDMODE
 70
    35
  9
$PDSIZE
 40
0.035200
  0
ENDSEC
  0
SECTION
  2
TABLES
  0
TABLE
  2
LTYPE
 70
     9
  0
LTYPE
  2
CONTINUOUS
 70
    64
  3
Solid line
 72
    65
 73
     0
 40
0.000000
  0
LTYPE
  2
DASHED
 70
    64
  3
__ __ __ __ __ __ __ __ __ __ __ __ __ __ __
 72
    65
 73
     2
 40
0.000330
 49
0.000220
 49
-0.000110
  0
LTYPE
  2
HIDDEN
 70
    64
  3
 _ _ _ _ _ _ _ _ _ _ _ _ _ _ _ _ _ _ _ _ _ _
 72
    65
 73
     2
 40
0.000165
 49
0.000110
 49
-0.000055
  0
LTYPE
  2
CENTER
 70
    64
  3
____ _ ____ _ ____ _ ____ _ ____ _ ____ _ ____
 72
    65
 73
     4
 40
0.000880
 49
0.000550
 49
-0.000110
 49
0.000110
 49
-0.000110
  0
LTYPE
  2
PHANTOM
 70
    64
  3
_____ _ _ _____ _ _ _____ _ _ _____ _ _ ____
 72
    65
 73
     6
 40
0.001100
 49
0.000550
 49
-0.000110
 49
0.000110
 49
-0.000110
 49
0.000110
 49
-0.000110
  0
LTYPE
  2
DOT
 70
    64
  3
...............................................
 72
    65
 73
     2
 40
0.000110
 49
0.000000
 49
-0.000110
  0
LTYPE
  2
DASHDOT
 70
    64
  3
__ . __ . __ . __ . __ . __ . __ . __ . __ . __
 72
    65
 73
     4
 40
0.000440
 49
0.000220
 49
-0.000110
 49
0.000000
 49
-0.000110
  0
LTYPE
  2
BORDER
 70
    64
  3
__ __ . __ __ . __ __ . __ __ . __ __ . __ __
 72
    65
 73
     6
 40
0.000770
 49
0.000220
 49
-0.000110
 49
0.000220
 49
-0.000110
 49
0.000000
 49
-0.000110
  0
LTYPE
  2
DIVIDE
 70
    64
  3
__ . . __ . . __ . . __ . . __ . . __ . . __
 72
    65
 73
     6
 40
0.000550
 49
0.000220
 49
-0.000110
 49
0.000000
 49
-0.000110
 49
0.000000
 49
-0.000110
  0
LTYPE
  2
DOTDOT
 70
    64
  3
 . .  . .  . .  . .  . .  . . 
 72
    65
 73
     5
 40
0.000242
 49
-0.000110
 49
0.000000
 49
-0.000110
 49
0.000000
 49
-0.000110
  0
ENDTAB
  0
TABLE
  2
STYLE
 70
     2
  0
STYLE
 70
     0
  2
SN0
 40
0.000000
 41
0.000440
 50
0.000000
 71
     0
 42
0.000000
  3
ROMAND
  0
STYLE
 70
    68
  2
SV0
 40
0.000000
 41
0.000440
 50
0.000000
 71
     0
 42
0.000000
  3
ROMAND
  0
ENDTAB
  0
TABLE
  2
LAYER
 70
     3
  0
LAYER
  2
FOREGROUND
 70
    64
 62
     7
  6
CONTINUOUS
  0
LAYER
  2
BACKGROUND
 70
    65
 62
    -7
  6
CONTINUOUS
  0
LAYER
  2
0
 70
    64
 62
     7
  6
CONTINUOUS
  0
ENDTAB
  0
ENDSEC
  0
SECTION
  2
ENTITIES
  0
POLYLINE
  8
FOREGROUND
  6
CONTINUOUS
 66
     1
 40
0.000000
 41
0.000000
  0
VERTEX
  8
FOREGROUND
  6
CONTINUOUS
 10
0.000000
 20
5.230280
  0
VERTEX
  8
FOREGROUND
  6
CONTINUOUS
 10
8.499920
 20
5.230280
  0
VERTEX
  8
FOREGROUND
  6
CONTINUOUS
 10
8.499920
 20
-5.769720
  0
VERTEX
  8
FOREGROUND
  6
CONTINUOUS
 10
0.000000
 20
-5.769720
  0
VERTEX
  8
FOREGROUND
  6
CONTINUOUS
 10
0.000000
 20
5.230280
  0
SEQEND
  8
0
  0
POLYLINE
  8
FOREGROUND
  6
CONTINUOUS
 66
     1
 40
0.000000
 41
0.000000
  0
VERTEX
  8
FOREGROUND
  6
CONTINUOUS
 10
0.000000
 20
5.230280
  0
VERTEX
  8
FOREGROUND
  6
CONTINUOUS
 10
8.499920
 20
5.230280
  0
VERTEX
  8
FOREGROUND
  6
CONTINUOUS
 10
8.499920
 20
-5.769720
  0
VERTEX
  8
FOREGROUND
  6
CONTINUOUS
 10
0.000000
 20
-5.769720
  0
VERTEX
  8
FOREGROUND
  6
CONTINUOUS
 10
0.000000
 20
5.230280
  0
SEQEND
  8
0
  0
SOLID
  8
0
 62
    15
 10
5.526840
 20
1.732720
 11
5.531240
 21
2.475880
 12
5.551480
 22
1.738880
 13
5.555440
 23
2.481600
  0
POLYLINE
  8
0
  6
CONTINUOUS
 66
     1
 40
0.000000
 41
0.000000
  0
VERTEX
  8
0
  6
CONTINUOUS
 10
5.526840
 20
1.732720
  0
VERTEX
  8
0
  6
CONTINUOUS
 10
5.531240
 20
2.475880
  0
VERTEX
  8
0
  6
CONTINUOUS
 10
5.555440
 20
2.481600
  0
VERTEX
  8
0
  6
CONTINUOUS
 10
5.551480
 20
1.738880
  0
VERTEX
  8
0
  6
CONTINUOUS
 10
5.526840
 20
1.732720
  0
SEQEND
  8
0
  0
SOLID
  8
0
 62
    15
 10
4.337960
 20
2.219800
 11
4.341920
 21
2.962520
 12
4.337960
 22
2.030160
 13
4.341920
 23
2.772880
  0
POLYLINE
  8
0
  6
CONTINUOUS
 66
     1
 40
0.000000
 41
0.000000
  0
VERTEX
  8
0
  6
CONTINUOUS
 10
4.337960
 20
2.219800
  0
VERTEX
  8
0
  6
CONTINUOUS
 10
4.341920
 20
2.962520
  0
VERTEX
  8
0
  6
CONTINUOUS
 10
4.341920
 20
2.772880
  0
VERTEX
  8
0
  6
CONTINUOUS
 10
4.337960
 20
2.030160
  0
VERTEX
  8
0
  6
CONTINUOUS
 10
4.337960
 20
2.219800
  0
SEQEND
  8
0
  0
SOLID
  8
0
 62
    15
 10
4.337960
 20
2.030160
 11
4.341920
 21
2.772880
 12
4.495040
 22
2.030160
 13
4.499440
 23
2.772880
  0
POLYLINE
  8
0
  6
CONTINUOUS
 66
     1
 40
0.000000
 41
0.000000
  0
VERTEX
  8
0
  6
CONTINUOUS
 10
4.337960
 20
2.030160
  0
VERTEX
  8
0
  6
CONTINUOUS
 10
4.341920
 20
2.772880
  0
VERTEX
  8
0
  6
CONTINUOUS
 10
4.499440
 20
2.772880
  0
VERTEX
  8
0
  6
CONTINUOUS
 10
4.495040
 20
2.030160
  0
VERTEX
  8
0
  6
CONTINUOUS
 10
4.337960
 20
2.030160
  0
SEQEND
  8
0
  0
SOLID
  8
0
 62
    15
 10
4.495040
 20
2.030160
 11
4.499440
 21
2.772880
 12
4.525400
 22
2.074600
 13
4.529800
 23
2.817320
  0
POLYLINE
  8
0
  6
CONTINUOUS
 66
     1
 40
0.000000
 41
0.000000
  0
VERTEX
  8
0
  6
CONTINUOUS
 10
4.495040
 20
2.030160
  0
VERTEX
  8
0
  6
CONTINUOUS
 10
4.499440
 20
2.772880
  0
VERTEX
  8
0
  6
CONTINUOUS
 10
4.529800
 20
2.817320
  0
VERTEX
  8
0
  6
CONTINUOUS
 10
4.525400
 20
2.074600
  0
VERTEX
  8
0
  6
CONTINUOUS
 10
4.495040
 20
2.030160
  0
SEQEND
  8
0
  0
SOLID
  8
0
 62
    15
 10
4.525400
 20
2.074600
 11
4.529800
 21
2.817320
 12
4.558400
 22
2.108480
 13
4.562800
 23
2.851200
  0
POLYLINE
  8
0
  6
CONTINUOUS
 66
     1
 40
0.000000
 41
0.000000
  0
VERTEX
  8
0
  6
CONTINUOUS
 10
4.525400
 20
2.074600
  0
VERTEX
  8
0
  6
CONTINUOUS
 10
4.529800
 20
2.817320
  0
VERTEX
  8
0
  6
CONTINUOUS
 10
4.562800
 20
2.851200
  0
VERTEX
  8
0
  6
CONTINUOUS
 10
4.558400
 20
2.108480
  0
VERTEX
  8
0
  6
CONTINUOUS
 10
4.525400
 20
2.074600
  0
SEQEND
  8
0
  0
SOLID
  8
0
 62
    15
 10
4.558400
 20
2.108480
 11
4.562800
 21
2.851200
 12
4.593600
 22
2.132240
 13
4.597560
 23
2.874960
  0
POLYLINE
  8
0
  6
CONTINUOUS
 66
     1
 40
0.000000
 41
0.000000
  0
VERTEX
  8
0
  6
CONTINUOUS
 10
4.558400
 20
2.108480
  0
VERTEX
  8
0
  6
CONTINUOUS
 10
4.562800
 20
2.851200
  0
VERTEX
  8
0
  6
CONTINUOUS
 10
4.597560
 20
2.874960
  0
VERTEX
  8
0
  6
CONTINUOUS
 10
4.593600
 20
2.132240
  0
VERTEX
  8
0
  6
CONTINUOUS
 10
4.558400
 20
2.108480
  0
SEQEND
  8
0
  0
SOLID
  8
0
 62
    15
 10
4.593600
 20
2.132240
 11
4.597560
 21
2.874960
 12
4.630120
 22
2.147640
 13
4.634080
 23
2.890360
  0
POLYLINE
  8
0
  6
CONTINUOUS
 66
     1
 40
0.000000
 41
0.000000
  0
VERTEX
  8
0
  6
CONTINUOUS
 10
4.593600
 20
2.132240
  0
VERTEX
  8
0
  6
CONTINUOUS
 10
4.597560
 20
2.874960
  0
VERTEX
  8
0
  6
CONTINUOUS
 10
4.634080
 20
2.890360
  0
VERTEX
  8
0
  6
CONTINUOUS
 10
4.630120
 20
2.147640
  0
VERTEX
  8
0
  6
CONTINUOUS
 10
4.593600
 20
2.132240
  0
SEQEND
  8
0
  0
SOLID
  8
0
 62
    15
 10
4.630120
 20
2.147640
 11
4.634080
 21
2.890360
 12
4.667520
 22
2.155120
 13
4.671920
 23
2.897840
  0
POLYLINE
  8
0
  6
CONTINUOUS
 66
     1
 40
0.000000
 41
0.000000
  0
VERTEX
  8
0
  6
CONTINUOUS
 10
4.630120
 20
2.147640
  0
VERTEX
  8
0
  6
CONTINUOUS
 10
4.634080
 20
2.890360
  0
VERTEX
  8
0
  6
CONTINUOUS
 10
4.671920
 20
2.897840
  0
VERTEX
  8
0
  6
CONTINUOUS
 10
4.667520
 20
2.155120
  0
VERTEX
  8
0
  6
CONTINUOUS
 10
4.630120
 20
2.147640
  0
SEQEND
  8
0
  0
SOLID
  8
0
 62
    15
 10
4.667520
 20
2.155120
 11
4.671920
 21
2.897840
 12
4.706240
 22
2.155560
 13
4.710200
 23
2.898280
  0
POLYLINE
  8
0
  6
CONTINUOUS
 66
     1
 40
0.000000
 41
0.000000
  0
VERTEX
  8
0
  6
CONTINUOUS
 10
4.667520
 20
2.155120
  0
VERTEX
  8
0
  6
CONTINUOUS
 10
4.671920
 20
2.897840
  0
VERTEX
  8
0
  6
CONTINUOUS
 10
4.710200
 20
2.898280
  0
VERTEX
  8
0
  6
CONTINUOUS
 10
4.706240
 20
2.155560
  0
VERTEX
  8
0
  6
CONTINUOUS
 10
4.667520
 20
2.155120
  0
SEQEND
  8
0
  0
SOLID
  8
0
 62
    15
 10
4.706240
 20
2.155560
 11
4.710200
 21
2.898280
 12
4.783680
 22
2.139280
 13
4.787640
 23
2.882000
  0
POLYLINE
  8
0
  6
CONTINUOUS
 66
     1
 40
0.000000
 41
0.000000
  0
VERTEX
  8
0
  6
CONTINUOUS
 10
4.706240
 20
2.155560
  0
VERTEX
  8
0
  6
CONTINUOUS
 10
4.710200
 20
2.898280
  0
VERTEX
  8
0
  6
CONTINUOUS
 10
4.787640
 20
2.882000
  0
VERTEX
  8
0
  6
CONTINUOUS
 10
4.783680
 20
2.139280
  0
VERTEX
  8
0
  6
CONTINUOUS
 10
4.706240
 20
2.155560
  0
SEQEND
  8
0
  0
SOLID
  8
0
 62
    15
 10
4.783680
 20
2.139280
 11
4.787640
 21
2.882000
 12
4.858920
 22
2.106280
 13
4.863320
 23
2.849000
  0
POLYLINE
  8
0
  6
CONTINUOUS
 66
     1
 40
0.000000
 41
0.000000
  0
VERTEX
  8
0
  6
CONTINUOUS
 10
4.783680
 20
2.139280
  0
VERTEX
  8
0
  6
CONTINUOUS
 10
4.787640
 20
2.882000
  0
VERTEX
  8
0
  6
CONTINUOUS
 10
4.863320
 20
2.849000
  0
VERTEX
  8
0
  6
CONTINUOUS
 10
4.858920
 20
2.106280
  0
VERTEX
  8
0
  6
CONTINUOUS
 10
4.783680
 20
2.139280
  0
SEQEND
  8
0
  0
SOLID
  8
0
 62
    15
 10
4.858920
 20
2.106280
 11
4.863320
 21
2.849000
 12
4.929320
 22
2.063600
 13
4.933280
 23
2.806320
  0
POLYLINE
  8
0
  6
CONTINUOUS
 66
     1
 40
0.000000
 41
0.000000
  0
VERTEX
  8
0
  6
CONTINUOUS
 10
4.858920
 20
2.106280
  0
VERTEX
  8
0
  6
CONTINUOUS
 10
4.863320
 20
2.849000
  0
VERTEX
  8
0
  6
CONTINUOUS
 10
4.933280
 20
2.806320
  0
VERTEX
  8
0
  6
CONTINUOUS
 10
4.929320
 20
2.063600
  0
VERTEX
  8
0
  6
CONTINUOUS
 10
4.858920
 20
2.106280
  0
SEQEND
  8
0
  0
SOLID
  8
0
 62
    15
 10
4.929320
 20
2.063600
 11
4.933280
 21
2.806320
 12
4.990480
 22
2.018720
 13
4.994440
 23
2.761880
  0
POLYLINE
  8
0
  6
CONTINUOUS
 66
     1
 40
0.000000
 41
0.000000
  0
VERTEX
  8
0
  6
CONTINUOUS
 10
4.929320
 20
2.063600
  0
VERTEX
  8
0
  6
CONTINUOUS
 10
4.933280
 20
2.806320
  0
VERTEX
  8
0
  6
CONTINUOUS
 10
4.994440
 20
2.761880
  0
VERTEX
  8
0
  6
CONTINUOUS
 10
4.990480
 20
2.018720
  0
VERTEX
  8
0
  6
CONTINUOUS
 10
4.929320
 20
2.063600
  0
SEQEND
  8
0
  0
SOLID
  8
0
 62
    15
 10
4.990480
 20
2.018720
 11
4.994440
 21
2.761880
 12
5.039760
 22
1.979560
 13
5.043720
 23
2.722280
  0
POLYLINE
  8
0
  6
CONTINUOUS
 66
     1
 40
0.000000
 41
0.000000
  0
VERTEX
  8
0
  6
CONTINUOUS
 10
4.990480
 20
2.018720
  0
VERTEX
  8
0
  6
CONTINUOUS
 10
4.994440
 20
2.761880
  0
VERTEX
  8
0
  6
CONTINUOUS
 10
5.043720
 20
2.722280
  0
VERTEX
  8
0
  6
CONTINUOUS
 10
5.039760
 20
1.979560
  0
VERTEX
  8
0
  6
CONTINUOUS
 10
4.990480
 20
2.018720
  0
SEQEND
  8
0
  0
SOLID
  8
0
 62
    15
 10
5.039760
 20
1.979560
 11
5.043720
 21
2.722280
 12
5.084200
 22
1.937320
 13
5.088600
 23
2.680040
  0
POLYLINE
  8
0
  6
CONTINUOUS
 66
     1
 40
0.000000
 41
0.000000
  0
VERTEX
  8
0
  6
CONTINUOUS
 10
5.039760
 20
1.979560
  0
VERTEX
  8
0
  6
CONTINUOUS
 10
5.043720
 20
2.722280
  0
VERTEX
  8
0
  6
CONTINUOUS
 10
5.088600
 20
2.680040
  0
VERTEX
  8
0
  6
CONTINUOUS
 10
5.084200
 20
1.937320
  0
VERTEX
  8
0
  6
CONTINUOUS
 10
5.039760
 20
1.979560
  0
SEQEND
  8
0
  0
SOLID
  8
0
 62
    15
 10
5.084200
 20
1.937320
 11
5.088600
 21
2.680040
 12
5.133480
 22
1.883200
 13
5.137880
 23
2.625920
  0
POLYLINE
  8
0
  6
CONTINUOUS
 66
     1
 40
0.000000
 41
0.000000
  0
VERTEX
  8
0
  6
CONTINUOUS
 10
5.084200
 20
1.937320
  0
VERTEX
  8
0
  6
CONTINUOUS
 10
5.088600
 20
2.680040
  0
VERTEX
  8
0
  6
CONTINUOUS
 10
5.137880
 20
2.625920
  0
VERTEX
  8
0
  6
CONTINUOUS
 10
5.133480
 20
1.883200
  0
VERTEX
  8
0
  6
CONTINUOUS
 10
5.084200
 20
1.937320
  0
SEQEND
  8
0
  0
SOLID
  8
0
 62
    15
 10
5.133480
 20
1.883200
 11
5.137880
 21
2.625920
 12
5.186280
 22
1.823360
 13
5.190240
 23
2.566080
  0
POLYLINE
  8
0
  6
CONTINUOUS
 66
     1
 40
0.000000
 41
0.000000
  0
VERTEX
  8
0
  6
CONTINUOUS
 10
5.133480
 20
1.883200
  0
VERTEX
  8
0
  6
CONTINUOUS
 10
5.137880
 20
2.625920
  0
VERTEX
  8
0
  6
CONTINUOUS
 10
5.190240
 20
2.566080
  0
VERTEX
  8
0
  6
CONTINUOUS
 10
5.186280
 20
1.823360
  0
VERTEX
  8
0
  6
CONTINUOUS
 10
5.133480
 20
1.883200
  0
SEQEND
  8
0
  0
SOLID
  8
0
 62
    15
 10
5.186280
 20
1.823360
 11
5.190240
 21
2.566080
 12
5.241280
 22
1.763080
 13
5.245240
 23
2.505800
  0
POLYLINE
  8
0
  6
CONTINUOUS
 66
     1
 40
0.000000
 41
0.000000
  0
VERTEX
  8
0
  6
CONTINUOUS
 10
5.186280
 20
1.823360
  0
VERTEX
  8
0
  6
CONTINUOUS
 10
5.190240
 20
2.566080
  0
VERTEX
  8
0
  6
CONTINUOUS
 10
5.245240
 20
2.505800
  0
VERTEX
  8
0
  6
CONTINUOUS
 10
5.241280
 20
1.763080
  0
VERTEX
  8
0
  6
CONTINUOUS
 10
5.186280
 20
1.823360
  0
SEQEND
  8
0
  0
SOLID
  8
0
 62
    15
 10
5.241280
 20
1.763080
 11
5.245240
 21
2.505800
 12
5.296720
 22
1.708080
 13
5.301120
 23
2.450800
  0
POLYLINE
  8
0
  6
CONTINUOUS
 66
     1
 40
0.000000
 41
0.000000
  0
VERTEX
  8
0
  6
CONTINUOUS
 10
5.241280
 20
1.763080
  0
VERTEX
  8
0
  6
CONTINUOUS
 10
5.245240
 20
2.505800
  0
VERTEX
  8
0
  6
CONTINUOUS
 10
5.301120
 20
2.450800
  0
VERTEX
  8
0
  6
CONTINUOUS
 10
5.296720
 20
1.708080
  0
VERTEX
  8
0
  6
CONTINUOUS
 10
5.241280
 20
1.763080
  0
SEQEND
  8
0
  0
SOLID
  8
0
 62
    15
 10
5.296720
 20
1.708080
 11
5.301120
 21
2.450800
 12
5.352600
 22
1.663640
 13
5.357000
 23
2.406360
  0
POLYLINE
  8
0
  6
CONTINUOUS
 66
     1
 40
0.000000
 41
0.000000
  0
VERTEX
  8
0
  6
CONTINUOUS
 10
5.296720
 20
1.708080
  0
VERTEX
  8
0
  6
CONTINUOUS
 10
5.301120
 20
2.450800
  0
VERTEX
  8
0
  6
CONTINUOUS
 10
5.357000
 20
2.406360
  0
VERTEX
  8
0
  6
CONTINUOUS
 10
5.352600
 20
1.663640
  0
VERTEX
  8
0
  6
CONTINUOUS
 10
5.296720
 20
1.708080
  0
SEQEND
  8
0
  0
SOLID
  8
0
 62
    15
 10
5.352600
 20
1.663640
 11
5.357000
 21
2.406360
 12
5.407160
 22
1.635920
 13
5.411120
 23
2.378640
  0
POLYLINE
  8
0
  6
CONTINUOUS
 66
     1
 40
0.000000
 41
0.000000
  0
VERTEX
  8
0
  6
CONTINUOUS
 10
5.352600
 20
1.663640
  0
VERTEX
  8
0
  6
CONTINUOUS
 10
5.357000
 20
2.406360
  0
VERTEX
  8
0
  6
CONTINUOUS
 10
5.411120
 20
2.378640
  0
VERTEX
  8
0
  6
CONTINUOUS
 10
5.407160
 20
1.635920
  0
VERTEX
  8
0
  6
CONTINUOUS
 10
5.352600
 20
1.663640
  0
SEQEND
  8
0
  0
SOLID
  8
0
 62
    15
 10
5.407160
 20
1.635920
 11
5.411120
 21
2.378640
 12
5.433560
 22
1.629760
 13
5.437520
 23
2.372480
  0
POLYLINE
  8
0
  6
CONTINUOUS
 66
     1
 40
0.000000
 41
0.000000
  0
VERTEX
  8
0
  6
CONTINUOUS
 10
5.407160
 20
1.635920
  0
VERTEX
  8
0
  6
CONTINUOUS
 10
5.411120
 20
2.378640
  0
VERTEX
  8
0
  6
CONTINUOUS
 10
5.437520
 20
2.372480
  0
VERTEX
  8
0
  6
CONTINUOUS
 10
5.433560
 20
1.629760
  0
VERTEX
  8
0
  6
CONTINUOUS
 10
5.407160
 20
1.635920
  0
SEQEND
  8
0
  0
SOLID
  8
0
 62
    15
 10
5.433560
 20
1.629760
 11
5.437520
 21
2.372480
 12
5.459080
 22
1.630200
 13
5.463480
 23
2.372920
  0
POLYLINE
  8
0
  6
CONTINUOUS
 66
     1
 40
0.000000
 41
0.000000
  0
VERTEX
  8
0
  6
CONTINUOUS
 10
5.433560
 20
1.629760
  0
VERTEX
  8
0
  6
CONTINUOUS
 10
5.437520
 20
2.372480
  0
VERTEX
  8
0
  6
CONTINUOUS
 10
5.463480
 20
2.372920
  0
VERTEX
  8
0
  6
CONTINUOUS
 10
5.459080
 20
1.630200
  0
VERTEX
  8
0
  6
CONTINUOUS
 10
5.433560
 20
1.629760
  0
SEQEND
  8
0
  0
SOLID
  8
0
 62
    15
 10
5.459080
 20
1.630200
 11
5.463480
 21
2.372920
 12
5.469640
 22
1.668480
 13
5.473600
 23
2.411200
  0
POLYLINE
  8
0
  6
CONTINUOUS
 66
     1
 40
0.000000
 41
0.000000
  0
VERTEX
  8
0
  6
CONTINUOUS
 10
5.459080
 20
1.630200
  0
VERTEX
  8
0
  6
CONTINUOUS
 10
5.463480
 20
2.372920
  0
VERTEX
  8
0
  6
CONTINUOUS
 10
5.473600
 20
2.411200
  0
VERTEX
  8
0
  6
CONTINUOUS
 10
5.469640
 20
1.668480
  0
VERTEX
  8
0
  6
CONTINUOUS
 10
5.459080
 20
1.630200
  0
SEQEND
  8
0
  0
SOLID
  8
0
 62
    15
 10
5.469640
 20
1.668480
 11
5.473600
 21
2.411200
 12
5.485040
 22
1.698400
 13
5.489000
 23
2.441120
  0
POLYLINE
  8
0
  6
CONTINUOUS
 66
     1
 40
0.000000
 41
0.000000
  0
VERTEX
  8
0
  6
CONTINUOUS
 10
5.469640
 20
1.668480
  0
VERTEX
  8
0
  6
CONTINUOUS
 10
5.473600
 20
2.411200
  0
VERTEX
  8
0
  6
CONTINUOUS
 10
5.489000
 20
2.441120
  0
VERTEX
  8
0
  6
CONTINUOUS
 10
5.485040
 20
1.698400
  0
VERTEX
  8
0
  6
CONTINUOUS
 10
5.469640
 20
1.668480
  0
SEQEND
  8
0
  0
SOLID
  8
0
 62
    15
 10
5.485040
 20
1.698400
 11
5.489000
 21
2.441120
 12
5.504400
 22
1.719520
 13
5.508800
 23
2.462240
  0
POLYLINE
  8
0
  6
CONTINUOUS
 66
     1
 40
0.000000
 41
0.000000
  0
VERTEX
  8
0
  6
CONTINUOUS
 10
5.485040
 20
1.698400
  0
VERTEX
  8
0
  6
CONTINUOUS
 10
5.489000
 20
2.441120
  0
VERTEX
  8
0
  6
CONTINUOUS
 10
5.508800
 20
2.462240
  0
VERTEX
  8
0
  6
CONTINUOUS
 10
5.504400
 20
1.719520
  0
VERTEX
  8
0
  6
CONTINUOUS
 10
5.485040
 20
1.698400
  0
SEQEND
  8
0
  0
SOLID
  8
0
 62
    15
 10
5.504400
 20
1.719520
 11
5.508800
 21
2.462240
 12
5.526840
 22
1.732720
 13
5.531240
 23
2.475880
  0
POLYLINE
  8
0
  6
CONTINUOUS
 66
     1
 40
0.000000
 41
0.000000
  0
VERTEX
  8
0
  6
CONTINUOUS
 10
5.504400
 20
1.719520
  0
VERTEX
  8
0
  6
CONTINUOUS
 10
5.508800
 20
2.462240
  0
VERTEX
  8
0
  6
CONTINUOUS
 10
5.531240
 20
2.475880
  0
VERTEX
  8
0
  6
CONTINUOUS
 10
5.526840
 20
1.732720
  0
VERTEX
  8
0
  6
CONTINUOUS
 10
5.504400
 20
1.719520
  0
SEQEND
  8
0
  0
SOLID
  8
0
 62
    15
 10
3.859240
 20
2.219800
 11
3.863200
 21
2.962520
 12
4.337960
 22
2.219800
 13
4.341920
 23
2.962520
  0
POLYLINE
  8
0
  6
CONTINUOUS
 66
     1
 40
0.000000
 41
0.000000
  0
VERTEX
  8
0
  6
CONTINUOUS
 10
3.859240
 20
2.219800
  0
VERTEX
  8
0
  6
CONTINUOUS
 10
3.863200
 20
2.962520
  0
VERTEX
  8
0
  6
CONTINUOUS
 10
4.341920
 20
2.962520
  0
VERTEX
  8
0
  6
CONTINUOUS
 10
4.337960
 20
2.219800
  0
VERTEX
  8
0
  6
CONTINUOUS
 10
3.859240
 20
2.219800
  0
SEQEND
  8
0
  0
SOLID
  8
0
 62
    15
 10
5.551480
 20
1.738880
 11
5.555440
 21
2.481600
 12
5.576560
 22
1.737120
 13
5.580520
 23
2.480280
  0
POLYLINE
  8
0
  6
CONTINUOUS
 66
     1
 40
0.000000
 41
0.000000
  0
VERTEX
  8
0
  6
CONTINUOUS
 10
5.551480
 20
1.738880
  0
VERTEX
  8
0
  6
CONTINUOUS
 10
5.555440
 20
2.481600
  0
VERTEX
  8
0
  6
CONTINUOUS
 10
5.580520
 20
2.480280
  0
VERTEX
  8
0
  6
CONTINUOUS
 10
5.576560
 20
1.737120
  0
VERTEX
  8
0
  6
CONTINUOUS
 10
5.551480
 20
1.738880
  0
SEQEND
  8
0
  0
SOLID
  8
0
 62
    15
 10
5.576560
 20
1.737120
 11
5.580520
 21
2.480280
 12
5.601200
 22
1.729200
 13
5.605160
 23
2.471920
  0
POLYLINE
  8
0
  6
CONTINUOUS
 66
     1
 40
0.000000
 41
0.000000
  0
VERTEX
  8
0
  6
CONTINUOUS
 10
5.576560
 20
1.737120
  0
VERTEX
  8
0
  6
CONTINUOUS
 10
5.580520
 20
2.480280
  0
VERTEX
  8
0
  6
CONTINUOUS
 10
5.605160
 20
2.471920
  0
VERTEX
  8
0
  6
CONTINUOUS
 10
5.601200
 20
1.729200
  0
VERTEX
  8
0
  6
CONTINUOUS
 10
5.576560
 20
1.737120
  0
SEQEND
  8
0
  0
SOLID
  8
0
 62
    15
 10
5.601200
 20
1.729200
 11
5.605160
 21
2.471920
 12
5.624520
 22
1.714680
 13
5.628480
 23
2.457400
  0
POLYLINE
  8
0
  6
CONTINUOUS
 66
     1
 40
0.000000
 41
0.000000
  0
VERTEX
  8
0
  6
CONTINUOUS
 10
5.601200
 20
1.729200
  0
VERTEX
  8
0
  6
CONTINUOUS
 10
5.605160
 20
2.471920
  0
VERTEX
  8
0
  6
CONTINUOUS
 10
5.628480
 20
2.457400
  0
VERTEX
  8
0
  6
CONTINUOUS
 10
5.624520
 20
1.714680
  0
VERTEX
  8
0
  6
CONTINUOUS
 10
5.601200
 20
1.729200
  0
SEQEND
  8
0
  0
SOLID
  8
0
 62
    15
 10
5.624520
 20
1.714680
 11
5.628480
 21
2.457400
 12
5.657960
 22
1.678600
 13
5.662360
 23
2.421320
  0
POLYLINE
  8
0
  6
CONTINUOUS
 66
     1
 40
0.000000
 41
0.000000
  0
VERTEX
  8
0
  6
CONTINUOUS
 10
5.624520
 20
1.714680
  0
VERTEX
  8
0
  6
CONTINUOUS
 10
5.628480
 20
2.457400
  0
VERTEX
  8
0
  6
CONTINUOUS
 10
5.662360
 20
2.421320
  0
VERTEX
  8
0
  6
CONTINUOUS
 10
5.657960
 20
1.678600
  0
VERTEX
  8
0
  6
CONTINUOUS
 10
5.624520
 20
1.714680
  0
SEQEND
  8
0
  0
SOLID
  8
0
 62
    15
 10
5.657960
 20
1.678600
 11
5.662360
 21
2.421320
 12
5.670720
 22
1.661880
 13
5.674680
 23
2.404600
  0
POLYLINE
  8
0
  6
CONTINUOUS
 66
     1
 40
0.000000
 41
0.000000
  0
VERTEX
  8
0
  6
CONTINUOUS
 10
5.657960
 20
1.678600
  0
VERTEX
  8
0
  6
CONTINUOUS
 10
5.662360
 20
2.421320
  0
VERTEX
  8
0
  6
CONTINUOUS
 10
5.674680
 20
2.404600
  0
VERTEX
  8
0
  6
CONTINUOUS
 10
5.670720
 20
1.661880
  0
VERTEX
  8
0
  6
CONTINUOUS
 10
5.657960
 20
1.678600
  0
SEQEND
  8
0
  0
SOLID
  8
0
 62
    15
 10
5.670720
 20
1.661880
 11
5.674680
 21
2.404600
 12
5.683040
 22
1.646480
 13
5.687440
 23
2.389200
  0
POLYLINE
  8
0
  6
CONTINUOUS
 66
     1
 40
0.000000
 41
0.000000
  0
VERTEX
  8
0
  6
CONTINUOUS
 10
5.670720
 20
1.661880
  0
VERTEX
  8
0
  6
CONTINUOUS
 10
5.674680
 20
2.404600
  0
VERTEX
  8
0
  6
CONTINUOUS
 10
5.687440
 20
2.389200
  0
VERTEX
  8
0
  6
CONTINUOUS
 10
5.683040
 20
1.646480
  0
VERTEX
  8
0
  6
CONTINUOUS
 10
5.670720
 20
1.661880
  0
SEQEND
  8
0
  0
SOLID
  8
0
 62
    15
 10
5.683040
 20
1.646480
 11
5.687440
 21
2.389200
 12
5.698440
 22
1.633720
 13
5.702840
 23
2.376440
  0
POLYLINE
  8
0
  6
CONTINUOUS
 66
     1
 40
0.000000
 41
0.000000
  0
VERTEX
  8
0
  6
CONTINUOUS
 10
5.683040
 20
1.646480
  0
VERTEX
  8
0
  6
CONTINUOUS
 10
5.687440
 20
2.389200
  0
VERTEX
  8
0
  6
CONTINUOUS
 10
5.702840
 20
2.376440
  0
VERTEX
  8
0
  6
CONTINUOUS
 10
5.698440
 20
1.633720
  0
VERTEX
  8
0
  6
CONTINUOUS
 10
5.683040
 20
1.646480
  0
SEQEND
  8
0
  0
SOLID
  8
0
 62
    15
 10
5.698440
 20
1.633720
 11
5.702840
 21
2.376440
 12
5.718680
 22
1.624920
 13
5.722640
 23
2.367640
  0
POLYLINE
  8
0
  6
CONTINUOUS
 66
     1
 40
0.000000
 41
0.000000
  0
VERTEX
  8
0
  6
CONTINUOUS
 10
5.698440
 20
1.633720
  0
VERTEX
  8
0
  6
CONTINUOUS
 10
5.702840
 20
2.376440
  0
VERTEX
  8
0
  6
CONTINUOUS
 10
5.722640
 20
2.367640
  0
VERTEX
  8
0
  6
CONTINUOUS
 10
5.718680
 20
1.624920
  0
VERTEX
  8
0
  6
CONTINUOUS
 10
5.698440
 20
1.633720
  0
SEQEND
  8
0
  0
SOLID
  8
0
 62
    15
 10
5.718680
 20
1.624920
 11
5.722640
 21
2.367640
 12
5.745960
 22
1.620080
 13
5.749920
 23
2.362800
  0
POLYLINE
  8
0
  6
CONTINUOUS
 66
     1
 40
0.000000
 41
0.000000
  0
VERTEX
  8
0
  6
CONTINUOUS
 10
5.718680
 20
1.624920
  0
VERTEX
  8
0
  6
CONTINUOUS
 10
5.722640
 20
2.367640
  0
VERTEX
  8
0
  6
CONTINUOUS
 10
5.749920
 20
2.362800
  0
VERTEX
  8
0
  6
CONTINUOUS
 10
5.745960
 20
1.620080
  0
VERTEX
  8
0
  6
CONTINUOUS
 10
5.718680
 20
1.624920
  0
SEQEND
  8
0
  0
SOLID
  8
0
 62
    15
 10
6.410800
 20
1.314280
 11
6.414760
 21
2.057440
 12
6.459640
 22
1.314280
 13
6.464040
 23
2.057440
  0
POLYLINE
  8
0
  6
CONTINUOUS
 66
     1
 40
0.000000
 41
0.000000
  0
VERTEX
  8
0
  6
CONTINUOUS
 10
6.410800
 20
1.314280
  0
VERTEX
  8
0
  6
CONTINUOUS
 10
6.414760
 20
2.057440
  0
VERTEX
  8
0
  6
CONTINUOUS
 10
6.464040
 20
2.057440
  0
VERTEX
  8
0
  6
CONTINUOUS
 10
6.459640
 20
1.314280
  0
VERTEX
  8
0
  6
CONTINUOUS
 10
6.410800
 20
1.314280
  0
SEQEND
  8
0
  0
SOLID
  8
0
 62
    15
 10
6.410800
 20
1.498640
 11
6.414760
 21
2.241360
 12
6.410800
 22
1.314280
 13
6.414760
 23
2.057440
  0
POLYLINE
  8
0
  6
CONTINUOUS
 66
     1
 40
0.000000
 41
0.000000
  0
VERTEX
  8
0
  6
CONTINUOUS
 10
6.410800
 20
1.498640
  0
VERTEX
  8
0
  6
CONTINUOUS
 10
6.414760
 20
2.241360
  0
VERTEX
  8
0
  6
CONTINUOUS
 10
6.414760
 20
2.057440
  0
VERTEX
  8
0
  6
CONTINUOUS
 10
6.410800
 20
1.314280
  0
VERTEX
  8
0
  6
CONTINUOUS
 10
6.410800
 20
1.498640
  0
SEQEND
  8
0
  0
SOLID
  8
0
 62
    15
 10
5.782920
 20
1.498640
 11
5.786880
 21
2.241360
 12
6.410800
 22
1.498640
 13
6.414760
 23
2.241360
  0
POLYLINE
  8
0
  6
CONTINUOUS
 66
     1
 40
0.000000
 41
0.000000
  0
VERTEX
  8
0
  6
CONTINUOUS
 10
5.782920
 20
1.498640
  0
VERTEX
  8
0
  6
CONTINUOUS
 10
5.786880
 20
2.241360
  0
VERTEX
  8
0
  6
CONTINUOUS
 10
6.414760
 20
2.241360
  0
VERTEX
  8
0
  6
CONTINUOUS
 10
6.410800
 20
1.498640
  0
VERTEX
  8
0
  6
CONTINUOUS
 10
5.782920
 20
1.498640
  0
SEQEND
  8
0
  0
SOLID
  8
0
 62
    15
 10
5.782920
 20
1.620520
 11
5.786880
 21
2.363680
 12
5.782920
 22
1.498640
 13
5.786880
 23
2.241360
  0
POLYLINE
  8
0
  6
CONTINUOUS
 66
     1
 40
0.000000
 41
0.000000
  0
VERTEX
  8
0
  6
CONTINUOUS
 10
5.782920
 20
1.620520
  0
VERTEX
  8
0
  6
CONTINUOUS
 10
5.786880
 20
2.363680
  0
VERTEX
  8
0
  6
CONTINUOUS
 10
5.786880
 20
2.241360
  0
VERTEX
  8
0
  6
CONTINUOUS
 10
5.782920
 20
1.498640
  0
VERTEX
  8
0
  6
CONTINUOUS
 10
5.782920
 20
1.620520
  0
SEQEND
  8
0
  0
SOLID
  8
0
 62
    15
 10
5.745960
 20
1.620080
 11
5.749920
 21
2.362800
 12
5.782920
 22
1.620520
 13
5.786880
 23
2.363680
  0
POLYLINE
  8
0
  6
CONTINUOUS
 66
     1
 40
0.000000
 41
0.000000
  0
VERTEX
  8
0
  6
CONTINUOUS
 10
5.745960
 20
1.620080
  0
VERTEX
  8
0
  6
CONTINUOUS
 10
5.749920
 20
2.362800
  0
VERTEX
  8
0
  6
CONTINUOUS
 10
5.786880
 20
2.363680
  0
VERTEX
  8
0
  6
CONTINUOUS
 10
5.782920
 20
1.620520
  0
VERTEX
  8
0
  6
CONTINUOUS
 10
5.745960
 20
1.620080
  0
SEQEND
  8
0
  0
SOLID
  8
0
 62
    15
 10
6.459640
 20
1.314280
 11
6.464040
 21
2.057440
 12
6.474600
 22
1.349480
 13
6.479000
 23
2.092200
  0
POLYLINE
  8
0
  6
CONTINUOUS
 66
     1
 40
0.000000
 41
0.000000
  0
VERTEX
  8
0
  6
CONTINUOUS
 10
6.459640
 20
1.314280
  0
VERTEX
  8
0
  6
CONTINUOUS
 10
6.464040
 20
2.057440
  0
VERTEX
  8
0
  6
CONTINUOUS
 10
6.479000
 20
2.092200
  0
VERTEX
  8
0
  6
CONTINUOUS
 10
6.474600
 20
1.349480
  0
VERTEX
  8
0
  6
CONTINUOUS
 10
6.459640
 20
1.314280
  0
SEQEND
  8
0
  0
SOLID
  8
0
 62
    15
 10
6.474600
 20
1.349480
 11
6.479000
 21
2.092200
 12
6.494400
 22
1.370600
 13
6.498800
 23
2.113320
  0
POLYLINE
  8
0
  6
CONTINUOUS
 66
     1
 40
0.000000
 41
0.000000
  0
VERTEX
  8
0
  6
CONTINUOUS
 10
6.474600
 20
1.349480
  0
VERTEX
  8
0
  6
CONTINUOUS
 10
6.479000
 20
2.092200
  0
VERTEX
  8
0
  6
CONTINUOUS
 10
6.498800
 20
2.113320
  0
VERTEX
  8
0
  6
CONTINUOUS
 10
6.494400
 20
1.370600
  0
VERTEX
  8
0
  6
CONTINUOUS
 10
6.474600
 20
1.349480
  0
SEQEND
  8
0
  0
SOLID
  8
0
 62
    15
 10
6.494400
 20
1.370600
 11
6.498800
 21
2.113320
 12
6.517720
 22
1.380720
 13
6.521680
 23
2.123440
  0
POLYLINE
  8
0
  6
CONTINUOUS
 66
     1
 40
0.000000
 41
0.000000
  0
VERTEX
  8
0
  6
CONTINUOUS
 10
6.494400
 20
1.370600
  0
VERTEX
  8
0
  6
CONTINUOUS
 10
6.498800
 20
2.113320
  0
VERTEX
  8
0
  6
CONTINUOUS
 10
6.521680
 20
2.123440
  0
VERTEX
  8
0
  6
CONTINUOUS
 10
6.517720
 20
1.380720
  0
VERTEX
  8
0
  6
CONTINUOUS
 10
6.494400
 20
1.370600
  0
SEQEND
  8
0
  0
SOLID
  8
0
 62
    15
 10
6.517720
 20
1.380720
 11
6.521680
 21
2.123440
 12
6.542360
 22
1.381600
 13
6.546760
 23
2.124320
  0
POLYLINE
  8
0
  6
CONTINUOUS
 66
     1
 40
0.000000
 41
0.000000
  0
VERTEX
  8
0
  6
CONTINUOUS
 10
6.517720
 20
1.380720
  0
VERTEX
  8
0
  6
CONTINUOUS
 10
6.521680
 20
2.123440
  0
VERTEX
  8
0
  6
CONTINUOUS
 10
6.546760
 20
2.124320
  0
VERTEX
  8
0
  6
CONTINUOUS
 10
6.542360
 20
1.381600
  0
VERTEX
  8
0
  6
CONTINUOUS
 10
6.517720
 20
1.380720
  0
SEQEND
  8
0
  0
SOLID
  8
0
 62
    15
 10
6.542360
 20
1.381600
 11
6.546760
 21
2.124320
 12
6.590320
 22
1.365320
 13
6.594720
 23
2.108040
  0
POLYLINE
  8
0
  6
CONTINUOUS
 66
     1
 40
0.000000
 41
0.000000
  0
VERTEX
  8
0
  6
CONTINUOUS
 10
6.542360
 20
1.381600
  0
VERTEX
  8
0
  6
CONTINUOUS
 10
6.546760
 20
2.124320
  0
VERTEX
  8
0
  6
CONTINUOUS
 10
6.594720
 20
2.108040
  0
VERTEX
  8
0
  6
CONTINUOUS
 10
6.590320
 20
1.365320
  0
VERTEX
  8
0
  6
CONTINUOUS
 10
6.542360
 20
1.381600
  0
SEQEND
  8
0
  0
SOLID
  8
0
 62
    15
 10
6.590320
 20
1.365320
 11
6.594720
 21
2.108040
 12
6.625080
 22
1.338920
 13
6.629040
 23
2.081640
  0
POLYLINE
  8
0
  6
CONTINUOUS
 66
     1
 40
0.000000
 41
0.000000
  0
VERTEX
  8
0
  6
CONTINUOUS
 10
6.590320
 20
1.365320
  0
VERTEX
  8
0
  6
CONTINUOUS
 10
6.594720
 20
2.108040
  0
VERTEX
  8
0
  6
CONTINUOUS
 10
6.629040
 20
2.081640
  0
VERTEX
  8
0
  6
CONTINUOUS
 10
6.625080
 20
1.338920
  0
VERTEX
  8
0
  6
CONTINUOUS
 10
6.590320
 20
1.365320
  0
SEQEND
  8
0
  0
SOLID
  8
0
 62
    15
 10
6.625080
 20
1.338920
 11
6.629040
 21
2.081640
 12
6.639160
 22
1.323520
 13
6.643560
 23
2.066680
  0
POLYLINE
  8
0
  6
CONTINUOUS
 66
     1
 40
0.000000
 41
0.000000
  0
VERTEX
  8
0
  6
CONTINUOUS
 10
6.625080
 20
1.338920
  0
VERTEX
  8
0
  6
CONTINUOUS
 10
6.629040
 20
2.081640
  0
VERTEX
  8
0
  6
CONTINUOUS
 10
6.643560
 20
2.066680
  0
VERTEX
  8
0
  6
CONTINUOUS
 10
6.639160
 20
1.323520
  0
VERTEX
  8
0
  6
CONTINUOUS
 10
6.625080
 20
1.338920
  0
SEQEND
  8
0
  0
SOLID
  8
0
 62
    15
 10
6.639160
 20
1.323520
 11
6.643560
 21
2.066680
 12
6.658080
 22
1.304600
 13
6.662480
 23
2.047320
  0
POLYLINE
  8
0
  6
CONTINUOUS
 66
     1
 40
0.000000
 41
0.000000
  0
VERTEX
  8
0
  6
CONTINUOUS
 10
6.639160
 20
1.323520
  0
VERTEX
  8
0
  6
CONTINUOUS
 10
6.643560
 20
2.066680
  0
VERTEX
  8
0
  6
CONTINUOUS
 10
6.662480
 20
2.047320
  0
VERTEX
  8
0
  6
CONTINUOUS
 10
6.658080
 20
1.304600
  0
VERTEX
  8
0
  6
CONTINUOUS
 10
6.639160
 20
1.323520
  0
SEQEND
  8
0
  0
SOLID
  8
0
 62
    15
 10
6.658080
 20
1.304600
 11
6.662480
 21
2.047320
 12
6.708680
 22
1.260160
 13
6.713080
 23
2.002880
  0
POLYLINE
  8
0
  6
CONTINUOUS
 66
     1
 40
0.000000
 41
0.000000
  0
VERTEX
  8
0
  6
CONTINUOUS
 10
6.658080
 20
1.304600
  0
VERTEX
  8
0
  6
CONTINUOUS
 10
6.662480
 20
2.047320
  0
VERTEX
  8
0
  6
CONTINUOUS
 10
6.713080
 20
2.002880
  0
VERTEX
  8
0
  6
CONTINUOUS
 10
6.708680
 20
1.260160
  0
VERTEX
  8
0
  6
CONTINUOUS
 10
6.658080
 20
1.304600
  0
SEQEND
  8
0
  0
SOLID
  8
0
 62
    15
 10
6.708680
 20
1.260160
 11
6.713080
 21
2.002880
 12
6.774680
 22
1.219240
 13
6.778640
 23
1.961960
  0
POLYLINE
  8
0
  6
CONTINUOUS
 66
     1
 40
0.000000
 41
0.000000
  0
VERTEX
  8
0
  6
CONTINUOUS
 10
6.708680
 20
1.260160
  0
VERTEX
  8
0
  6
CONTINUOUS
 10
6.713080
 20
2.002880
  0
VERTEX
  8
0
  6
CONTINUOUS
 10
6.778640
 20
1.961960
  0
VERTEX
  8
0
  6
CONTINUOUS
 10
6.774680
 20
1.219240
  0
VERTEX
  8
0
  6
CONTINUOUS
 10
6.708680
 20
1.260160
  0
SEQEND
  8
0
  0
SOLID
  8
0
 62
    15
 10
6.774680
 20
1.219240
 11
6.778640
 21
1.961960
 12
6.812520
 22
1.203840
 13
6.816480
 23
1.946560
  0
POLYLINE
  8
0
  6
CONTINUOUS
 66
     1
 40
0.000000
 41
0.000000
  0
VERTEX
  8
0
  6
CONTINUOUS
 10
6.774680
 20
1.219240
  0
VERTEX
  8
0
  6
CONTINUOUS
 10
6.778640
 20
1.961960
  0
VERTEX
  8
0
  6
CONTINUOUS
 10
6.816480
 20
1.946560
  0
VERTEX
  8
0
  6
CONTINUOUS
 10
6.812520
 20
1.203840
  0
VERTEX
  8
0
  6
CONTINUOUS
 10
6.774680
 20
1.219240
  0
SEQEND
  8
0
  0
SOLID
  8
0
 62
    15
 10
6.853000
 20
1.194160
 11
6.857400
 21
1.936880
 12
6.853000
 22
1.102640
 13
6.857400
 23
1.845800
  0
POLYLINE
  8
0
  6
CONTINUOUS
 66
     1
 40
0.000000
 41
0.000000
  0
VERTEX
  8
0
  6
CONTINUOUS
 10
6.853000
 20
1.194160
  0
VERTEX
  8
0
  6
CONTINUOUS
 10
6.857400
 20
1.936880
  0
VERTEX
  8
0
  6
CONTINUOUS
 10
6.857400
 20
1.845800
  0
VERTEX
  8
0
  6
CONTINUOUS
 10
6.853000
 20
1.102640
  0
VERTEX
  8
0
  6
CONTINUOUS
 10
6.853000
 20
1.194160
  0
SEQEND
  8
0
  0
SOLID
  8
0
 62
    15
 10
6.812520
 20
1.203840
 11
6.816480
 21
1.946560
 12
6.853000
 22
1.194160
 13
6.857400
 23
1.936880
  0
POLYLINE
  8
0
  6
CONTINUOUS
 66
     1
 40
0.000000
 41
0.000000
  0
VERTEX
  8
0
  6
CONTINUOUS
 10
6.812520
 20
1.203840
  0
VERTEX
  8
0
  6
CONTINUOUS
 10
6.816480
 20
1.946560
  0
VERTEX
  8
0
  6
CONTINUOUS
 10
6.857400
 20
1.936880
  0
VERTEX
  8
0
  6
CONTINUOUS
 10
6.853000
 20
1.194160
  0
VERTEX
  8
0
  6
CONTINUOUS
 10
6.812520
 20
1.203840
  0
SEQEND
  8
0
  0
POLYLINE
  8
0
  6
CONTINUOUS
 66
     1
 40
0.000000
 41
0.000000
  0
VERTEX
  8
0
  6
CONTINUOUS
 10
6.853000
 20
1.102640
  0
VERTEX
  8
0
  6
CONTINUOUS
 10
3.859240
 20
1.102640
  0
VERTEX
  8
0
  6
CONTINUOUS
 10
3.859240
 20
2.219800
  0
VERTEX
  8
0
  6
CONTINUOUS
 10
4.337960
 20
2.219800
  0
VERTEX
  8
0
  6
CONTINUOUS
 10
4.337960
 20
2.030160
  0
VERTEX
  8
0
  6
CONTINUOUS
 10
4.495040
 20
2.030160
  0
VERTEX
  8
0
  6
CONTINUOUS
 10
4.525400
 20
2.074600
  0
VERTEX
  8
0
  6
CONTINUOUS
 10
4.558400
 20
2.108480
  0
VERTEX
  8
0
  6
CONTINUOUS
 10
4.593600
 20
2.132240
  0
VERTEX
  8
0
  6
CONTINUOUS
 10
4.630120
 20
2.147640
  0
VERTEX
  8
0
  6
CONTINUOUS
 10
4.667520
 20
2.155120
  0
VERTEX
  8
0
  6
CONTINUOUS
 10
4.706240
 20
2.155560
  0
VERTEX
  8
0
  6
CONTINUOUS
 10
4.783680
 20
2.139280
  0
VERTEX
  8
0
  6
CONTINUOUS
 10
4.858920
 20
2.106280
  0
VERTEX
  8
0
  6
CONTINUOUS
 10
4.929320
 20
2.063600
  0
VERTEX
  8
0
  6
CONTINUOUS
 10
4.990480
 20
2.018720
  0
VERTEX
  8
0
  6
CONTINUOUS
 10
5.039760
 20
1.979560
  0
VERTEX
  8
0
  6
CONTINUOUS
 10
5.084200
 20
1.937320
  0
VERTEX
  8
0
  6
CONTINUOUS
 10
5.241280
 20
1.763080
  0
VERTEX
  8
0
  6
CONTINUOUS
 10
5.296720
 20
1.708080
  0
VERTEX
  8
0
  6
CONTINUOUS
 10
5.352600
 20
1.663640
  0
VERTEX
  8
0
  6
CONTINUOUS
 10
5.407160
 20
1.635920
  0
VERTEX
  8
0
  6
CONTINUOUS
 10
5.433560
 20
1.629760
  0
VERTEX
  8
0
  6
CONTINUOUS
 10
5.459080
 20
1.630200
  0
VERTEX
  8
0
  6
CONTINUOUS
 10
5.469640
 20
1.668480
  0
VERTEX
  8
0
  6
CONTINUOUS
 10
5.485040
 20
1.698400
  0
VERTEX
  8
0
  6
CONTINUOUS
 10
5.504400
 20
1.719520
  0
VERTEX
  8
0
  6
CONTINUOUS
 10
5.526840
 20
1.732720
  0
VERTEX
  8
0
  6
CONTINUOUS
 10
5.551480
 20
1.738880
  0
VERTEX
  8
0
  6
CONTINUOUS
 10
5.576560
 20
1.737120
  0
VERTEX
  8
0
  6
CONTINUOUS
 10
5.601200
 20
1.729200
  0
VERTEX
  8
0
  6
CONTINUOUS
 10
5.624520
 20
1.714680
  0
VERTEX
  8
0
  6
CONTINUOUS
 10
5.657960
 20
1.678600
  0
VERTEX
  8
0
  6
CONTINUOUS
 10
5.683040
 20
1.646480
  0
VERTEX
  8
0
  6
CONTINUOUS
 10
5.698440
 20
1.633720
  0
VERTEX
  8
0
  6
CONTINUOUS
 10
5.718680
 20
1.624920
  0
VERTEX
  8
0
  6
CONTINUOUS
 10
5.745960
 20
1.620080
  0
VERTEX
  8
0
  6
CONTINUOUS
 10
5.782920
 20
1.620520
  0
VERTEX
  8
0
  6
CONTINUOUS
 10
5.782920
 20
1.498640
  0
VERTEX
  8
0
  6
CONTINUOUS
 10
6.410800
 20
1.498640
  0
VERTEX
  8
0
  6
CONTINUOUS
 10
6.410800
 20
1.314280
  0
VERTEX
  8
0
  6
CONTINUOUS
 10
6.459640
 20
1.314280
  0
VERTEX
  8
0
  6
CONTINUOUS
 10
6.474600
 20
1.349480
  0
VERTEX
  8
0
  6
CONTINUOUS
 10
6.494400
 20
1.370600
  0
VERTEX
  8
0
  6
CONTINUOUS
 10
6.517720
 20
1.380720
  0
VERTEX
  8
0
  6
CONTINUOUS
 10
6.542360
 20
1.381600
  0
VERTEX
  8
0
  6
CONTINUOUS
 10
6.590320
 20
1.365320
  0
VERTEX
  8
0
  6
CONTINUOUS
 10
6.625080
 20
1.338920
  0
VERTEX
  8
0
  6
CONTINUOUS
 10
6.658080
 20
1.304600
  0
VERTEX
  8
0
  6
CONTINUOUS
 10
6.708680
 20
1.260160
  0
VERTEX
  8
0
  6
CONTINUOUS
 10
6.774680
 20
1.219240
  0
VERTEX
  8
0
  6
CONTINUOUS
 10
6.812520
 20
1.203840
  0
VERTEX
  8
0
  6
CONTINUOUS
 10
6.853000
 20
1.194160
  0
VERTEX
  8
0
  6
CONTINUOUS
 10
6.853000
 20
1.102640
  0
SEQEND
  8
0
  0
TEXT
  8
0
 10
5.062200
 20
0.846120
 40
0.138146
  1
BA  888
 41
1.000000
  7
SN0
 71
     0
 72
     5
 11
5.652172
 21
0.846120
  0
TEXT
  8
0
 10
4.975520
 20
0.654720
 40
0.138146
  1
1-1/8" x 3"
 41
1.000000
  7
SN0
 71
     0
 72
     5
 11
5.737834
 21
0.654720
  0
POLYLINE
  8
0
  6
CONTINUOUS
 66
     1
 40
0.014080
 41
0.014080
  0
VERTEX
  8
0
  6
CONTINUOUS
 10
6.877200
 20
3.586000
  0
VERTEX
  8
0
  6
CONTINUOUS
 10
6.856520
 20
3.589960
  0
VERTEX
  8
0
  6
CONTINUOUS
 10
6.817360
 20
3.602720
  0
VERTEX
  8
0
  6
CONTINUOUS
 10
6.781280
 20
3.620320
  0
VERTEX
  8
0
  6
CONTINUOUS
 10
6.764120
 20
3.630000
  0
VERTEX
  8
0
  6
CONTINUOUS
 10
6.719240
 20
3.663000
  0
VERTEX
  8
0
  6
CONTINUOUS
 10
6.672600
 20
3.706120
  0
VERTEX
  8
0
  6
CONTINUOUS
 10
6.642680
 20
3.737360
  0
VERTEX
  8
0
  6
CONTINUOUS
 10
6.614520
 20
3.756720
  0
VERTEX
  8
0
  6
CONTINUOUS
 10
6.591200
 20
3.767280
  0
VERTEX
  8
0
  6
CONTINUOUS
 10
6.566560
 20
3.773000
  0
VERTEX
  8
0
  6
CONTINUOUS
 10
6.554240
 20
3.773880
  0
VERTEX
  8
0
  6
CONTINUOUS
 10
6.541920
 20
3.772120
  0
VERTEX
  8
0
  6
CONTINUOUS
 10
6.530040
 20
3.768600
  0
VERTEX
  8
0
  6
CONTINUOUS
 10
6.513320
 20
3.758040
  0
VERTEX
  8
0
  6
CONTINUOUS
 10
6.499240
 20
3.740880
  0
VERTEX
  8
0
  6
CONTINUOUS
 10
6.487360
 20
3.716240
  0
VERTEX
  8
0
  6
CONTINUOUS
 10
6.484280
 20
3.706120
  0
VERTEX
  8
0
  6
CONTINUOUS
 10
6.435000
 20
3.706120
  0
VERTEX
  8
0
  6
CONTINUOUS
 10
6.435000
 20
3.890040
  0
VERTEX
  8
0
  6
CONTINUOUS
 10
5.807120
 20
3.890040
  0
VERTEX
  8
0
  6
CONTINUOUS
 10
5.807120
 20
4.012360
  0
VERTEX
  8
0
  6
CONTINUOUS
 10
5.778520
 20
4.011480
  0
VERTEX
  8
0
  6
CONTINUOUS
 10
5.755200
 20
4.013680
  0
VERTEX
  8
0
  6
CONTINUOUS
 10
5.731880
 20
4.020720
  0
VERTEX
  8
0
  6
CONTINUOUS
 10
5.722640
 20
4.025560
  0
VERTEX
  8
0
  6
CONTINUOUS
 10
5.707680
 20
4.038320
  0
VERTEX
  8
0
  6
CONTINUOUS
 10
5.667640
 20
4.088480
  0
VERTEX
  8
0
  6
CONTINUOUS
 10
5.648720
 20
4.106080
  0
VERTEX
  8
0
  6
CONTINUOUS
 10
5.625400
 20
4.120600
  0
VERTEX
  8
0
  6
CONTINUOUS
 10
5.600760
 20
4.128960
  0
VERTEX
  8
0
  6
CONTINUOUS
 10
5.575680
 20
4.130280
  0
VERTEX
  8
0
  6
CONTINUOUS
 10
5.563360
 20
4.128520
  0
VERTEX
  8
0
  6
CONTINUOUS
 10
5.539600
 20
4.118840
  0
VERTEX
  8
0
  6
CONTINUOUS
 10
5.528600
 20
4.111360
  0
VERTEX
  8
0
  6
CONTINUOUS
 10
5.518480
 20
4.101680
  0
VERTEX
  8
0
  6
CONTINUOUS
 10
5.500880
 20
4.076160
  0
VERTEX
  8
0
  6
CONTINUOUS
 10
5.490320
 20
4.051520
  0
VERTEX
  8
0
  6
CONTINUOUS
 10
5.483280
 20
4.021600
  0
VERTEX
  8
0
  6
CONTINUOUS
 10
5.470520
 20
4.020720
  0
VERTEX
  8
0
  6
CONTINUOUS
 10
5.444560
 20
4.023800
  0
VERTEX
  8
0
  6
CONTINUOUS
 10
5.417720
 20
4.032600
  0
VERTEX
  8
0
  6
CONTINUOUS
 10
5.390880
 20
4.046680
  0
VERTEX
  8
0
  6
CONTINUOUS
 10
5.349080
 20
4.075720
  0
VERTEX
  8
0
  6
CONTINUOUS
 10
5.321360
 20
4.099480
  0
VERTEX
  8
0
  6
CONTINUOUS
 10
5.265480
 20
4.154480
  0
VERTEX
  8
0
  6
CONTINUOUS
 10
5.108840
 20
4.328720
  0
VERTEX
  8
0
  6
CONTINUOUS
 10
5.063960
 20
4.370960
  0
VERTEX
  8
0
  6
CONTINUOUS
 10
4.985200
 20
4.432560
  0
VERTEX
  8
0
  6
CONTINUOUS
 10
4.919200
 20
4.477440
  0
VERTEX
  8
0
  6
CONTINUOUS
 10
4.864640
 20
4.507360
  0
VERTEX
  8
0
  6
CONTINUOUS
 10
4.826800
 20
4.524080
  0
VERTEX
  8
0
  6
CONTINUOUS
 10
4.788520
 20
4.536840
  0
VERTEX
  8
0
  6
CONTINUOUS
 10
4.749800
 20
4.545200
  0
VERTEX
  8
0
  6
CONTINUOUS
 10
4.711080
 20
4.547840
  0
VERTEX
  8
0
  6
CONTINUOUS
 10
4.672800
 20
4.543880
  0
VERTEX
  8
0
  6
CONTINUOUS
 10
4.654320
 20
4.539040
  0
VERTEX
  8
0
  6
CONTINUOUS
 10
4.617360
 20
4.524080
  0
VERTEX
  8
0
  6
CONTINUOUS
 10
4.599760
 20
4.513080
  0
VERTEX
  8
0
  6
CONTINUOUS
 10
4.574240
 20
4.492400
  0
VERTEX
  8
0
  6
CONTINUOUS
 10
4.549600
 20
4.466000
  0
VERTEX
  8
0
  6
CONTINUOUS
 10
4.526720
 20
4.433880
  0
VERTEX
  8
0
  6
CONTINUOUS
 10
4.519240
 20
4.421560
  0
VERTEX
  8
0
  6
CONTINUOUS
 10
4.362160
 20
4.421560
  0
VERTEX
  8
0
  6
CONTINUOUS
 10
4.362160
 20
4.611640
  0
VERTEX
  8
0
  6
CONTINUOUS
 10
3.883440
 20
4.611640
  0
VERTEX
  8
0
  6
CONTINUOUS
 10
3.883440
 20
3.494480
  0
VERTEX
  8
0
  6
CONTINUOUS
 10
6.877200
 20
3.494480
  0
VERTEX
  8
0
  6
CONTINUOUS
 10
6.877200
 20
3.586000
  0
SEQEND
  8
0
  0
ENDSEC
  0
EOF
