  0
SECTION
  2
HEADER
  9
$ACADVER
  1
AC1006
  9
$EXTMIN
 10
5.019960
 20
0.458480
  9
$EXTMAX
 10
7.465920
 20
2.805440
  9
$LTSCALE
 40
0.044000
  9
$PDMODE
 70
    35
  9
$PDSIZE
 40
0.035200
  0
ENDSEC
  0
SECTION
  2
TABLES
  0
TABLE
  2
LTYPE
 70
     9
  0
LTYPE
  2
CONTINUOUS
 70
    64
  3
Solid line
 72
    65
 73
     0
 40
0.000000
  0
LTYPE
  2
DASHED
 70
    64
  3
__ __ __ __ __ __ __ __ __ __ __ __ __ __ __
 72
    65
 73
     2
 40
0.000330
 49
0.000220
 49
-0.000110
  0
LTYPE
  2
HIDDEN
 70
    64
  3
 _ _ _ _ _ _ _ _ _ _ _ _ _ _ _ _ _ _ _ _ _ _
 72
    65
 73
     2
 40
0.000165
 49
0.000110
 49
-0.000055
  0
LTYPE
  2
CENTER
 70
    64
  3
____ _ ____ _ ____ _ ____ _ ____ _ ____ _ ____
 72
    65
 73
     4
 40
0.000880
 49
0.000550
 49
-0.000110
 49
0.000110
 49
-0.000110
  0
LTYPE
  2
PHANTOM
 70
    64
  3
_____ _ _ _____ _ _ _____ _ _ _____ _ _ ____
 72
    65
 73
     6
 40
0.001100
 49
0.000550
 49
-0.000110
 49
0.000110
 49
-0.000110
 49
0.000110
 49
-0.000110
  0
LTYPE
  2
DOT
 70
    64
  3
...............................................
 72
    65
 73
     2
 40
0.000110
 49
0.000000
 49
-0.000110
  0
LTYPE
  2
DASHDOT
 70
    64
  3
__ . __ . __ . __ . __ . __ . __ . __ . __ . __
 72
    65
 73
     4
 40
0.000440
 49
0.000220
 49
-0.000110
 49
0.000000
 49
-0.000110
  0
LTYPE
  2
BORDER
 70
    64
  3
__ __ . __ __ . __ __ . __ __ . __ __ . __ __
 72
    65
 73
     6
 40
0.000770
 49
0.000220
 49
-0.000110
 49
0.000220
 49
-0.000110
 49
0.000000
 49
-0.000110
  0
LTYPE
  2
DIVIDE
 70
    64
  3
__ . . __ . . __ . . __ . . __ . . __ . . __
 72
    65
 73
     6
 40
0.000550
 49
0.000220
 49
-0.000110
 49
0.000000
 49
-0.000110
 49
0.000000
 49
-0.000110
  0
LTYPE
  2
DOTDOT
 70
    64
  3
 . .  . .  . .  . .  . .  . . 
 72
    65
 73
     5
 40
0.000242
 49
-0.000110
 49
0.000000
 49
-0.000110
 49
0.000000
 49
-0.000110
  0
ENDTAB
  0
TABLE
  2
STYLE
 70
     2
  0
STYLE
 70
     0
  2
SN0
 40
0.000000
 41
0.000440
 50
0.000000
 71
     0
 42
0.000000
  3
ROMAND
  0
STYLE
 70
    68
  2
SV0
 40
0.000000
 41
0.000440
 50
0.000000
 71
     0
 42
0.000000
  3
ROMAND
  0
ENDTAB
  0
TABLE
  2
LAYER
 70
     3
  0
LAYER
  2
FOREGROUND
 70
    64
 62
     7
  6
CONTINUOUS
  0
LAYER
  2
BACKGROUND
 70
    65
 62
    -7
  6
CONTINUOUS
  0
LAYER
  2
0
 70
    64
 62
     7
  6
CONTINUOUS
  0
ENDTAB
  0
ENDSEC
  0
SECTION
  2
ENTITIES
  0
POLYLINE
  8
FOREGROUND
  6
CONTINUOUS
 66
     1
 40
0.000000
 41
0.000000
  0
VERTEX
  8
FOREGROUND
  6
CONTINUOUS
 10
0.000000
 20
3.263920
  0
VERTEX
  8
FOREGROUND
  6
CONTINUOUS
 10
8.499920
 20
3.263920
  0
VERTEX
  8
FOREGROUND
  6
CONTINUOUS
 10
8.499920
 20
-7.736080
  0
VERTEX
  8
FOREGROUND
  6
CONTINUOUS
 10
0.000000
 20
-7.736080
  0
VERTEX
  8
FOREGROUND
  6
CONTINUOUS
 10
0.000000
 20
3.263920
  0
SEQEND
  8
0
  0
POLYLINE
  8
FOREGROUND
  6
CONTINUOUS
 66
     1
 40
0.000000
 41
0.000000
  0
VERTEX
  8
FOREGROUND
  6
CONTINUOUS
 10
0.000000
 20
3.263920
  0
VERTEX
  8
FOREGROUND
  6
CONTINUOUS
 10
8.499920
 20
3.263920
  0
VERTEX
  8
FOREGROUND
  6
CONTINUOUS
 10
8.499920
 20
-7.736080
  0
VERTEX
  8
FOREGROUND
  6
CONTINUOUS
 10
0.000000
 20
-7.736080
  0
VERTEX
  8
FOREGROUND
  6
CONTINUOUS
 10
0.000000
 20
3.263920
  0
SEQEND
  8
0
  0
POLYLINE
  8
0
  6
CONTINUOUS
 66
     1
 40
0.014080
 41
0.014080
  0
VERTEX
  8
0
  6
CONTINUOUS
 10
6.864000
 20
2.785640
  0
VERTEX
  8
0
  6
CONTINUOUS
 10
6.706040
 20
2.785640
  0
VERTEX
  8
0
  6
CONTINUOUS
 10
6.706040
 20
1.291400
  0
VERTEX
  8
0
  6
CONTINUOUS
 10
7.209840
 20
1.291400
  0
VERTEX
  8
0
  6
CONTINUOUS
 10
7.211160
 20
1.312520
  0
VERTEX
  8
0
  6
CONTINUOUS
 10
7.215560
 20
1.334080
  0
VERTEX
  8
0
  6
CONTINUOUS
 10
7.222160
 20
1.356080
  0
VERTEX
  8
0
  6
CONTINUOUS
 10
7.231400
 20
1.378080
  0
VERTEX
  8
0
  6
CONTINUOUS
 10
7.242840
 20
1.400080
  0
VERTEX
  8
0
  6
CONTINUOUS
 10
7.271440
 20
1.442320
  0
VERTEX
  8
0
  6
CONTINUOUS
 10
7.306200
 20
1.481040
  0
VERTEX
  8
0
  6
CONTINUOUS
 10
7.346240
 20
1.515360
  0
VERTEX
  8
0
  6
CONTINUOUS
 10
7.367800
 20
1.529880
  0
VERTEX
  8
0
  6
CONTINUOUS
 10
7.389800
 20
1.542200
  0
VERTEX
  8
0
  6
CONTINUOUS
 10
7.412680
 20
1.552760
  0
VERTEX
  8
0
  6
CONTINUOUS
 10
7.447000
 20
1.564200
  0
VERTEX
  8
0
  6
CONTINUOUS
 10
7.458440
 20
1.566400
  0
VERTEX
  8
0
  6
CONTINUOUS
 10
7.458440
 20
1.854160
  0
VERTEX
  8
0
  6
CONTINUOUS
 10
7.274520
 20
1.854160
  0
VERTEX
  8
0
  6
CONTINUOUS
 10
7.296960
 20
1.869120
  0
VERTEX
  8
0
  6
CONTINUOUS
 10
7.317640
 20
1.887600
  0
VERTEX
  8
0
  6
CONTINUOUS
 10
7.335680
 20
1.908720
  0
VERTEX
  8
0
  6
CONTINUOUS
 10
7.351080
 20
1.932480
  0
VERTEX
  8
0
  6
CONTINUOUS
 10
7.363400
 20
1.958880
  0
VERTEX
  8
0
  6
CONTINUOUS
 10
7.372200
 20
1.986600
  0
VERTEX
  8
0
  6
CONTINUOUS
 10
7.377040
 20
2.016080
  0
VERTEX
  8
0
  6
CONTINUOUS
 10
7.378360
 20
2.046880
  0
VERTEX
  8
0
  6
CONTINUOUS
 10
7.374840
 20
2.078120
  0
VERTEX
  8
0
  6
CONTINUOUS
 10
7.366920
 20
2.109800
  0
VERTEX
  8
0
  6
CONTINUOUS
 10
7.361200
 20
2.126080
  0
VERTEX
  8
0
  6
CONTINUOUS
 10
7.345360
 20
2.157760
  0
VERTEX
  8
0
  6
CONTINUOUS
 10
7.324240
 20
2.189000
  0
VERTEX
  8
0
  6
CONTINUOUS
 10
7.297840
 20
2.219800
  0
VERTEX
  8
0
  6
CONTINUOUS
 10
7.264840
 20
2.249280
  0
VERTEX
  8
0
  6
CONTINUOUS
 10
7.225240
 20
2.277000
  0
VERTEX
  8
0
  6
CONTINUOUS
 10
7.158800
 20
2.317040
  0
VERTEX
  8
0
  6
CONTINUOUS
 10
7.098960
 20
2.361040
  0
VERTEX
  8
0
  6
CONTINUOUS
 10
7.046600
 20
2.408120
  0
VERTEX
  8
0
  6
CONTINUOUS
 10
7.001720
 20
2.457400
  0
VERTEX
  8
0
  6
CONTINUOUS
 10
6.963440
 20
2.508000
  0
VERTEX
  8
0
  6
CONTINUOUS
 10
6.931760
 20
2.558600
  0
VERTEX
  8
0
  6
CONTINUOUS
 10
6.906680
 20
2.609200
  0
VERTEX
  8
0
  6
CONTINUOUS
 10
6.887320
 20
2.658040
  0
VERTEX
  8
0
  6
CONTINUOUS
 10
6.874120
 20
2.704680
  0
VERTEX
  8
0
  6
CONTINUOUS
 10
6.866640
 20
2.747800
  0
VERTEX
  8
0
  6
CONTINUOUS
 10
6.864000
 20
2.786520
  0
SEQEND
  8
0
  0
SOLID
  8
0
 62
    15
 10
5.689640
 20
1.736680
 11
6.324560
 21
2.096600
 12
5.693160
 22
1.705440
 13
6.328080
 23
2.064920
  0
POLYLINE
  8
0
  6
CONTINUOUS
 66
     1
 40
0.000000
 41
0.000000
  0
VERTEX
  8
0
  6
CONTINUOUS
 10
5.689640
 20
1.736680
  0
VERTEX
  8
0
  6
CONTINUOUS
 10
6.324560
 20
2.096600
  0
VERTEX
  8
0
  6
CONTINUOUS
 10
6.328080
 20
2.064920
  0
VERTEX
  8
0
  6
CONTINUOUS
 10
5.693160
 20
1.705440
  0
VERTEX
  8
0
  6
CONTINUOUS
 10
5.689640
 20
1.736680
  0
SEQEND
  8
0
  0
SOLID
  8
0
 62
     7
 10
5.183640
 20
2.392280
 11
5.818560
 21
2.751760
 12
5.197280
 22
2.332440
 13
5.832200
 23
2.691920
  0
POLYLINE
  8
0
  6
CONTINUOUS
 66
     1
 40
0.000000
 41
0.000000
  0
VERTEX
  8
0
  6
CONTINUOUS
 10
5.183640
 20
2.392280
  0
VERTEX
  8
0
  6
CONTINUOUS
 10
5.818560
 20
2.751760
  0
VERTEX
  8
0
  6
CONTINUOUS
 10
5.832200
 20
2.691920
  0
VERTEX
  8
0
  6
CONTINUOUS
 10
5.197280
 20
2.332440
  0
VERTEX
  8
0
  6
CONTINUOUS
 10
5.183640
 20
2.392280
  0
SEQEND
  8
0
  0
SOLID
  8
0
 62
     7
 10
5.197280
 20
2.332440
 11
5.832200
 21
2.691920
 12
5.221480
 22
2.267760
 13
5.856400
 23
2.627240
  0
POLYLINE
  8
0
  6
CONTINUOUS
 66
     1
 40
0.000000
 41
0.000000
  0
VERTEX
  8
0
  6
CONTINUOUS
 10
5.197280
 20
2.332440
  0
VERTEX
  8
0
  6
CONTINUOUS
 10
5.832200
 20
2.691920
  0
VERTEX
  8
0
  6
CONTINUOUS
 10
5.856400
 20
2.627240
  0
VERTEX
  8
0
  6
CONTINUOUS
 10
5.221480
 20
2.267760
  0
VERTEX
  8
0
  6
CONTINUOUS
 10
5.197280
 20
2.332440
  0
SEQEND
  8
0
  0
SOLID
  8
0
 62
     7
 10
5.221480
 20
2.267760
 11
5.856400
 21
2.627240
 12
5.256680
 22
2.200440
 13
5.891600
 23
2.559920
  0
POLYLINE
  8
0
  6
CONTINUOUS
 66
     1
 40
0.000000
 41
0.000000
  0
VERTEX
  8
0
  6
CONTINUOUS
 10
5.221480
 20
2.267760
  0
VERTEX
  8
0
  6
CONTINUOUS
 10
5.856400
 20
2.627240
  0
VERTEX
  8
0
  6
CONTINUOUS
 10
5.891600
 20
2.559920
  0
VERTEX
  8
0
  6
CONTINUOUS
 10
5.256680
 20
2.200440
  0
VERTEX
  8
0
  6
CONTINUOUS
 10
5.221480
 20
2.267760
  0
SEQEND
  8
0
  0
SOLID
  8
0
 62
     7
 10
5.256680
 20
2.200440
 11
5.891600
 21
2.559920
 12
5.302880
 22
2.132680
 13
5.937800
 23
2.492160
  0
POLYLINE
  8
0
  6
CONTINUOUS
 66
     1
 40
0.000000
 41
0.000000
  0
VERTEX
  8
0
  6
CONTINUOUS
 10
5.256680
 20
2.200440
  0
VERTEX
  8
0
  6
CONTINUOUS
 10
5.891600
 20
2.559920
  0
VERTEX
  8
0
  6
CONTINUOUS
 10
5.937800
 20
2.492160
  0
VERTEX
  8
0
  6
CONTINUOUS
 10
5.302880
 20
2.132680
  0
VERTEX
  8
0
  6
CONTINUOUS
 10
5.256680
 20
2.200440
  0
SEQEND
  8
0
  0
SOLID
  8
0
 62
    15
 10
5.302880
 20
2.132680
 11
5.937800
 21
2.492160
 12
5.361840
 22
2.066680
 13
5.996760
 23
2.426160
  0
POLYLINE
  8
0
  6
CONTINUOUS
 66
     1
 40
0.000000
 41
0.000000
  0
VERTEX
  8
0
  6
CONTINUOUS
 10
5.302880
 20
2.132680
  0
VERTEX
  8
0
  6
CONTINUOUS
 10
5.937800
 20
2.492160
  0
VERTEX
  8
0
  6
CONTINUOUS
 10
5.996760
 20
2.426160
  0
VERTEX
  8
0
  6
CONTINUOUS
 10
5.361840
 20
2.066680
  0
VERTEX
  8
0
  6
CONTINUOUS
 10
5.302880
 20
2.132680
  0
SEQEND
  8
0
  0
SOLID
  8
0
 62
    15
 10
5.361840
 20
2.066680
 11
5.996760
 21
2.426160
 12
5.395720
 22
2.035000
 13
6.030640
 23
2.394480
  0
POLYLINE
  8
0
  6
CONTINUOUS
 66
     1
 40
0.000000
 41
0.000000
  0
VERTEX
  8
0
  6
CONTINUOUS
 10
5.361840
 20
2.066680
  0
VERTEX
  8
0
  6
CONTINUOUS
 10
5.996760
 20
2.426160
  0
VERTEX
  8
0
  6
CONTINUOUS
 10
6.030640
 20
2.394480
  0
VERTEX
  8
0
  6
CONTINUOUS
 10
5.395720
 20
2.035000
  0
VERTEX
  8
0
  6
CONTINUOUS
 10
5.361840
 20
2.066680
  0
SEQEND
  8
0
  0
SOLID
  8
0
 62
    15
 10
5.395720
 20
2.035000
 11
6.030640
 21
2.394480
 12
5.433120
 22
2.004640
 13
6.068040
 23
2.364120
  0
POLYLINE
  8
0
  6
CONTINUOUS
 66
     1
 40
0.000000
 41
0.000000
  0
VERTEX
  8
0
  6
CONTINUOUS
 10
5.395720
 20
2.035000
  0
VERTEX
  8
0
  6
CONTINUOUS
 10
6.030640
 20
2.394480
  0
VERTEX
  8
0
  6
CONTINUOUS
 10
6.068040
 20
2.364120
  0
VERTEX
  8
0
  6
CONTINUOUS
 10
5.433120
 20
2.004640
  0
VERTEX
  8
0
  6
CONTINUOUS
 10
5.395720
 20
2.035000
  0
SEQEND
  8
0
  0
SOLID
  8
0
 62
    15
 10
5.433120
 20
2.004640
 11
6.068040
 21
2.364120
 12
5.474040
 22
1.975600
 13
6.108960
 23
2.335520
  0
POLYLINE
  8
0
  6
CONTINUOUS
 66
     1
 40
0.000000
 41
0.000000
  0
VERTEX
  8
0
  6
CONTINUOUS
 10
5.433120
 20
2.004640
  0
VERTEX
  8
0
  6
CONTINUOUS
 10
6.068040
 20
2.364120
  0
VERTEX
  8
0
  6
CONTINUOUS
 10
6.108960
 20
2.335520
  0
VERTEX
  8
0
  6
CONTINUOUS
 10
5.474040
 20
1.975600
  0
VERTEX
  8
0
  6
CONTINUOUS
 10
5.433120
 20
2.004640
  0
SEQEND
  8
0
  0
SOLID
  8
0
 62
    15
 10
5.474040
 20
1.975600
 11
6.108960
 21
2.335520
 12
5.518040
 22
1.948760
 13
6.152960
 23
2.308240
  0
POLYLINE
  8
0
  6
CONTINUOUS
 66
     1
 40
0.000000
 41
0.000000
  0
VERTEX
  8
0
  6
CONTINUOUS
 10
5.474040
 20
1.975600
  0
VERTEX
  8
0
  6
CONTINUOUS
 10
6.108960
 20
2.335520
  0
VERTEX
  8
0
  6
CONTINUOUS
 10
6.152960
 20
2.308240
  0
VERTEX
  8
0
  6
CONTINUOUS
 10
5.518040
 20
1.948760
  0
VERTEX
  8
0
  6
CONTINUOUS
 10
5.474040
 20
1.975600
  0
SEQEND
  8
0
  0
SOLID
  8
0
 62
    15
 10
5.518040
 20
1.948760
 11
6.152960
 21
2.308240
 12
5.560720
 22
1.921920
 13
6.195640
 23
2.281400
  0
POLYLINE
  8
0
  6
CONTINUOUS
 66
     1
 40
0.000000
 41
0.000000
  0
VERTEX
  8
0
  6
CONTINUOUS
 10
5.518040
 20
1.948760
  0
VERTEX
  8
0
  6
CONTINUOUS
 10
6.152960
 20
2.308240
  0
VERTEX
  8
0
  6
CONTINUOUS
 10
6.195640
 20
2.281400
  0
VERTEX
  8
0
  6
CONTINUOUS
 10
5.560720
 20
1.921920
  0
VERTEX
  8
0
  6
CONTINUOUS
 10
5.518040
 20
1.948760
  0
SEQEND
  8
0
  0
SOLID
  8
0
 62
    15
 10
5.560720
 20
1.921920
 11
6.195640
 21
2.281400
 12
5.596800
 22
1.893320
 13
6.231720
 23
2.252800
  0
POLYLINE
  8
0
  6
CONTINUOUS
 66
     1
 40
0.000000
 41
0.000000
  0
VERTEX
  8
0
  6
CONTINUOUS
 10
5.560720
 20
1.921920
  0
VERTEX
  8
0
  6
CONTINUOUS
 10
6.195640
 20
2.281400
  0
VERTEX
  8
0
  6
CONTINUOUS
 10
6.231720
 20
2.252800
  0
VERTEX
  8
0
  6
CONTINUOUS
 10
5.596800
 20
1.893320
  0
VERTEX
  8
0
  6
CONTINUOUS
 10
5.560720
 20
1.921920
  0
SEQEND
  8
0
  0
SOLID
  8
0
 62
    15
 10
5.596800
 20
1.893320
 11
6.231720
 21
2.252800
 12
5.626720
 22
1.862960
 13
6.261640
 23
2.222880
  0
POLYLINE
  8
0
  6
CONTINUOUS
 66
     1
 40
0.000000
 41
0.000000
  0
VERTEX
  8
0
  6
CONTINUOUS
 10
5.596800
 20
1.893320
  0
VERTEX
  8
0
  6
CONTINUOUS
 10
6.231720
 20
2.252800
  0
VERTEX
  8
0
  6
CONTINUOUS
 10
6.261640
 20
2.222880
  0
VERTEX
  8
0
  6
CONTINUOUS
 10
5.626720
 20
1.862960
  0
VERTEX
  8
0
  6
CONTINUOUS
 10
5.596800
 20
1.893320
  0
SEQEND
  8
0
  0
SOLID
  8
0
 62
    15
 10
5.626720
 20
1.862960
 11
6.261640
 21
2.222880
 12
5.650480
 22
1.832160
 13
6.285400
 23
2.191640
  0
POLYLINE
  8
0
  6
CONTINUOUS
 66
     1
 40
0.000000
 41
0.000000
  0
VERTEX
  8
0
  6
CONTINUOUS
 10
5.626720
 20
1.862960
  0
VERTEX
  8
0
  6
CONTINUOUS
 10
6.261640
 20
2.222880
  0
VERTEX
  8
0
  6
CONTINUOUS
 10
6.285400
 20
2.191640
  0
VERTEX
  8
0
  6
CONTINUOUS
 10
5.650480
 20
1.832160
  0
VERTEX
  8
0
  6
CONTINUOUS
 10
5.626720
 20
1.862960
  0
SEQEND
  8
0
  0
SOLID
  8
0
 62
     7
 10
5.650480
 20
1.832160
 11
6.285400
 21
2.191640
 12
5.668960
 22
1.800480
 13
6.303880
 23
2.159960
  0
POLYLINE
  8
0
  6
CONTINUOUS
 66
     1
 40
0.000000
 41
0.000000
  0
VERTEX
  8
0
  6
CONTINUOUS
 10
5.650480
 20
1.832160
  0
VERTEX
  8
0
  6
CONTINUOUS
 10
6.285400
 20
2.191640
  0
VERTEX
  8
0
  6
CONTINUOUS
 10
6.303880
 20
2.159960
  0
VERTEX
  8
0
  6
CONTINUOUS
 10
5.668960
 20
1.800480
  0
VERTEX
  8
0
  6
CONTINUOUS
 10
5.650480
 20
1.832160
  0
SEQEND
  8
0
  0
SOLID
  8
0
 62
     7
 10
5.668960
 20
1.800480
 11
6.303880
 21
2.159960
 12
5.681720
 22
1.768360
 13
6.316640
 23
2.128280
  0
POLYLINE
  8
0
  6
CONTINUOUS
 66
     1
 40
0.000000
 41
0.000000
  0
VERTEX
  8
0
  6
CONTINUOUS
 10
5.668960
 20
1.800480
  0
VERTEX
  8
0
  6
CONTINUOUS
 10
6.303880
 20
2.159960
  0
VERTEX
  8
0
  6
CONTINUOUS
 10
6.316640
 20
2.128280
  0
VERTEX
  8
0
  6
CONTINUOUS
 10
5.681720
 20
1.768360
  0
VERTEX
  8
0
  6
CONTINUOUS
 10
5.668960
 20
1.800480
  0
SEQEND
  8
0
  0
SOLID
  8
0
 62
    15
 10
5.681720
 20
1.768360
 11
6.316640
 21
2.128280
 12
5.689640
 22
1.736680
 13
6.324560
 23
2.096600
  0
POLYLINE
  8
0
  6
CONTINUOUS
 66
     1
 40
0.000000
 41
0.000000
  0
VERTEX
  8
0
  6
CONTINUOUS
 10
5.681720
 20
1.768360
  0
VERTEX
  8
0
  6
CONTINUOUS
 10
6.316640
 20
2.128280
  0
VERTEX
  8
0
  6
CONTINUOUS
 10
6.324560
 20
2.096600
  0
VERTEX
  8
0
  6
CONTINUOUS
 10
5.689640
 20
1.736680
  0
VERTEX
  8
0
  6
CONTINUOUS
 10
5.681720
 20
1.768360
  0
SEQEND
  8
0
  0
SOLID
  8
0
 62
    15
 10
5.020840
 20
2.444200
 11
5.655760
 21
2.803680
 12
5.178800
 22
2.444200
 13
5.813720
 23
2.803680
  0
POLYLINE
  8
0
  6
CONTINUOUS
 66
     1
 40
0.000000
 41
0.000000
  0
VERTEX
  8
0
  6
CONTINUOUS
 10
5.020840
 20
2.444200
  0
VERTEX
  8
0
  6
CONTINUOUS
 10
5.655760
 20
2.803680
  0
VERTEX
  8
0
  6
CONTINUOUS
 10
5.813720
 20
2.803680
  0
VERTEX
  8
0
  6
CONTINUOUS
 10
5.178800
 20
2.444200
  0
VERTEX
  8
0
  6
CONTINUOUS
 10
5.020840
 20
2.444200
  0
SEQEND
  8
0
  0
SOLID
  8
0
 62
    15
 10
5.693160
 20
1.705440
 11
6.328080
 21
2.064920
 12
5.691840
 22
1.674640
 13
6.326760
 23
2.034560
  0
POLYLINE
  8
0
  6
CONTINUOUS
 66
     1
 40
0.000000
 41
0.000000
  0
VERTEX
  8
0
  6
CONTINUOUS
 10
5.693160
 20
1.705440
  0
VERTEX
  8
0
  6
CONTINUOUS
 10
6.328080
 20
2.064920
  0
VERTEX
  8
0
  6
CONTINUOUS
 10
6.326760
 20
2.034560
  0
VERTEX
  8
0
  6
CONTINUOUS
 10
5.691840
 20
1.674640
  0
VERTEX
  8
0
  6
CONTINUOUS
 10
5.693160
 20
1.705440
  0
SEQEND
  8
0
  0
SOLID
  8
0
 62
    15
 10
5.691840
 20
1.674640
 11
6.326760
 21
2.034560
 12
5.687000
 22
1.645160
 13
6.321920
 23
2.005080
  0
POLYLINE
  8
0
  6
CONTINUOUS
 66
     1
 40
0.000000
 41
0.000000
  0
VERTEX
  8
0
  6
CONTINUOUS
 10
5.691840
 20
1.674640
  0
VERTEX
  8
0
  6
CONTINUOUS
 10
6.326760
 20
2.034560
  0
VERTEX
  8
0
  6
CONTINUOUS
 10
6.321920
 20
2.005080
  0
VERTEX
  8
0
  6
CONTINUOUS
 10
5.687000
 20
1.645160
  0
VERTEX
  8
0
  6
CONTINUOUS
 10
5.691840
 20
1.674640
  0
SEQEND
  8
0
  0
SOLID
  8
0
 62
    15
 10
5.687000
 20
1.645160
 11
6.321920
 21
2.005080
 12
5.678200
 22
1.617440
 13
6.313120
 23
1.976920
  0
POLYLINE
  8
0
  6
CONTINUOUS
 66
     1
 40
0.000000
 41
0.000000
  0
VERTEX
  8
0
  6
CONTINUOUS
 10
5.687000
 20
1.645160
  0
VERTEX
  8
0
  6
CONTINUOUS
 10
6.321920
 20
2.005080
  0
VERTEX
  8
0
  6
CONTINUOUS
 10
6.313120
 20
1.976920
  0
VERTEX
  8
0
  6
CONTINUOUS
 10
5.678200
 20
1.617440
  0
VERTEX
  8
0
  6
CONTINUOUS
 10
5.687000
 20
1.645160
  0
SEQEND
  8
0
  0
SOLID
  8
0
 62
    15
 10
5.678200
 20
1.617440
 11
6.313120
 21
1.976920
 12
5.665880
 22
1.591040
 13
6.300800
 23
1.950960
  0
POLYLINE
  8
0
  6
CONTINUOUS
 66
     1
 40
0.000000
 41
0.000000
  0
VERTEX
  8
0
  6
CONTINUOUS
 10
5.678200
 20
1.617440
  0
VERTEX
  8
0
  6
CONTINUOUS
 10
6.313120
 20
1.976920
  0
VERTEX
  8
0
  6
CONTINUOUS
 10
6.300800
 20
1.950960
  0
VERTEX
  8
0
  6
CONTINUOUS
 10
5.665880
 20
1.591040
  0
VERTEX
  8
0
  6
CONTINUOUS
 10
5.678200
 20
1.617440
  0
SEQEND
  8
0
  0
SOLID
  8
0
 62
    15
 10
5.665880
 20
1.591040
 11
6.300800
 21
1.950960
 12
5.650480
 22
1.567280
 13
6.285400
 23
1.927200
  0
POLYLINE
  8
0
  6
CONTINUOUS
 66
     1
 40
0.000000
 41
0.000000
  0
VERTEX
  8
0
  6
CONTINUOUS
 10
5.665880
 20
1.591040
  0
VERTEX
  8
0
  6
CONTINUOUS
 10
6.300800
 20
1.950960
  0
VERTEX
  8
0
  6
CONTINUOUS
 10
6.285400
 20
1.927200
  0
VERTEX
  8
0
  6
CONTINUOUS
 10
5.650480
 20
1.567280
  0
VERTEX
  8
0
  6
CONTINUOUS
 10
5.665880
 20
1.591040
  0
SEQEND
  8
0
  0
SOLID
  8
0
 62
    15
 10
5.650480
 20
1.567280
 11
6.285400
 21
1.927200
 12
5.632440
 22
1.546160
 13
6.267360
 23
1.905640
  0
POLYLINE
  8
0
  6
CONTINUOUS
 66
     1
 40
0.000000
 41
0.000000
  0
VERTEX
  8
0
  6
CONTINUOUS
 10
5.650480
 20
1.567280
  0
VERTEX
  8
0
  6
CONTINUOUS
 10
6.285400
 20
1.927200
  0
VERTEX
  8
0
  6
CONTINUOUS
 10
6.267360
 20
1.905640
  0
VERTEX
  8
0
  6
CONTINUOUS
 10
5.632440
 20
1.546160
  0
VERTEX
  8
0
  6
CONTINUOUS
 10
5.650480
 20
1.567280
  0
SEQEND
  8
0
  0
SOLID
  8
0
 62
    15
 10
5.632440
 20
1.546160
 11
6.267360
 21
1.905640
 12
5.612200
 22
1.527680
 13
6.247120
 23
1.887160
  0
POLYLINE
  8
0
  6
CONTINUOUS
 66
     1
 40
0.000000
 41
0.000000
  0
VERTEX
  8
0
  6
CONTINUOUS
 10
5.632440
 20
1.546160
  0
VERTEX
  8
0
  6
CONTINUOUS
 10
6.267360
 20
1.905640
  0
VERTEX
  8
0
  6
CONTINUOUS
 10
6.247120
 20
1.887160
  0
VERTEX
  8
0
  6
CONTINUOUS
 10
5.612200
 20
1.527680
  0
VERTEX
  8
0
  6
CONTINUOUS
 10
5.632440
 20
1.546160
  0
SEQEND
  8
0
  0
SOLID
  8
0
 62
    15
 10
5.612200
 20
1.527680
 11
6.247120
 21
1.887160
 12
5.589320
 22
1.512720
 13
6.224240
 23
1.872200
  0
POLYLINE
  8
0
  6
CONTINUOUS
 66
     1
 40
0.000000
 41
0.000000
  0
VERTEX
  8
0
  6
CONTINUOUS
 10
5.612200
 20
1.527680
  0
VERTEX
  8
0
  6
CONTINUOUS
 10
6.247120
 20
1.887160
  0
VERTEX
  8
0
  6
CONTINUOUS
 10
6.224240
 20
1.872200
  0
VERTEX
  8
0
  6
CONTINUOUS
 10
5.589320
 20
1.512720
  0
VERTEX
  8
0
  6
CONTINUOUS
 10
5.612200
 20
1.527680
  0
SEQEND
  8
0
  0
SOLID
  8
0
 62
    15
 10
5.589320
 20
1.512720
 11
6.224240
 21
1.872200
 12
5.773680
 22
1.512720
 13
6.408600
 23
1.872200
  0
POLYLINE
  8
0
  6
CONTINUOUS
 66
     1
 40
0.000000
 41
0.000000
  0
VERTEX
  8
0
  6
CONTINUOUS
 10
5.589320
 20
1.512720
  0
VERTEX
  8
0
  6
CONTINUOUS
 10
6.224240
 20
1.872200
  0
VERTEX
  8
0
  6
CONTINUOUS
 10
6.408600
 20
1.872200
  0
VERTEX
  8
0
  6
CONTINUOUS
 10
5.773680
 20
1.512720
  0
VERTEX
  8
0
  6
CONTINUOUS
 10
5.589320
 20
1.512720
  0
SEQEND
  8
0
  0
SOLID
  8
0
 62
    15
 10
5.682600
 20
1.188000
 11
6.317520
 21
1.547920
 12
5.640800
 22
1.157200
 13
6.275720
 23
1.517120
  0
POLYLINE
  8
0
  6
CONTINUOUS
 66
     1
 40
0.000000
 41
0.000000
  0
VERTEX
  8
0
  6
CONTINUOUS
 10
5.682600
 20
1.188000
  0
VERTEX
  8
0
  6
CONTINUOUS
 10
6.317520
 20
1.547920
  0
VERTEX
  8
0
  6
CONTINUOUS
 10
6.275720
 20
1.517120
  0
VERTEX
  8
0
  6
CONTINUOUS
 10
5.640800
 20
1.157200
  0
VERTEX
  8
0
  6
CONTINUOUS
 10
5.682600
 20
1.188000
  0
SEQEND
  8
0
  0
SOLID
  8
0
 62
    15
 10
5.640800
 20
1.157200
 11
6.275720
 21
1.517120
 12
5.602960
 22
1.120680
 13
6.237880
 23
1.480160
  0
POLYLINE
  8
0
  6
CONTINUOUS
 66
     1
 40
0.000000
 41
0.000000
  0
VERTEX
  8
0
  6
CONTINUOUS
 10
5.640800
 20
1.157200
  0
VERTEX
  8
0
  6
CONTINUOUS
 10
6.275720
 20
1.517120
  0
VERTEX
  8
0
  6
CONTINUOUS
 10
6.237880
 20
1.480160
  0
VERTEX
  8
0
  6
CONTINUOUS
 10
5.602960
 20
1.120680
  0
VERTEX
  8
0
  6
CONTINUOUS
 10
5.640800
 20
1.157200
  0
SEQEND
  8
0
  0
SOLID
  8
0
 62
    15
 10
5.773680
 20
1.512720
 11
6.408600
 21
1.872200
 12
5.773680
 22
1.224960
 13
6.408600
 23
1.584440
  0
POLYLINE
  8
0
  6
CONTINUOUS
 66
     1
 40
0.000000
 41
0.000000
  0
VERTEX
  8
0
  6
CONTINUOUS
 10
5.773680
 20
1.512720
  0
VERTEX
  8
0
  6
CONTINUOUS
 10
6.408600
 20
1.872200
  0
VERTEX
  8
0
  6
CONTINUOUS
 10
6.408600
 20
1.584440
  0
VERTEX
  8
0
  6
CONTINUOUS
 10
5.773680
 20
1.224960
  0
VERTEX
  8
0
  6
CONTINUOUS
 10
5.773680
 20
1.512720
  0
SEQEND
  8
0
  0
SOLID
  8
0
 62
    15
 10
5.602960
 20
1.120680
 11
6.237880
 21
1.480160
 12
5.570840
 22
1.079760
 13
6.205760
 23
1.439240
  0
POLYLINE
  8
0
  6
CONTINUOUS
 66
     1
 40
0.000000
 41
0.000000
  0
VERTEX
  8
0
  6
CONTINUOUS
 10
5.602960
 20
1.120680
  0
VERTEX
  8
0
  6
CONTINUOUS
 10
6.237880
 20
1.480160
  0
VERTEX
  8
0
  6
CONTINUOUS
 10
6.205760
 20
1.439240
  0
VERTEX
  8
0
  6
CONTINUOUS
 10
5.570840
 20
1.079760
  0
VERTEX
  8
0
  6
CONTINUOUS
 10
5.602960
 20
1.120680
  0
SEQEND
  8
0
  0
SOLID
  8
0
 62
    15
 10
5.570840
 20
1.079760
 11
6.205760
 21
1.439240
 12
5.546200
 22
1.036640
 13
6.181120
 23
1.396120
  0
POLYLINE
  8
0
  6
CONTINUOUS
 66
     1
 40
0.000000
 41
0.000000
  0
VERTEX
  8
0
  6
CONTINUOUS
 10
5.570840
 20
1.079760
  0
VERTEX
  8
0
  6
CONTINUOUS
 10
6.205760
 20
1.439240
  0
VERTEX
  8
0
  6
CONTINUOUS
 10
6.181120
 20
1.396120
  0
VERTEX
  8
0
  6
CONTINUOUS
 10
5.546200
 20
1.036640
  0
VERTEX
  8
0
  6
CONTINUOUS
 10
5.570840
 20
1.079760
  0
SEQEND
  8
0
  0
SOLID
  8
0
 62
    15
 10
5.546200
 20
1.036640
 11
6.181120
 21
1.396120
 12
5.530360
 22
0.992640
 13
6.165280
 23
1.352120
  0
POLYLINE
  8
0
  6
CONTINUOUS
 66
     1
 40
0.000000
 41
0.000000
  0
VERTEX
  8
0
  6
CONTINUOUS
 10
5.546200
 20
1.036640
  0
VERTEX
  8
0
  6
CONTINUOUS
 10
6.181120
 20
1.396120
  0
VERTEX
  8
0
  6
CONTINUOUS
 10
6.165280
 20
1.352120
  0
VERTEX
  8
0
  6
CONTINUOUS
 10
5.530360
 20
0.992640
  0
VERTEX
  8
0
  6
CONTINUOUS
 10
5.546200
 20
1.036640
  0
SEQEND
  8
0
  0
SOLID
  8
0
 62
    15
 10
5.530360
 20
0.992640
 11
6.165280
 21
1.352120
 12
5.524640
 22
0.949960
 13
6.159560
 23
1.309440
  0
POLYLINE
  8
0
  6
CONTINUOUS
 66
     1
 40
0.000000
 41
0.000000
  0
VERTEX
  8
0
  6
CONTINUOUS
 10
5.530360
 20
0.992640
  0
VERTEX
  8
0
  6
CONTINUOUS
 10
6.165280
 20
1.352120
  0
VERTEX
  8
0
  6
CONTINUOUS
 10
6.159560
 20
1.309440
  0
VERTEX
  8
0
  6
CONTINUOUS
 10
5.524640
 20
0.949960
  0
VERTEX
  8
0
  6
CONTINUOUS
 10
5.530360
 20
0.992640
  0
SEQEND
  8
0
  0
SOLID
  8
0
 62
     7
 10
5.178800
 20
2.445080
 11
5.813720
 21
2.804560
 12
5.183640
 22
2.392280
 13
5.818560
 23
2.751760
  0
POLYLINE
  8
0
  6
CONTINUOUS
 66
     1
 40
0.000000
 41
0.000000
  0
VERTEX
  8
0
  6
CONTINUOUS
 10
5.178800
 20
2.445080
  0
VERTEX
  8
0
  6
CONTINUOUS
 10
5.813720
 20
2.804560
  0
VERTEX
  8
0
  6
CONTINUOUS
 10
5.818560
 20
2.751760
  0
VERTEX
  8
0
  6
CONTINUOUS
 10
5.183640
 20
2.392280
  0
VERTEX
  8
0
  6
CONTINUOUS
 10
5.178800
 20
2.445080
  0
SEQEND
  8
0
  0
POLYLINE
  8
0
  6
CONTINUOUS
 66
     1
 40
0.000000
 41
0.000000
  0
VERTEX
  8
0
  6
CONTINUOUS
 10
5.178800
 20
2.445080
  0
VERTEX
  8
0
  6
CONTINUOUS
 10
5.183640
 20
2.392280
  0
VERTEX
  8
0
  6
CONTINUOUS
 10
5.197280
 20
2.332440
  0
VERTEX
  8
0
  6
CONTINUOUS
 10
5.221480
 20
2.267760
  0
VERTEX
  8
0
  6
CONTINUOUS
 10
5.256680
 20
2.200440
  0
VERTEX
  8
0
  6
CONTINUOUS
 10
5.302880
 20
2.132680
  0
VERTEX
  8
0
  6
CONTINUOUS
 10
5.361840
 20
2.066680
  0
VERTEX
  8
0
  6
CONTINUOUS
 10
5.395720
 20
2.035000
  0
VERTEX
  8
0
  6
CONTINUOUS
 10
5.433120
 20
2.004640
  0
VERTEX
  8
0
  6
CONTINUOUS
 10
5.474040
 20
1.975600
  0
VERTEX
  8
0
  6
CONTINUOUS
 10
5.518040
 20
1.948760
  0
VERTEX
  8
0
  6
CONTINUOUS
 10
5.560720
 20
1.921920
  0
VERTEX
  8
0
  6
CONTINUOUS
 10
5.596800
 20
1.893320
  0
VERTEX
  8
0
  6
CONTINUOUS
 10
5.626720
 20
1.862960
  0
VERTEX
  8
0
  6
CONTINUOUS
 10
5.650480
 20
1.832160
  0
VERTEX
  8
0
  6
CONTINUOUS
 10
5.668960
 20
1.800480
  0
VERTEX
  8
0
  6
CONTINUOUS
 10
5.681720
 20
1.768360
  0
VERTEX
  8
0
  6
CONTINUOUS
 10
5.689640
 20
1.736680
  0
VERTEX
  8
0
  6
CONTINUOUS
 10
5.693160
 20
1.705440
  0
VERTEX
  8
0
  6
CONTINUOUS
 10
5.691840
 20
1.674640
  0
VERTEX
  8
0
  6
CONTINUOUS
 10
5.687000
 20
1.645160
  0
VERTEX
  8
0
  6
CONTINUOUS
 10
5.678200
 20
1.617440
  0
VERTEX
  8
0
  6
CONTINUOUS
 10
5.665880
 20
1.591040
  0
VERTEX
  8
0
  6
CONTINUOUS
 10
5.650480
 20
1.567280
  0
VERTEX
  8
0
  6
CONTINUOUS
 10
5.632440
 20
1.546160
  0
VERTEX
  8
0
  6
CONTINUOUS
 10
5.612200
 20
1.527680
  0
VERTEX
  8
0
  6
CONTINUOUS
 10
5.589320
 20
1.512720
  0
VERTEX
  8
0
  6
CONTINUOUS
 10
5.773680
 20
1.512720
  0
VERTEX
  8
0
  6
CONTINUOUS
 10
5.773680
 20
1.224960
  0
VERTEX
  8
0
  6
CONTINUOUS
 10
5.727480
 20
1.211320
  0
VERTEX
  8
0
  6
CONTINUOUS
 10
5.682600
 20
1.188000
  0
VERTEX
  8
0
  6
CONTINUOUS
 10
5.640800
 20
1.157200
  0
VERTEX
  8
0
  6
CONTINUOUS
 10
5.602960
 20
1.120680
  0
VERTEX
  8
0
  6
CONTINUOUS
 10
5.570840
 20
1.079760
  0
VERTEX
  8
0
  6
CONTINUOUS
 10
5.546200
 20
1.036640
  0
VERTEX
  8
0
  6
CONTINUOUS
 10
5.530360
 20
0.992640
  0
VERTEX
  8
0
  6
CONTINUOUS
 10
5.524640
 20
0.949960
  0
VERTEX
  8
0
  6
CONTINUOUS
 10
5.020840
 20
0.949960
  0
VERTEX
  8
0
  6
CONTINUOUS
 10
5.020840
 20
2.444200
  0
VERTEX
  8
0
  6
CONTINUOUS
 10
5.178800
 20
2.444200
  0
VERTEX
  8
0
  6
CONTINUOUS
 10
5.178800
 20
2.445080
  0
SEQEND
  8
0
  0
TEXT
  8
0
 10
5.419040
 20
0.693000
 40
0.138120
  1
BA  886
 41
1.000000
  7
SN0
 71
     0
 72
     5
 11
6.009128
 21
0.693000
  0
TEXT
  8
0
 10
5.262840
 20
0.501600
 40
0.138120
  1
3/4" x 1-1/2"
 41
1.000000
  7
SN0
 71
     0
 72
     5
 11
6.163076
 21
0.501600
  0
ENDSEC
  0
EOF
