  0
SECTION
  2
HEADER
  9
$ACADVER
  1
AC1006
  9
$EXTMIN
 10
0.691680
 20
0.370920
  9
$EXTMAX
 10
7.429400
 20
4.838240
  9
$LTSCALE
 40
0.044000
  9
$PDMODE
 70
    35
  9
$PDSIZE
 40
0.035200
  0
ENDSEC
  0
SECTION
  2
TABLES
  0
TABLE
  2
LTYPE
 70
     9
  0
LTYPE
  2
CONTINUOUS
 70
    64
  3
Solid line
 72
    65
 73
     0
 40
0.000000
  0
LTYPE
  2
DASHED
 70
    64
  3
__ __ __ __ __ __ __ __ __ __ __ __ __ __ __
 72
    65
 73
     2
 40
0.000330
 49
0.000220
 49
-0.000110
  0
LTYPE
  2
HIDDEN
 70
    64
  3
 _ _ _ _ _ _ _ _ _ _ _ _ _ _ _ _ _ _ _ _ _ _
 72
    65
 73
     2
 40
0.000165
 49
0.000110
 49
-0.000055
  0
LTYPE
  2
CENTER
 70
    64
  3
____ _ ____ _ ____ _ ____ _ ____ _ ____ _ ____
 72
    65
 73
     4
 40
0.000880
 49
0.000550
 49
-0.000110
 49
0.000110
 49
-0.000110
  0
LTYPE
  2
PHANTOM
 70
    64
  3
_____ _ _ _____ _ _ _____ _ _ _____ _ _ ____
 72
    65
 73
     6
 40
0.001100
 49
0.000550
 49
-0.000110
 49
0.000110
 49
-0.000110
 49
0.000110
 49
-0.000110
  0
LTYPE
  2
DOT
 70
    64
  3
...............................................
 72
    65
 73
     2
 40
0.000110
 49
0.000000
 49
-0.000110
  0
LTYPE
  2
DASHDOT
 70
    64
  3
__ . __ . __ . __ . __ . __ . __ . __ . __ . __
 72
    65
 73
     4
 40
0.000440
 49
0.000220
 49
-0.000110
 49
0.000000
 49
-0.000110
  0
LTYPE
  2
BORDER
 70
    64
  3
__ __ . __ __ . __ __ . __ __ . __ __ . __ __
 72
    65
 73
     6
 40
0.000770
 49
0.000220
 49
-0.000110
 49
0.000220
 49
-0.000110
 49
0.000000
 49
-0.000110
  0
LTYPE
  2
DIVIDE
 70
    64
  3
__ . . __ . . __ . . __ . . __ . . __ . . __
 72
    65
 73
     6
 40
0.000550
 49
0.000220
 49
-0.000110
 49
0.000000
 49
-0.000110
 49
0.000000
 49
-0.000110
  0
LTYPE
  2
DOTDOT
 70
    64
  3
 . .  . .  . .  . .  . .  . . 
 72
    65
 73
     5
 40
0.000242
 49
-0.000110
 49
0.000000
 49
-0.000110
 49
0.000000
 49
-0.000110
  0
ENDTAB
  0
TABLE
  2
STYLE
 70
     2
  0
STYLE
 70
     0
  2
SN0
 40
0.000000
 41
0.000440
 50
0.000000
 71
     0
 42
0.000000
  3
ROMAND
  0
STYLE
 70
    68
  2
SV0
 40
0.000000
 41
0.000440
 50
0.000000
 71
     0
 42
0.000000
  3
ROMAND
  0
ENDTAB
  0
TABLE
  2
LAYER
 70
     3
  0
LAYER
  2
FOREGROUND
 70
    64
 62
     7
  6
CONTINUOUS
  0
LAYER
  2
BACKGROUND
 70
    65
 62
    -7
  6
CONTINUOUS
  0
LAYER
  2
0
 70
    64
 62
     7
  6
CONTINUOUS
  0
ENDTAB
  0
ENDSEC
  0
SECTION
  2
ENTITIES
  0
POLYLINE
  8
FOREGROUND
  6
CONTINUOUS
 66
     1
 40
0.000000
 41
0.000000
  0
VERTEX
  8
FOREGROUND
  6
CONTINUOUS
 10
0.000000
 20
5.209160
  0
VERTEX
  8
FOREGROUND
  6
CONTINUOUS
 10
8.499920
 20
5.209160
  0
VERTEX
  8
FOREGROUND
  6
CONTINUOUS
 10
8.499920
 20
-5.790840
  0
VERTEX
  8
FOREGROUND
  6
CONTINUOUS
 10
0.000000
 20
-5.790840
  0
VERTEX
  8
FOREGROUND
  6
CONTINUOUS
 10
0.000000
 20
5.209160
  0
SEQEND
  8
0
  0
POLYLINE
  8
FOREGROUND
  6
CONTINUOUS
 66
     1
 40
0.000000
 41
0.000000
  0
VERTEX
  8
FOREGROUND
  6
CONTINUOUS
 10
0.000000
 20
5.209160
  0
VERTEX
  8
FOREGROUND
  6
CONTINUOUS
 10
8.499920
 20
5.209160
  0
VERTEX
  8
FOREGROUND
  6
CONTINUOUS
 10
8.499920
 20
-5.790840
  0
VERTEX
  8
FOREGROUND
  6
CONTINUOUS
 10
0.000000
 20
-5.790840
  0
VERTEX
  8
FOREGROUND
  6
CONTINUOUS
 10
0.000000
 20
5.209160
  0
SEQEND
  8
0
  0
POLYLINE
  8
0
  6
CONTINUOUS
 66
     1
 40
0.014080
 41
0.014080
  0
VERTEX
  8
0
  6
CONTINUOUS
 10
4.115760
 20
3.689840
  0
VERTEX
  8
0
  6
CONTINUOUS
 10
4.089360
 20
3.688960
  0
VERTEX
  8
0
  6
CONTINUOUS
 10
3.274040
 20
4.521000
  0
VERTEX
  8
0
  6
CONTINUOUS
 10
3.590400
 20
4.823280
  0
VERTEX
  8
0
  6
CONTINUOUS
 10
3.651120
 20
4.764320
  0
VERTEX
  8
0
  6
CONTINUOUS
 10
3.681040
 20
4.738360
  0
VERTEX
  8
0
  6
CONTINUOUS
 10
3.741760
 20
4.692600
  0
VERTEX
  8
0
  6
CONTINUOUS
 10
3.772560
 20
4.672800
  0
VERTEX
  8
0
  6
CONTINUOUS
 10
3.834160
 20
4.639360
  0
VERTEX
  8
0
  6
CONTINUOUS
 10
3.865400
 20
4.625280
  0
VERTEX
  8
0
  6
CONTINUOUS
 10
3.928760
 20
4.602400
  0
VERTEX
  8
0
  6
CONTINUOUS
 10
3.993440
 20
4.586120
  0
VERTEX
  8
0
  6
CONTINUOUS
 10
4.060320
 20
4.576000
  0
VERTEX
  8
0
  6
CONTINUOUS
 10
4.128960
 20
4.572040
  0
VERTEX
  8
0
  6
CONTINUOUS
 10
4.164160
 20
4.571600
  0
VERTEX
  8
0
  6
CONTINUOUS
 10
4.236320
 20
4.574680
  0
VERTEX
  8
0
  6
CONTINUOUS
 10
4.311560
 20
4.582600
  0
VERTEX
  8
0
  6
CONTINUOUS
 10
4.389880
 20
4.594040
  0
VERTEX
  8
0
  6
CONTINUOUS
 10
4.513960
 20
4.618240
  0
VERTEX
  8
0
  6
CONTINUOUS
 10
4.693040
 20
4.659160
  0
VERTEX
  8
0
  6
CONTINUOUS
 10
4.999720
 20
4.733960
  0
VERTEX
  8
0
  6
CONTINUOUS
 10
5.113240
 20
4.759480
  0
VERTEX
  8
0
  6
CONTINUOUS
 10
5.232480
 20
4.782800
  0
VERTEX
  8
0
  6
CONTINUOUS
 10
5.356560
 20
4.803040
  0
VERTEX
  8
0
  6
CONTINUOUS
 10
5.420360
 20
4.811400
  0
VERTEX
  8
0
  6
CONTINUOUS
 10
5.485480
 20
4.818440
  0
VERTEX
  8
0
  6
CONTINUOUS
 10
5.551920
 20
4.824160
  0
VERTEX
  8
0
  6
CONTINUOUS
 10
5.619680
 20
4.828120
  0
VERTEX
  8
0
  6
CONTINUOUS
 10
5.688320
 20
4.830320
  0
VERTEX
  8
0
  6
CONTINUOUS
 10
5.758280
 20
4.830760
  0
VERTEX
  8
0
  6
CONTINUOUS
 10
5.865200
 20
4.826800
  0
VERTEX
  8
0
  6
CONTINUOUS
 10
5.974320
 20
4.818000
  0
VERTEX
  8
0
  6
CONTINUOUS
 10
6.085640
 20
4.803040
  0
VERTEX
  8
0
  6
CONTINUOUS
 10
6.161320
 20
4.789840
  0
VERTEX
  8
0
  6
CONTINUOUS
 10
6.276600
 20
4.763880
  0
VERTEX
  8
0
  6
CONTINUOUS
 10
6.394080
 20
4.730440
  0
VERTEX
  8
0
  6
CONTINUOUS
 10
6.473280
 20
4.704040
  0
VERTEX
  8
0
  6
CONTINUOUS
 10
6.593840
 20
4.656960
  0
VERTEX
  8
0
  6
CONTINUOUS
 10
6.716160
 20
4.601520
  0
VERTEX
  8
0
  6
CONTINUOUS
 10
6.798880
 20
4.559280
  0
VERTEX
  8
0
  6
CONTINUOUS
 10
6.882480
 20
4.512640
  0
VERTEX
  8
0
  6
CONTINUOUS
 10
6.924280
 20
4.487560
  0
VERTEX
  8
0
  6
CONTINUOUS
 10
7.411800
 20
3.976720
  0
VERTEX
  8
0
  6
CONTINUOUS
 10
7.109960
 20
3.688080
  0
VERTEX
  8
0
  6
CONTINUOUS
 10
7.101600
 20
3.688960
  0
VERTEX
  8
0
  6
CONTINUOUS
 10
4.107840
 20
3.688960
  0
VERTEX
  8
0
  6
CONTINUOUS
 10
4.115760
 20
3.689840
  0
SEQEND
  8
0
  0
SOLID
  8
0
 62
    15
 10
2.814240
 20
1.862960
 11
3.450480
 21
1.488960
 12
2.671680
 22
1.655720
 13
3.307920
 23
1.282160
  0
POLYLINE
  8
0
  6
CONTINUOUS
 66
     1
 40
0.000000
 41
0.000000
  0
VERTEX
  8
0
  6
CONTINUOUS
 10
2.814240
 20
1.862960
  0
VERTEX
  8
0
  6
CONTINUOUS
 10
3.450480
 20
1.488960
  0
VERTEX
  8
0
  6
CONTINUOUS
 10
3.307920
 20
1.282160
  0
VERTEX
  8
0
  6
CONTINUOUS
 10
2.671680
 20
1.655720
  0
VERTEX
  8
0
  6
CONTINUOUS
 10
2.814240
 20
1.862960
  0
SEQEND
  8
0
  0
SOLID
  8
0
 62
    15
 10
3.944600
 20
2.970440
 11
4.580840
 21
2.596440
 12
3.782240
 22
2.958120
 13
4.418480
 23
2.584120
  0
POLYLINE
  8
0
  6
CONTINUOUS
 66
     1
 40
0.000000
 41
0.000000
  0
VERTEX
  8
0
  6
CONTINUOUS
 10
3.944600
 20
2.970440
  0
VERTEX
  8
0
  6
CONTINUOUS
 10
4.580840
 20
2.596440
  0
VERTEX
  8
0
  6
CONTINUOUS
 10
4.418480
 20
2.584120
  0
VERTEX
  8
0
  6
CONTINUOUS
 10
3.782240
 20
2.958120
  0
VERTEX
  8
0
  6
CONTINUOUS
 10
3.944600
 20
2.970440
  0
SEQEND
  8
0
  0
SOLID
  8
0
 62
    15
 10
3.782240
 20
2.958120
 11
4.418480
 21
2.584120
 12
3.643200
 22
2.921600
 13
4.279440
 23
2.547600
  0
POLYLINE
  8
0
  6
CONTINUOUS
 66
     1
 40
0.000000
 41
0.000000
  0
VERTEX
  8
0
  6
CONTINUOUS
 10
3.782240
 20
2.958120
  0
VERTEX
  8
0
  6
CONTINUOUS
 10
4.418480
 20
2.584120
  0
VERTEX
  8
0
  6
CONTINUOUS
 10
4.279440
 20
2.547600
  0
VERTEX
  8
0
  6
CONTINUOUS
 10
3.643200
 20
2.921600
  0
VERTEX
  8
0
  6
CONTINUOUS
 10
3.782240
 20
2.958120
  0
SEQEND
  8
0
  0
SOLID
  8
0
 62
    15
 10
3.643200
 20
2.921600
 11
4.279440
 21
2.547600
 12
3.522640
 22
2.861760
 13
4.158440
 23
2.487760
  0
POLYLINE
  8
0
  6
CONTINUOUS
 66
     1
 40
0.000000
 41
0.000000
  0
VERTEX
  8
0
  6
CONTINUOUS
 10
3.643200
 20
2.921600
  0
VERTEX
  8
0
  6
CONTINUOUS
 10
4.279440
 20
2.547600
  0
VERTEX
  8
0
  6
CONTINUOUS
 10
4.158440
 20
2.487760
  0
VERTEX
  8
0
  6
CONTINUOUS
 10
3.522640
 20
2.861760
  0
VERTEX
  8
0
  6
CONTINUOUS
 10
3.643200
 20
2.921600
  0
SEQEND
  8
0
  0
SOLID
  8
0
 62
    15
 10
3.522640
 20
2.861760
 11
4.158440
 21
2.487760
 12
3.415720
 22
2.779040
 13
4.051960
 23
2.405480
  0
POLYLINE
  8
0
  6
CONTINUOUS
 66
     1
 40
0.000000
 41
0.000000
  0
VERTEX
  8
0
  6
CONTINUOUS
 10
3.522640
 20
2.861760
  0
VERTEX
  8
0
  6
CONTINUOUS
 10
4.158440
 20
2.487760
  0
VERTEX
  8
0
  6
CONTINUOUS
 10
4.051960
 20
2.405480
  0
VERTEX
  8
0
  6
CONTINUOUS
 10
3.415720
 20
2.779040
  0
VERTEX
  8
0
  6
CONTINUOUS
 10
3.522640
 20
2.861760
  0
SEQEND
  8
0
  0
SOLID
  8
0
 62
    15
 10
3.415720
 20
2.779040
 11
4.051960
 21
2.405480
 12
3.318920
 22
2.675200
 13
3.954720
 23
2.301640
  0
POLYLINE
  8
0
  6
CONTINUOUS
 66
     1
 40
0.000000
 41
0.000000
  0
VERTEX
  8
0
  6
CONTINUOUS
 10
3.415720
 20
2.779040
  0
VERTEX
  8
0
  6
CONTINUOUS
 10
4.051960
 20
2.405480
  0
VERTEX
  8
0
  6
CONTINUOUS
 10
3.954720
 20
2.301640
  0
VERTEX
  8
0
  6
CONTINUOUS
 10
3.318920
 20
2.675200
  0
VERTEX
  8
0
  6
CONTINUOUS
 10
3.415720
 20
2.779040
  0
SEQEND
  8
0
  0
SOLID
  8
0
 62
    15
 10
3.318920
 20
2.675200
 11
3.954720
 21
2.301640
 12
3.226520
 22
2.551120
 13
3.862760
 23
2.177120
  0
POLYLINE
  8
0
  6
CONTINUOUS
 66
     1
 40
0.000000
 41
0.000000
  0
VERTEX
  8
0
  6
CONTINUOUS
 10
3.318920
 20
2.675200
  0
VERTEX
  8
0
  6
CONTINUOUS
 10
3.954720
 20
2.301640
  0
VERTEX
  8
0
  6
CONTINUOUS
 10
3.862760
 20
2.177120
  0
VERTEX
  8
0
  6
CONTINUOUS
 10
3.226520
 20
2.551120
  0
VERTEX
  8
0
  6
CONTINUOUS
 10
3.318920
 20
2.675200
  0
SEQEND
  8
0
  0
SOLID
  8
0
 62
    15
 10
3.226520
 20
2.551120
 11
3.862760
 21
2.177120
 12
3.135000
 22
2.407240
 13
3.771240
 23
2.033240
  0
POLYLINE
  8
0
  6
CONTINUOUS
 66
     1
 40
0.000000
 41
0.000000
  0
VERTEX
  8
0
  6
CONTINUOUS
 10
3.226520
 20
2.551120
  0
VERTEX
  8
0
  6
CONTINUOUS
 10
3.862760
 20
2.177120
  0
VERTEX
  8
0
  6
CONTINUOUS
 10
3.771240
 20
2.033240
  0
VERTEX
  8
0
  6
CONTINUOUS
 10
3.135000
 20
2.407240
  0
VERTEX
  8
0
  6
CONTINUOUS
 10
3.226520
 20
2.551120
  0
SEQEND
  8
0
  0
SOLID
  8
0
 62
    15
 10
3.135000
 20
2.407240
 11
3.771240
 21
2.033240
 12
3.039520
 22
2.244440
 13
3.675760
 23
1.870880
  0
POLYLINE
  8
0
  6
CONTINUOUS
 66
     1
 40
0.000000
 41
0.000000
  0
VERTEX
  8
0
  6
CONTINUOUS
 10
3.135000
 20
2.407240
  0
VERTEX
  8
0
  6
CONTINUOUS
 10
3.771240
 20
2.033240
  0
VERTEX
  8
0
  6
CONTINUOUS
 10
3.675760
 20
1.870880
  0
VERTEX
  8
0
  6
CONTINUOUS
 10
3.039520
 20
2.244440
  0
VERTEX
  8
0
  6
CONTINUOUS
 10
3.135000
 20
2.407240
  0
SEQEND
  8
0
  0
SOLID
  8
0
 62
    15
 10
3.039520
 20
2.244440
 11
3.675760
 21
1.870880
 12
2.934800
 22
2.062280
 13
3.571040
 23
1.688280
  0
POLYLINE
  8
0
  6
CONTINUOUS
 66
     1
 40
0.000000
 41
0.000000
  0
VERTEX
  8
0
  6
CONTINUOUS
 10
3.039520
 20
2.244440
  0
VERTEX
  8
0
  6
CONTINUOUS
 10
3.675760
 20
1.870880
  0
VERTEX
  8
0
  6
CONTINUOUS
 10
3.571040
 20
1.688280
  0
VERTEX
  8
0
  6
CONTINUOUS
 10
2.934800
 20
2.062280
  0
VERTEX
  8
0
  6
CONTINUOUS
 10
3.039520
 20
2.244440
  0
SEQEND
  8
0
  0
SOLID
  8
0
 62
    15
 10
2.934800
 20
2.062280
 11
3.571040
 21
1.688280
 12
2.814240
 22
1.862960
 13
3.450480
 23
1.488960
  0
POLYLINE
  8
0
  6
CONTINUOUS
 66
     1
 40
0.000000
 41
0.000000
  0
VERTEX
  8
0
  6
CONTINUOUS
 10
2.934800
 20
2.062280
  0
VERTEX
  8
0
  6
CONTINUOUS
 10
3.571040
 20
1.688280
  0
VERTEX
  8
0
  6
CONTINUOUS
 10
3.450480
 20
1.488960
  0
VERTEX
  8
0
  6
CONTINUOUS
 10
2.814240
 20
1.862960
  0
VERTEX
  8
0
  6
CONTINUOUS
 10
2.934800
 20
2.062280
  0
SEQEND
  8
0
  0
SOLID
  8
0
 62
    15
 10
3.944600
 20
3.408240
 11
4.580840
 21
3.034240
 12
3.944600
 22
2.970440
 13
4.580840
 23
2.596440
  0
POLYLINE
  8
0
  6
CONTINUOUS
 66
     1
 40
0.000000
 41
0.000000
  0
VERTEX
  8
0
  6
CONTINUOUS
 10
3.944600
 20
3.408240
  0
VERTEX
  8
0
  6
CONTINUOUS
 10
4.580840
 20
3.034240
  0
VERTEX
  8
0
  6
CONTINUOUS
 10
4.580840
 20
2.596440
  0
VERTEX
  8
0
  6
CONTINUOUS
 10
3.944600
 20
2.970440
  0
VERTEX
  8
0
  6
CONTINUOUS
 10
3.944600
 20
3.408240
  0
SEQEND
  8
0
  0
SOLID
  8
0
 62
    15
 10
2.671680
 20
1.655720
 11
3.307920
 21
1.282160
 12
2.500520
 22
1.448920
 13
3.136760
 23
1.074920
  0
POLYLINE
  8
0
  6
CONTINUOUS
 66
     1
 40
0.000000
 41
0.000000
  0
VERTEX
  8
0
  6
CONTINUOUS
 10
2.671680
 20
1.655720
  0
VERTEX
  8
0
  6
CONTINUOUS
 10
3.307920
 20
1.282160
  0
VERTEX
  8
0
  6
CONTINUOUS
 10
3.136760
 20
1.074920
  0
VERTEX
  8
0
  6
CONTINUOUS
 10
2.500520
 20
1.448920
  0
VERTEX
  8
0
  6
CONTINUOUS
 10
2.671680
 20
1.655720
  0
SEQEND
  8
0
  0
SOLID
  8
0
 62
    15
 10
2.500520
 20
1.448920
 11
3.136760
 21
1.074920
 12
2.294160
 22
1.250920
 13
2.929960
 23
0.876920
  0
POLYLINE
  8
0
  6
CONTINUOUS
 66
     1
 40
0.000000
 41
0.000000
  0
VERTEX
  8
0
  6
CONTINUOUS
 10
2.500520
 20
1.448920
  0
VERTEX
  8
0
  6
CONTINUOUS
 10
3.136760
 20
1.074920
  0
VERTEX
  8
0
  6
CONTINUOUS
 10
2.929960
 20
0.876920
  0
VERTEX
  8
0
  6
CONTINUOUS
 10
2.294160
 20
1.250920
  0
VERTEX
  8
0
  6
CONTINUOUS
 10
2.500520
 20
1.448920
  0
SEQEND
  8
0
  0
SOLID
  8
0
 62
    15
 10
2.294160
 20
1.250920
 11
2.929960
 21
0.876920
 12
2.175360
 22
1.157640
 13
2.811600
 23
0.783640
  0
POLYLINE
  8
0
  6
CONTINUOUS
 66
     1
 40
0.000000
 41
0.000000
  0
VERTEX
  8
0
  6
CONTINUOUS
 10
2.294160
 20
1.250920
  0
VERTEX
  8
0
  6
CONTINUOUS
 10
2.929960
 20
0.876920
  0
VERTEX
  8
0
  6
CONTINUOUS
 10
2.811600
 20
0.783640
  0
VERTEX
  8
0
  6
CONTINUOUS
 10
2.175360
 20
1.157640
  0
VERTEX
  8
0
  6
CONTINUOUS
 10
2.294160
 20
1.250920
  0
SEQEND
  8
0
  0
SOLID
  8
0
 62
    15
 10
2.175360
 20
1.157640
 11
2.811600
 21
0.783640
 12
2.046000
 22
1.069640
 13
2.681800
 23
0.696080
  0
POLYLINE
  8
0
  6
CONTINUOUS
 66
     1
 40
0.000000
 41
0.000000
  0
VERTEX
  8
0
  6
CONTINUOUS
 10
2.175360
 20
1.157640
  0
VERTEX
  8
0
  6
CONTINUOUS
 10
2.811600
 20
0.783640
  0
VERTEX
  8
0
  6
CONTINUOUS
 10
2.681800
 20
0.696080
  0
VERTEX
  8
0
  6
CONTINUOUS
 10
2.046000
 20
1.069640
  0
VERTEX
  8
0
  6
CONTINUOUS
 10
2.175360
 20
1.157640
  0
SEQEND
  8
0
  0
SOLID
  8
0
 62
    15
 10
2.046000
 20
1.069640
 11
2.681800
 21
0.696080
 12
1.903880
 22
0.988240
 13
2.540120
 23
0.614240
  0
POLYLINE
  8
0
  6
CONTINUOUS
 66
     1
 40
0.000000
 41
0.000000
  0
VERTEX
  8
0
  6
CONTINUOUS
 10
2.046000
 20
1.069640
  0
VERTEX
  8
0
  6
CONTINUOUS
 10
2.681800
 20
0.696080
  0
VERTEX
  8
0
  6
CONTINUOUS
 10
2.540120
 20
0.614240
  0
VERTEX
  8
0
  6
CONTINUOUS
 10
1.903880
 20
0.988240
  0
VERTEX
  8
0
  6
CONTINUOUS
 10
2.046000
 20
1.069640
  0
SEQEND
  8
0
  0
SOLID
  8
0
 62
    15
 10
1.903880
 20
0.988240
 11
2.540120
 21
0.614240
 12
1.749440
 22
0.914320
 13
2.385680
 23
0.540320
  0
POLYLINE
  8
0
  6
CONTINUOUS
 66
     1
 40
0.000000
 41
0.000000
  0
VERTEX
  8
0
  6
CONTINUOUS
 10
1.903880
 20
0.988240
  0
VERTEX
  8
0
  6
CONTINUOUS
 10
2.540120
 20
0.614240
  0
VERTEX
  8
0
  6
CONTINUOUS
 10
2.385680
 20
0.540320
  0
VERTEX
  8
0
  6
CONTINUOUS
 10
1.749440
 20
0.914320
  0
VERTEX
  8
0
  6
CONTINUOUS
 10
1.903880
 20
0.988240
  0
SEQEND
  8
0
  0
SOLID
  8
0
 62
    15
 10
1.749440
 20
0.914320
 11
2.385680
 21
0.540320
 12
1.581360
 22
0.848760
 13
2.217600
 23
0.474760
  0
POLYLINE
  8
0
  6
CONTINUOUS
 66
     1
 40
0.000000
 41
0.000000
  0
VERTEX
  8
0
  6
CONTINUOUS
 10
1.749440
 20
0.914320
  0
VERTEX
  8
0
  6
CONTINUOUS
 10
2.385680
 20
0.540320
  0
VERTEX
  8
0
  6
CONTINUOUS
 10
2.217600
 20
0.474760
  0
VERTEX
  8
0
  6
CONTINUOUS
 10
1.581360
 20
0.848760
  0
VERTEX
  8
0
  6
CONTINUOUS
 10
1.749440
 20
0.914320
  0
SEQEND
  8
0
  0
SOLID
  8
0
 62
    15
 10
1.581360
 20
0.848760
 11
2.217600
 21
0.474760
 12
1.398760
 22
0.792440
 13
2.034560
 23
0.418440
  0
POLYLINE
  8
0
  6
CONTINUOUS
 66
     1
 40
0.000000
 41
0.000000
  0
VERTEX
  8
0
  6
CONTINUOUS
 10
1.581360
 20
0.848760
  0
VERTEX
  8
0
  6
CONTINUOUS
 10
2.217600
 20
0.474760
  0
VERTEX
  8
0
  6
CONTINUOUS
 10
2.034560
 20
0.418440
  0
VERTEX
  8
0
  6
CONTINUOUS
 10
1.398760
 20
0.792440
  0
VERTEX
  8
0
  6
CONTINUOUS
 10
1.581360
 20
0.848760
  0
SEQEND
  8
0
  0
SOLID
  8
0
 62
    15
 10
1.398760
 20
0.792440
 11
2.034560
 21
0.418440
 12
0.692560
 22
0.792440
 13
1.328800
 23
0.418880
  0
POLYLINE
  8
0
  6
CONTINUOUS
 66
     1
 40
0.000000
 41
0.000000
  0
VERTEX
  8
0
  6
CONTINUOUS
 10
1.398760
 20
0.792440
  0
VERTEX
  8
0
  6
CONTINUOUS
 10
2.034560
 20
0.418440
  0
VERTEX
  8
0
  6
CONTINUOUS
 10
1.328800
 20
0.418880
  0
VERTEX
  8
0
  6
CONTINUOUS
 10
0.692560
 20
0.792440
  0
VERTEX
  8
0
  6
CONTINUOUS
 10
1.398760
 20
0.792440
  0
SEQEND
  8
0
  0
SOLID
  8
0
 62
    15
 10
2.767160
 20
3.380520
 11
3.403400
 21
3.006520
 12
2.762320
 22
3.373920
 13
3.398560
 23
2.999920
  0
POLYLINE
  8
0
  6
CONTINUOUS
 66
     1
 40
0.000000
 41
0.000000
  0
VERTEX
  8
0
  6
CONTINUOUS
 10
2.767160
 20
3.380520
  0
VERTEX
  8
0
  6
CONTINUOUS
 10
3.403400
 20
3.006520
  0
VERTEX
  8
0
  6
CONTINUOUS
 10
3.398560
 20
2.999920
  0
VERTEX
  8
0
  6
CONTINUOUS
 10
2.762320
 20
3.373920
  0
VERTEX
  8
0
  6
CONTINUOUS
 10
2.767160
 20
3.380520
  0
SEQEND
  8
0
  0
POLYLINE
  8
0
  6
CONTINUOUS
 66
     1
 40
0.000000
 41
0.000000
  0
VERTEX
  8
0
  6
CONTINUOUS
 10
2.762320
 20
3.373920
  0
VERTEX
  8
0
  6
CONTINUOUS
 10
2.779920
 20
3.393720
  0
VERTEX
  8
0
  6
CONTINUOUS
 10
3.942400
 20
3.408680
  0
VERTEX
  8
0
  6
CONTINUOUS
 10
3.944600
 20
3.408240
  0
VERTEX
  8
0
  6
CONTINUOUS
 10
3.944600
 20
2.970440
  0
VERTEX
  8
0
  6
CONTINUOUS
 10
3.782240
 20
2.958120
  0
VERTEX
  8
0
  6
CONTINUOUS
 10
3.643200
 20
2.921600
  0
VERTEX
  8
0
  6
CONTINUOUS
 10
3.522640
 20
2.861760
  0
VERTEX
  8
0
  6
CONTINUOUS
 10
3.415720
 20
2.779040
  0
VERTEX
  8
0
  6
CONTINUOUS
 10
3.318920
 20
2.675200
  0
VERTEX
  8
0
  6
CONTINUOUS
 10
3.226520
 20
2.551120
  0
VERTEX
  8
0
  6
CONTINUOUS
 10
3.135000
 20
2.407240
  0
VERTEX
  8
0
  6
CONTINUOUS
 10
3.039520
 20
2.244440
  0
VERTEX
  8
0
  6
CONTINUOUS
 10
2.934800
 20
2.062280
  0
VERTEX
  8
0
  6
CONTINUOUS
 10
2.814240
 20
1.862960
  0
VERTEX
  8
0
  6
CONTINUOUS
 10
2.671680
 20
1.655720
  0
VERTEX
  8
0
  6
CONTINUOUS
 10
2.500520
 20
1.448920
  0
VERTEX
  8
0
  6
CONTINUOUS
 10
2.294160
 20
1.250920
  0
VERTEX
  8
0
  6
CONTINUOUS
 10
2.175360
 20
1.157640
  0
VERTEX
  8
0
  6
CONTINUOUS
 10
2.046000
 20
1.069640
  0
VERTEX
  8
0
  6
CONTINUOUS
 10
1.903880
 20
0.988240
  0
VERTEX
  8
0
  6
CONTINUOUS
 10
1.749440
 20
0.914320
  0
VERTEX
  8
0
  6
CONTINUOUS
 10
1.581360
 20
0.848760
  0
VERTEX
  8
0
  6
CONTINUOUS
 10
1.398760
 20
0.792440
  0
VERTEX
  8
0
  6
CONTINUOUS
 10
0.692560
 20
0.792440
  0
VERTEX
  8
0
  6
CONTINUOUS
 10
0.692560
 20
1.210440
  0
VERTEX
  8
0
  6
CONTINUOUS
 10
0.698720
 20
1.215720
  0
VERTEX
  8
0
  6
CONTINUOUS
 10
2.767160
 20
3.380520
  0
VERTEX
  8
0
  6
CONTINUOUS
 10
2.762320
 20
3.373920
  0
SEQEND
  8
0
  0
TEXT
  8
0
 10
2.946680
 20
0.606320
 40
0.138044
  1
BA  885
 41
1.000000
  7
SN0
 71
     0
 72
     5
 11
3.536567
 21
0.606320
  0
TEXT
  8
0
 10
2.717000
 20
0.414480
 40
0.138044
  1
1-1/8" x 4-1/8"
 41
1.000000
  7
SN0
 71
     0
 72
     5
 11
3.765052
 21
0.414480
  0
ENDSEC
  0
EOF
