  0
SECTION
  2
HEADER
  9
$ACADVER
  1
AC1006
  9
$EXTMIN
 10
1.368400
 20
1.034000
  9
$EXTMAX
 10
7.131080
 20
9.958960
  9
$LTSCALE
 40
0.044000
  9
$PDMODE
 70
    35
  9
$PDSIZE
 40
0.035200
  0
ENDSEC
  0
SECTION
  2
TABLES
  0
TABLE
  2
LTYPE
 70
     9
  0
LTYPE
  2
CONTINUOUS
 70
    64
  3
Solid line
 72
    65
 73
     0
 40
0.000000
  0
LTYPE
  2
DASHED
 70
    64
  3
__ __ __ __ __ __ __ __ __ __ __ __ __ __ __
 72
    65
 73
     2
 40
0.000330
 49
0.000220
 49
-0.000110
  0
LTYPE
  2
HIDDEN
 70
    64
  3
 _ _ _ _ _ _ _ _ _ _ _ _ _ _ _ _ _ _ _ _ _ _
 72
    65
 73
     2
 40
0.000165
 49
0.000110
 49
-0.000055
  0
LTYPE
  2
CENTER
 70
    64
  3
____ _ ____ _ ____ _ ____ _ ____ _ ____ _ ____
 72
    65
 73
     4
 40
0.000880
 49
0.000550
 49
-0.000110
 49
0.000110
 49
-0.000110
  0
LTYPE
  2
PHANTOM
 70
    64
  3
_____ _ _ _____ _ _ _____ _ _ _____ _ _ ____
 72
    65
 73
     6
 40
0.001100
 49
0.000550
 49
-0.000110
 49
0.000110
 49
-0.000110
 49
0.000110
 49
-0.000110
  0
LTYPE
  2
DOT
 70
    64
  3
...............................................
 72
    65
 73
     2
 40
0.000110
 49
0.000000
 49
-0.000110
  0
LTYPE
  2
DASHDOT
 70
    64
  3
__ . __ . __ . __ . __ . __ . __ . __ . __ . __
 72
    65
 73
     4
 40
0.000440
 49
0.000220
 49
-0.000110
 49
0.000000
 49
-0.000110
  0
LTYPE
  2
BORDER
 70
    64
  3
__ __ . __ __ . __ __ . __ __ . __ __ . __ __
 72
    65
 73
     6
 40
0.000770
 49
0.000220
 49
-0.000110
 49
0.000220
 49
-0.000110
 49
0.000000
 49
-0.000110
  0
LTYPE
  2
DIVIDE
 70
    64
  3
__ . . __ . . __ . . __ . . __ . . __ . . __
 72
    65
 73
     6
 40
0.000550
 49
0.000220
 49
-0.000110
 49
0.000000
 49
-0.000110
 49
0.000000
 49
-0.000110
  0
LTYPE
  2
DOTDOT
 70
    64
  3
 . .  . .  . .  . .  . .  . . 
 72
    65
 73
     5
 40
0.000242
 49
-0.000110
 49
0.000000
 49
-0.000110
 49
0.000000
 49
-0.000110
  0
ENDTAB
  0
TABLE
  2
STYLE
 70
     2
  0
STYLE
 70
     0
  2
SN0
 40
0.000000
 41
0.000440
 50
0.000000
 71
     0
 42
0.000000
  3
ROMAND
  0
STYLE
 70
    68
  2
SV0
 40
0.000000
 41
0.000440
 50
0.000000
 71
     0
 42
0.000000
  3
ROMAND
  0
ENDTAB
  0
TABLE
  2
LAYER
 70
     3
  0
LAYER
  2
FOREGROUND
 70
    64
 62
     7
  6
CONTINUOUS
  0
LAYER
  2
BACKGROUND
 70
    65
 62
    -7
  6
CONTINUOUS
  0
LAYER
  2
0
 70
    64
 62
     7
  6
CONTINUOUS
  0
ENDTAB
  0
ENDSEC
  0
SECTION
  2
ENTITIES
  0
POLYLINE
  8
FOREGROUND
  6
CONTINUOUS
 66
     1
 40
0.000000
 41
0.000000
  0
VERTEX
  8
FOREGROUND
  6
CONTINUOUS
 10
0.000000
 20
10.992960
  0
VERTEX
  8
FOREGROUND
  6
CONTINUOUS
 10
8.499920
 20
10.992960
  0
VERTEX
  8
FOREGROUND
  6
CONTINUOUS
 10
8.499920
 20
-0.007040
  0
VERTEX
  8
FOREGROUND
  6
CONTINUOUS
 10
0.000000
 20
-0.007040
  0
VERTEX
  8
FOREGROUND
  6
CONTINUOUS
 10
0.000000
 20
10.992960
  0
SEQEND
  8
0
  0
POLYLINE
  8
FOREGROUND
  6
CONTINUOUS
 66
     1
 40
0.000000
 41
0.000000
  0
VERTEX
  8
FOREGROUND
  6
CONTINUOUS
 10
0.000000
 20
10.992960
  0
VERTEX
  8
FOREGROUND
  6
CONTINUOUS
 10
8.499920
 20
10.992960
  0
VERTEX
  8
FOREGROUND
  6
CONTINUOUS
 10
8.499920
 20
-0.007040
  0
VERTEX
  8
FOREGROUND
  6
CONTINUOUS
 10
0.000000
 20
-0.007040
  0
VERTEX
  8
FOREGROUND
  6
CONTINUOUS
 10
0.000000
 20
10.992960
  0
SEQEND
  8
0
  0
SOLID
  8
0
 62
    15
 10
4.772240
 20
3.952080
 11
5.413320
 21
4.316840
 12
4.705800
 22
3.837240
 13
5.346880
 23
4.202440
  0
POLYLINE
  8
0
  6
CONTINUOUS
 66
     1
 40
0.000000
 41
0.000000
  0
VERTEX
  8
0
  6
CONTINUOUS
 10
4.772240
 20
3.952080
  0
VERTEX
  8
0
  6
CONTINUOUS
 10
5.413320
 20
4.316840
  0
VERTEX
  8
0
  6
CONTINUOUS
 10
5.346880
 20
4.202440
  0
VERTEX
  8
0
  6
CONTINUOUS
 10
4.705800
 20
3.837240
  0
VERTEX
  8
0
  6
CONTINUOUS
 10
4.772240
 20
3.952080
  0
SEQEND
  8
0
  0
SOLID
  8
0
 62
    15
 10
2.749560
 20
6.817800
 11
3.390640
 21
7.183000
 12
5.053400
 22
6.817800
 13
5.694040
 23
7.183000
  0
POLYLINE
  8
0
  6
CONTINUOUS
 66
     1
 40
0.000000
 41
0.000000
  0
VERTEX
  8
0
  6
CONTINUOUS
 10
2.749560
 20
6.817800
  0
VERTEX
  8
0
  6
CONTINUOUS
 10
3.390640
 20
7.183000
  0
VERTEX
  8
0
  6
CONTINUOUS
 10
5.694040
 20
7.183000
  0
VERTEX
  8
0
  6
CONTINUOUS
 10
5.053400
 20
6.817800
  0
VERTEX
  8
0
  6
CONTINUOUS
 10
2.749560
 20
6.817800
  0
SEQEND
  8
0
  0
SOLID
  8
0
 62
    15
 10
5.131720
 20
6.656760
 11
5.772360
 21
7.021520
 12
5.189800
 22
6.482080
 13
5.830880
 23
6.847280
  0
POLYLINE
  8
0
  6
CONTINUOUS
 66
     1
 40
0.000000
 41
0.000000
  0
VERTEX
  8
0
  6
CONTINUOUS
 10
5.131720
 20
6.656760
  0
VERTEX
  8
0
  6
CONTINUOUS
 10
5.772360
 20
7.021520
  0
VERTEX
  8
0
  6
CONTINUOUS
 10
5.830880
 20
6.847280
  0
VERTEX
  8
0
  6
CONTINUOUS
 10
5.189800
 20
6.482080
  0
VERTEX
  8
0
  6
CONTINUOUS
 10
5.131720
 20
6.656760
  0
SEQEND
  8
0
  0
SOLID
  8
0
 62
    15
 10
5.189800
 20
6.482080
 11
5.830880
 21
6.847280
 12
5.229840
 22
6.297280
 13
5.870920
 23
6.662040
  0
POLYLINE
  8
0
  6
CONTINUOUS
 66
     1
 40
0.000000
 41
0.000000
  0
VERTEX
  8
0
  6
CONTINUOUS
 10
5.189800
 20
6.482080
  0
VERTEX
  8
0
  6
CONTINUOUS
 10
5.830880
 20
6.847280
  0
VERTEX
  8
0
  6
CONTINUOUS
 10
5.870920
 20
6.662040
  0
VERTEX
  8
0
  6
CONTINUOUS
 10
5.229840
 20
6.297280
  0
VERTEX
  8
0
  6
CONTINUOUS
 10
5.189800
 20
6.482080
  0
SEQEND
  8
0
  0
SOLID
  8
0
 62
    15
 10
5.229840
 20
6.297280
 11
5.870920
 21
6.662040
 12
5.253600
 22
6.104120
 13
5.894240
 23
6.468880
  0
POLYLINE
  8
0
  6
CONTINUOUS
 66
     1
 40
0.000000
 41
0.000000
  0
VERTEX
  8
0
  6
CONTINUOUS
 10
5.229840
 20
6.297280
  0
VERTEX
  8
0
  6
CONTINUOUS
 10
5.870920
 20
6.662040
  0
VERTEX
  8
0
  6
CONTINUOUS
 10
5.894240
 20
6.468880
  0
VERTEX
  8
0
  6
CONTINUOUS
 10
5.253600
 20
6.104120
  0
VERTEX
  8
0
  6
CONTINUOUS
 10
5.229840
 20
6.297280
  0
SEQEND
  8
0
  0
SOLID
  8
0
 62
    15
 10
5.253600
 20
6.104120
 11
5.894240
 21
6.468880
 12
5.261520
 22
5.904800
 13
5.902600
 23
6.269560
  0
POLYLINE
  8
0
  6
CONTINUOUS
 66
     1
 40
0.000000
 41
0.000000
  0
VERTEX
  8
0
  6
CONTINUOUS
 10
5.253600
 20
6.104120
  0
VERTEX
  8
0
  6
CONTINUOUS
 10
5.894240
 20
6.468880
  0
VERTEX
  8
0
  6
CONTINUOUS
 10
5.902600
 20
6.269560
  0
VERTEX
  8
0
  6
CONTINUOUS
 10
5.261520
 20
5.904800
  0
VERTEX
  8
0
  6
CONTINUOUS
 10
5.253600
 20
6.104120
  0
SEQEND
  8
0
  0
SOLID
  8
0
 62
    15
 10
5.261520
 20
5.904800
 11
5.902600
 21
6.269560
 12
5.256240
 22
5.701520
 13
5.896880
 23
6.066720
  0
POLYLINE
  8
0
  6
CONTINUOUS
 66
     1
 40
0.000000
 41
0.000000
  0
VERTEX
  8
0
  6
CONTINUOUS
 10
5.261520
 20
5.904800
  0
VERTEX
  8
0
  6
CONTINUOUS
 10
5.902600
 20
6.269560
  0
VERTEX
  8
0
  6
CONTINUOUS
 10
5.896880
 20
6.066720
  0
VERTEX
  8
0
  6
CONTINUOUS
 10
5.256240
 20
5.701520
  0
VERTEX
  8
0
  6
CONTINUOUS
 10
5.261520
 20
5.904800
  0
SEQEND
  8
0
  0
SOLID
  8
0
 62
    15
 10
5.256240
 20
5.701520
 11
5.896880
 21
6.066720
 12
5.209600
 22
5.292760
 13
5.850680
 23
5.657960
  0
POLYLINE
  8
0
  6
CONTINUOUS
 66
     1
 40
0.000000
 41
0.000000
  0
VERTEX
  8
0
  6
CONTINUOUS
 10
5.256240
 20
5.701520
  0
VERTEX
  8
0
  6
CONTINUOUS
 10
5.896880
 20
6.066720
  0
VERTEX
  8
0
  6
CONTINUOUS
 10
5.850680
 20
5.657960
  0
VERTEX
  8
0
  6
CONTINUOUS
 10
5.209600
 20
5.292760
  0
VERTEX
  8
0
  6
CONTINUOUS
 10
5.256240
 20
5.701520
  0
SEQEND
  8
0
  0
SOLID
  8
0
 62
    15
 10
5.209600
 20
5.292760
 11
5.850680
 21
5.657960
 12
5.126440
 22
4.895880
 13
5.767080
 23
5.261080
  0
POLYLINE
  8
0
  6
CONTINUOUS
 66
     1
 40
0.000000
 41
0.000000
  0
VERTEX
  8
0
  6
CONTINUOUS
 10
5.209600
 20
5.292760
  0
VERTEX
  8
0
  6
CONTINUOUS
 10
5.850680
 20
5.657960
  0
VERTEX
  8
0
  6
CONTINUOUS
 10
5.767080
 20
5.261080
  0
VERTEX
  8
0
  6
CONTINUOUS
 10
5.126440
 20
4.895880
  0
VERTEX
  8
0
  6
CONTINUOUS
 10
5.209600
 20
5.292760
  0
SEQEND
  8
0
  0
SOLID
  8
0
 62
    15
 10
5.126440
 20
4.895880
 11
5.767080
 21
5.261080
 12
5.017760
 22
4.528040
 13
5.658400
 23
4.893240
  0
POLYLINE
  8
0
  6
CONTINUOUS
 66
     1
 40
0.000000
 41
0.000000
  0
VERTEX
  8
0
  6
CONTINUOUS
 10
5.126440
 20
4.895880
  0
VERTEX
  8
0
  6
CONTINUOUS
 10
5.767080
 20
5.261080
  0
VERTEX
  8
0
  6
CONTINUOUS
 10
5.658400
 20
4.893240
  0
VERTEX
  8
0
  6
CONTINUOUS
 10
5.017760
 20
4.528040
  0
VERTEX
  8
0
  6
CONTINUOUS
 10
5.126440
 20
4.895880
  0
SEQEND
  8
0
  0
SOLID
  8
0
 62
    15
 10
5.017760
 20
4.528040
 11
5.658400
 21
4.893240
 12
4.957480
 22
4.360840
 13
5.598120
 23
4.726040
  0
POLYLINE
  8
0
  6
CONTINUOUS
 66
     1
 40
0.000000
 41
0.000000
  0
VERTEX
  8
0
  6
CONTINUOUS
 10
5.017760
 20
4.528040
  0
VERTEX
  8
0
  6
CONTINUOUS
 10
5.658400
 20
4.893240
  0
VERTEX
  8
0
  6
CONTINUOUS
 10
5.598120
 20
4.726040
  0
VERTEX
  8
0
  6
CONTINUOUS
 10
4.957480
 20
4.360840
  0
VERTEX
  8
0
  6
CONTINUOUS
 10
5.017760
 20
4.528040
  0
SEQEND
  8
0
  0
SOLID
  8
0
 62
    15
 10
4.957480
 20
4.360840
 11
5.598120
 21
4.726040
 12
4.895440
 22
4.207720
 13
5.536520
 23
4.572480
  0
POLYLINE
  8
0
  6
CONTINUOUS
 66
     1
 40
0.000000
 41
0.000000
  0
VERTEX
  8
0
  6
CONTINUOUS
 10
4.957480
 20
4.360840
  0
VERTEX
  8
0
  6
CONTINUOUS
 10
5.598120
 20
4.726040
  0
VERTEX
  8
0
  6
CONTINUOUS
 10
5.536520
 20
4.572480
  0
VERTEX
  8
0
  6
CONTINUOUS
 10
4.895440
 20
4.207720
  0
VERTEX
  8
0
  6
CONTINUOUS
 10
4.957480
 20
4.360840
  0
SEQEND
  8
0
  0
SOLID
  8
0
 62
    15
 10
4.895440
 20
4.207720
 11
5.536520
 21
4.572480
 12
4.833400
 22
4.070440
 13
5.474040
 23
4.435640
  0
POLYLINE
  8
0
  6
CONTINUOUS
 66
     1
 40
0.000000
 41
0.000000
  0
VERTEX
  8
0
  6
CONTINUOUS
 10
4.895440
 20
4.207720
  0
VERTEX
  8
0
  6
CONTINUOUS
 10
5.536520
 20
4.572480
  0
VERTEX
  8
0
  6
CONTINUOUS
 10
5.474040
 20
4.435640
  0
VERTEX
  8
0
  6
CONTINUOUS
 10
4.833400
 20
4.070440
  0
VERTEX
  8
0
  6
CONTINUOUS
 10
4.895440
 20
4.207720
  0
SEQEND
  8
0
  0
SOLID
  8
0
 62
    15
 10
4.833400
 20
4.070440
 11
5.474040
 21
4.435640
 12
4.772240
 22
3.952080
 13
5.413320
 23
4.316840
  0
POLYLINE
  8
0
  6
CONTINUOUS
 66
     1
 40
0.000000
 41
0.000000
  0
VERTEX
  8
0
  6
CONTINUOUS
 10
4.833400
 20
4.070440
  0
VERTEX
  8
0
  6
CONTINUOUS
 10
5.474040
 20
4.435640
  0
VERTEX
  8
0
  6
CONTINUOUS
 10
5.413320
 20
4.316840
  0
VERTEX
  8
0
  6
CONTINUOUS
 10
4.772240
 20
3.952080
  0
VERTEX
  8
0
  6
CONTINUOUS
 10
4.833400
 20
4.070440
  0
SEQEND
  8
0
  0
SOLID
  8
0
 62
    15
 10
5.053400
 20
6.818240
 11
5.694480
 21
7.183440
 12
5.131720
 22
6.656760
 13
5.772360
 23
7.021520
  0
POLYLINE
  8
0
  6
CONTINUOUS
 66
     1
 40
0.000000
 41
0.000000
  0
VERTEX
  8
0
  6
CONTINUOUS
 10
5.053400
 20
6.818240
  0
VERTEX
  8
0
  6
CONTINUOUS
 10
5.694480
 20
7.183440
  0
VERTEX
  8
0
  6
CONTINUOUS
 10
5.772360
 20
7.021520
  0
VERTEX
  8
0
  6
CONTINUOUS
 10
5.131720
 20
6.656760
  0
VERTEX
  8
0
  6
CONTINUOUS
 10
5.053400
 20
6.818240
  0
SEQEND
  8
0
  0
SOLID
  8
0
 62
    15
 10
4.705800
 20
3.837240
 11
5.346880
 21
4.202440
 12
4.628360
 22
3.710520
 13
5.269440
 23
4.075720
  0
POLYLINE
  8
0
  6
CONTINUOUS
 66
     1
 40
0.000000
 41
0.000000
  0
VERTEX
  8
0
  6
CONTINUOUS
 10
4.705800
 20
3.837240
  0
VERTEX
  8
0
  6
CONTINUOUS
 10
5.346880
 20
4.202440
  0
VERTEX
  8
0
  6
CONTINUOUS
 10
5.269440
 20
4.075720
  0
VERTEX
  8
0
  6
CONTINUOUS
 10
4.628360
 20
3.710520
  0
VERTEX
  8
0
  6
CONTINUOUS
 10
4.705800
 20
3.837240
  0
SEQEND
  8
0
  0
SOLID
  8
0
 62
    15
 10
4.628360
 20
3.710520
 11
5.269440
 21
4.075720
 12
4.451480
 22
3.425400
 13
5.092560
 23
3.790160
  0
POLYLINE
  8
0
  6
CONTINUOUS
 66
     1
 40
0.000000
 41
0.000000
  0
VERTEX
  8
0
  6
CONTINUOUS
 10
4.628360
 20
3.710520
  0
VERTEX
  8
0
  6
CONTINUOUS
 10
5.269440
 20
4.075720
  0
VERTEX
  8
0
  6
CONTINUOUS
 10
5.092560
 20
3.790160
  0
VERTEX
  8
0
  6
CONTINUOUS
 10
4.451480
 20
3.425400
  0
VERTEX
  8
0
  6
CONTINUOUS
 10
4.628360
 20
3.710520
  0
SEQEND
  8
0
  0
SOLID
  8
0
 62
    15
 10
4.451480
 20
3.425400
 11
5.092560
 21
3.790160
 12
4.262280
 22
3.103760
 13
4.902920
 23
3.468960
  0
POLYLINE
  8
0
  6
CONTINUOUS
 66
     1
 40
0.000000
 41
0.000000
  0
VERTEX
  8
0
  6
CONTINUOUS
 10
4.451480
 20
3.425400
  0
VERTEX
  8
0
  6
CONTINUOUS
 10
5.092560
 20
3.790160
  0
VERTEX
  8
0
  6
CONTINUOUS
 10
4.902920
 20
3.468960
  0
VERTEX
  8
0
  6
CONTINUOUS
 10
4.262280
 20
3.103760
  0
VERTEX
  8
0
  6
CONTINUOUS
 10
4.451480
 20
3.425400
  0
SEQEND
  8
0
  0
SOLID
  8
0
 62
    15
 10
4.262280
 20
3.103760
 11
4.902920
 21
3.468960
 12
4.081440
 22
2.753520
 13
4.722080
 23
3.118720
  0
POLYLINE
  8
0
  6
CONTINUOUS
 66
     1
 40
0.000000
 41
0.000000
  0
VERTEX
  8
0
  6
CONTINUOUS
 10
4.262280
 20
3.103760
  0
VERTEX
  8
0
  6
CONTINUOUS
 10
4.902920
 20
3.468960
  0
VERTEX
  8
0
  6
CONTINUOUS
 10
4.722080
 20
3.118720
  0
VERTEX
  8
0
  6
CONTINUOUS
 10
4.081440
 20
2.753520
  0
VERTEX
  8
0
  6
CONTINUOUS
 10
4.262280
 20
3.103760
  0
SEQEND
  8
0
  0
SOLID
  8
0
 62
    15
 10
4.081440
 20
2.753520
 11
4.722080
 21
3.118720
 12
3.929640
 22
2.382600
 13
4.570720
 23
2.747360
  0
POLYLINE
  8
0
  6
CONTINUOUS
 66
     1
 40
0.000000
 41
0.000000
  0
VERTEX
  8
0
  6
CONTINUOUS
 10
4.081440
 20
2.753520
  0
VERTEX
  8
0
  6
CONTINUOUS
 10
4.722080
 20
3.118720
  0
VERTEX
  8
0
  6
CONTINUOUS
 10
4.570720
 20
2.747360
  0
VERTEX
  8
0
  6
CONTINUOUS
 10
3.929640
 20
2.382600
  0
VERTEX
  8
0
  6
CONTINUOUS
 10
4.081440
 20
2.753520
  0
SEQEND
  8
0
  0
SOLID
  8
0
 62
    15
 10
3.929640
 20
2.382600
 11
4.570720
 21
2.747360
 12
3.871560
 22
2.191640
 13
4.512640
 23
2.556400
  0
POLYLINE
  8
0
  6
CONTINUOUS
 66
     1
 40
0.000000
 41
0.000000
  0
VERTEX
  8
0
  6
CONTINUOUS
 10
3.929640
 20
2.382600
  0
VERTEX
  8
0
  6
CONTINUOUS
 10
4.570720
 20
2.747360
  0
VERTEX
  8
0
  6
CONTINUOUS
 10
4.512640
 20
2.556400
  0
VERTEX
  8
0
  6
CONTINUOUS
 10
3.871560
 20
2.191640
  0
VERTEX
  8
0
  6
CONTINUOUS
 10
3.929640
 20
2.382600
  0
SEQEND
  8
0
  0
SOLID
  8
0
 62
    15
 10
3.871560
 20
2.191640
 11
4.512640
 21
2.556400
 12
3.828440
 22
1.998040
 13
4.469520
 23
2.362800
  0
POLYLINE
  8
0
  6
CONTINUOUS
 66
     1
 40
0.000000
 41
0.000000
  0
VERTEX
  8
0
  6
CONTINUOUS
 10
3.871560
 20
2.191640
  0
VERTEX
  8
0
  6
CONTINUOUS
 10
4.512640
 20
2.556400
  0
VERTEX
  8
0
  6
CONTINUOUS
 10
4.469520
 20
2.362800
  0
VERTEX
  8
0
  6
CONTINUOUS
 10
3.828440
 20
1.998040
  0
VERTEX
  8
0
  6
CONTINUOUS
 10
3.871560
 20
2.191640
  0
SEQEND
  8
0
  0
SOLID
  8
0
 62
    15
 10
3.828440
 20
1.998040
 11
4.469520
 21
2.362800
 12
3.802920
 22
1.803120
 13
4.444000
 23
2.167880
  0
POLYLINE
  8
0
  6
CONTINUOUS
 66
     1
 40
0.000000
 41
0.000000
  0
VERTEX
  8
0
  6
CONTINUOUS
 10
3.828440
 20
1.998040
  0
VERTEX
  8
0
  6
CONTINUOUS
 10
4.469520
 20
2.362800
  0
VERTEX
  8
0
  6
CONTINUOUS
 10
4.444000
 20
2.167880
  0
VERTEX
  8
0
  6
CONTINUOUS
 10
3.802920
 20
1.803120
  0
VERTEX
  8
0
  6
CONTINUOUS
 10
3.828440
 20
1.998040
  0
SEQEND
  8
0
  0
SOLID
  8
0
 62
    15
 10
3.802920
 20
1.803120
 11
4.444000
 21
2.167880
 12
3.798080
 22
1.607320
 13
4.439160
 23
1.972520
  0
POLYLINE
  8
0
  6
CONTINUOUS
 66
     1
 40
0.000000
 41
0.000000
  0
VERTEX
  8
0
  6
CONTINUOUS
 10
3.802920
 20
1.803120
  0
VERTEX
  8
0
  6
CONTINUOUS
 10
4.444000
 20
2.167880
  0
VERTEX
  8
0
  6
CONTINUOUS
 10
4.439160
 20
1.972520
  0
VERTEX
  8
0
  6
CONTINUOUS
 10
3.798080
 20
1.607320
  0
VERTEX
  8
0
  6
CONTINUOUS
 10
3.802920
 20
1.803120
  0
SEQEND
  8
0
  0
SOLID
  8
0
 62
    15
 10
3.798080
 20
1.607320
 11
4.439160
 21
1.972520
 12
3.816120
 22
1.412400
 13
4.456760
 23
1.777600
  0
POLYLINE
  8
0
  6
CONTINUOUS
 66
     1
 40
0.000000
 41
0.000000
  0
VERTEX
  8
0
  6
CONTINUOUS
 10
3.798080
 20
1.607320
  0
VERTEX
  8
0
  6
CONTINUOUS
 10
4.439160
 20
1.972520
  0
VERTEX
  8
0
  6
CONTINUOUS
 10
4.456760
 20
1.777600
  0
VERTEX
  8
0
  6
CONTINUOUS
 10
3.816120
 20
1.412400
  0
VERTEX
  8
0
  6
CONTINUOUS
 10
3.798080
 20
1.607320
  0
SEQEND
  8
0
  0
SOLID
  8
0
 62
    15
 10
3.859680
 20
1.218800
 11
4.500760
 21
1.584000
 12
3.810840
 22
1.164680
 13
4.451920
 23
1.529440
  0
POLYLINE
  8
0
  6
CONTINUOUS
 66
     1
 40
0.000000
 41
0.000000
  0
VERTEX
  8
0
  6
CONTINUOUS
 10
3.859680
 20
1.218800
  0
VERTEX
  8
0
  6
CONTINUOUS
 10
4.500760
 20
1.584000
  0
VERTEX
  8
0
  6
CONTINUOUS
 10
4.451920
 20
1.529440
  0
VERTEX
  8
0
  6
CONTINUOUS
 10
3.810840
 20
1.164680
  0
VERTEX
  8
0
  6
CONTINUOUS
 10
3.859680
 20
1.218800
  0
SEQEND
  8
0
  0
SOLID
  8
0
 62
    15
 10
3.495360
 20
1.072720
 11
4.136440
 21
1.437480
 12
3.494920
 22
1.071840
 13
4.136000
 23
1.436600
  0
POLYLINE
  8
0
  6
CONTINUOUS
 66
     1
 40
0.000000
 41
0.000000
  0
VERTEX
  8
0
  6
CONTINUOUS
 10
3.495360
 20
1.072720
  0
VERTEX
  8
0
  6
CONTINUOUS
 10
4.136440
 20
1.437480
  0
VERTEX
  8
0
  6
CONTINUOUS
 10
4.136000
 20
1.436600
  0
VERTEX
  8
0
  6
CONTINUOUS
 10
3.494920
 20
1.071840
  0
VERTEX
  8
0
  6
CONTINUOUS
 10
3.495360
 20
1.072720
  0
SEQEND
  8
0
  0
SOLID
  8
0
 62
    15
 10
3.810840
 20
1.164680
 11
4.451920
 21
1.529440
 12
3.727680
 22
1.112760
 13
4.368320
 23
1.477520
  0
POLYLINE
  8
0
  6
CONTINUOUS
 66
     1
 40
0.000000
 41
0.000000
  0
VERTEX
  8
0
  6
CONTINUOUS
 10
3.810840
 20
1.164680
  0
VERTEX
  8
0
  6
CONTINUOUS
 10
4.451920
 20
1.529440
  0
VERTEX
  8
0
  6
CONTINUOUS
 10
4.368320
 20
1.477520
  0
VERTEX
  8
0
  6
CONTINUOUS
 10
3.727680
 20
1.112760
  0
VERTEX
  8
0
  6
CONTINUOUS
 10
3.810840
 20
1.164680
  0
SEQEND
  8
0
  0
SOLID
  8
0
 62
    15
 10
3.816120
 20
1.412400
 11
4.456760
 21
1.777600
 12
3.859680
 22
1.218800
 13
4.500760
 23
1.584000
  0
POLYLINE
  8
0
  6
CONTINUOUS
 66
     1
 40
0.000000
 41
0.000000
  0
VERTEX
  8
0
  6
CONTINUOUS
 10
3.816120
 20
1.412400
  0
VERTEX
  8
0
  6
CONTINUOUS
 10
4.456760
 20
1.777600
  0
VERTEX
  8
0
  6
CONTINUOUS
 10
4.500760
 20
1.584000
  0
VERTEX
  8
0
  6
CONTINUOUS
 10
3.859680
 20
1.218800
  0
VERTEX
  8
0
  6
CONTINUOUS
 10
3.816120
 20
1.412400
  0
SEQEND
  8
0
  0
POLYLINE
  8
0
  6
CONTINUOUS
 66
     1
 40
0.000000
 41
0.000000
  0
VERTEX
  8
0
  6
CONTINUOUS
 10
3.494920
 20
1.071840
  0
VERTEX
  8
0
  6
CONTINUOUS
 10
3.494920
 20
1.445400
  0
VERTEX
  8
0
  6
CONTINUOUS
 10
3.248960
 20
1.445400
  0
VERTEX
  8
0
  6
CONTINUOUS
 10
3.248960
 20
2.692800
  0
VERTEX
  8
0
  6
CONTINUOUS
 10
2.749560
 20
2.692800
  0
VERTEX
  8
0
  6
CONTINUOUS
 10
2.749560
 20
6.817800
  0
VERTEX
  8
0
  6
CONTINUOUS
 10
5.053400
 20
6.817800
  0
VERTEX
  8
0
  6
CONTINUOUS
 10
5.053400
 20
6.818240
  0
VERTEX
  8
0
  6
CONTINUOUS
 10
5.131720
 20
6.656760
  0
VERTEX
  8
0
  6
CONTINUOUS
 10
5.189800
 20
6.482080
  0
VERTEX
  8
0
  6
CONTINUOUS
 10
5.229840
 20
6.297280
  0
VERTEX
  8
0
  6
CONTINUOUS
 10
5.253600
 20
6.104120
  0
VERTEX
  8
0
  6
CONTINUOUS
 10
5.261520
 20
5.904800
  0
VERTEX
  8
0
  6
CONTINUOUS
 10
5.256240
 20
5.701520
  0
VERTEX
  8
0
  6
CONTINUOUS
 10
5.209600
 20
5.292760
  0
VERTEX
  8
0
  6
CONTINUOUS
 10
5.126440
 20
4.895880
  0
VERTEX
  8
0
  6
CONTINUOUS
 10
5.017760
 20
4.528040
  0
VERTEX
  8
0
  6
CONTINUOUS
 10
4.957480
 20
4.360840
  0
VERTEX
  8
0
  6
CONTINUOUS
 10
4.895440
 20
4.207720
  0
VERTEX
  8
0
  6
CONTINUOUS
 10
4.833400
 20
4.070440
  0
VERTEX
  8
0
  6
CONTINUOUS
 10
4.772240
 20
3.952080
  0
VERTEX
  8
0
  6
CONTINUOUS
 10
4.705800
 20
3.837240
  0
VERTEX
  8
0
  6
CONTINUOUS
 10
4.628360
 20
3.710520
  0
VERTEX
  8
0
  6
CONTINUOUS
 10
4.451480
 20
3.425400
  0
VERTEX
  8
0
  6
CONTINUOUS
 10
4.262280
 20
3.103760
  0
VERTEX
  8
0
  6
CONTINUOUS
 10
4.081440
 20
2.753520
  0
VERTEX
  8
0
  6
CONTINUOUS
 10
3.929640
 20
2.382600
  0
VERTEX
  8
0
  6
CONTINUOUS
 10
3.871560
 20
2.191640
  0
VERTEX
  8
0
  6
CONTINUOUS
 10
3.828440
 20
1.998040
  0
VERTEX
  8
0
  6
CONTINUOUS
 10
3.802920
 20
1.803120
  0
VERTEX
  8
0
  6
CONTINUOUS
 10
3.798080
 20
1.607320
  0
VERTEX
  8
0
  6
CONTINUOUS
 10
3.816120
 20
1.412400
  0
VERTEX
  8
0
  6
CONTINUOUS
 10
3.859680
 20
1.218800
  0
VERTEX
  8
0
  6
CONTINUOUS
 10
3.810840
 20
1.164680
  0
VERTEX
  8
0
  6
CONTINUOUS
 10
3.727680
 20
1.112760
  0
VERTEX
  8
0
  6
CONTINUOUS
 10
3.619000
 20
1.077120
  0
VERTEX
  8
0
  6
CONTINUOUS
 10
3.495360
 20
1.072720
  0
VERTEX
  8
0
  6
CONTINUOUS
 10
3.494920
 20
1.071840
  0
SEQEND
  8
0
  0
TEXT
  8
0
 10
5.096960
 20
1.261920
 40
0.138268
  1
BA  883
 41
1.000000
  7
SN0
 71
     0
 72
     5
 11
5.689131
 21
1.261920
  0
TEXT
  8
0
 10
4.867280
 20
1.070520
 40
0.138268
  1
2-1/2" x 5-3/4"
 41
1.000000
  7
SN0
 71
     0
 72
     5
 11
5.919087
 21
1.070520
  0
POLYLINE
  8
0
  6
CONTINUOUS
 66
     1
 40
0.014080
 41
0.014080
  0
VERTEX
  8
0
  6
CONTINUOUS
 10
1.378960
 20
8.184880
  0
VERTEX
  8
0
  6
CONTINUOUS
 10
1.376320
 20
8.216560
  0
VERTEX
  8
0
  6
CONTINUOUS
 10
1.376320
 20
8.248240
  0
VERTEX
  8
0
  6
CONTINUOUS
 10
1.378960
 20
8.279040
  0
VERTEX
  8
0
  6
CONTINUOUS
 10
1.383360
 20
8.308960
  0
VERTEX
  8
0
  6
CONTINUOUS
 10
1.389960
 20
8.337560
  0
VERTEX
  8
0
  6
CONTINUOUS
 10
1.398320
 20
8.365720
  0
VERTEX
  8
0
  6
CONTINUOUS
 10
1.408000
 20
8.392120
  0
VERTEX
  8
0
  6
CONTINUOUS
 10
1.430880
 20
8.440960
  0
VERTEX
  8
0
  6
CONTINUOUS
 10
1.456840
 20
8.482760
  0
VERTEX
  8
0
  6
CONTINUOUS
 10
1.484560
 20
8.516200
  0
VERTEX
  8
0
  6
CONTINUOUS
 10
1.511840
 20
8.540840
  0
VERTEX
  8
0
  6
CONTINUOUS
 10
1.525040
 20
8.549200
  0
VERTEX
  8
0
  6
CONTINUOUS
 10
1.621840
 20
8.524120
  0
VERTEX
  8
0
  6
CONTINUOUS
 10
1.670240
 20
8.514000
  0
VERTEX
  8
0
  6
CONTINUOUS
 10
1.718640
 20
8.505640
  0
VERTEX
  8
0
  6
CONTINUOUS
 10
1.815880
 20
8.493760
  0
VERTEX
  8
0
  6
CONTINUOUS
 10
1.864720
 20
8.489800
  0
VERTEX
  8
0
  6
CONTINUOUS
 10
1.962400
 20
8.486720
  0
VERTEX
  8
0
  6
CONTINUOUS
 10
2.060520
 20
8.489360
  0
VERTEX
  8
0
  6
CONTINUOUS
 10
2.158200
 20
8.497280
  0
VERTEX
  8
0
  6
CONTINUOUS
 10
2.255440
 20
8.510040
  0
VERTEX
  8
0
  6
CONTINUOUS
 10
2.352680
 20
8.527200
  0
VERTEX
  8
0
  6
CONTINUOUS
 10
2.449480
 20
8.548760
  0
VERTEX
  8
0
  6
CONTINUOUS
 10
2.545840
 20
8.574280
  0
VERTEX
  8
0
  6
CONTINUOUS
 10
2.688840
 20
8.619600
  0
VERTEX
  8
0
  6
CONTINUOUS
 10
2.829640
 20
8.671520
  0
VERTEX
  8
0
  6
CONTINUOUS
 10
2.968680
 20
8.729600
  0
VERTEX
  8
0
  6
CONTINUOUS
 10
3.059760
 20
8.770960
  0
VERTEX
  8
0
  6
CONTINUOUS
 10
3.149520
 20
8.814080
  0
VERTEX
  8
0
  6
CONTINUOUS
 10
3.237960
 20
8.858960
  0
VERTEX
  8
0
  6
CONTINUOUS
 10
3.410000
 20
8.951800
  0
VERTEX
  8
0
  6
CONTINUOUS
 10
3.654200
 20
9.094360
  0
VERTEX
  8
0
  6
CONTINUOUS
 10
3.949440
 20
9.276080
  0
VERTEX
  8
0
  6
CONTINUOUS
 10
4.143480
 20
9.395320
  0
VERTEX
  8
0
  6
CONTINUOUS
 10
4.258320
 20
9.461760
  0
VERTEX
  8
0
  6
CONTINUOUS
 10
4.345440
 20
9.507520
  0
VERTEX
  8
0
  6
CONTINUOUS
 10
4.477880
 20
9.569560
  0
VERTEX
  8
0
  6
CONTINUOUS
 10
4.588320
 20
9.616200
  0
VERTEX
  8
0
  6
CONTINUOUS
 10
4.748920
 20
9.677360
  0
VERTEX
  8
0
  6
CONTINUOUS
 10
4.877840
 20
9.721800
  0
VERTEX
  8
0
  6
CONTINUOUS
 10
5.013360
 20
9.764040
  0
VERTEX
  8
0
  6
CONTINUOUS
 10
5.202120
 20
9.815960
  0
VERTEX
  8
0
  6
CONTINUOUS
 10
5.299360
 20
9.839720
  0
VERTEX
  8
0
  6
CONTINUOUS
 10
5.397920
 20
9.861280
  0
VERTEX
  8
0
  6
CONTINUOUS
 10
5.498240
 20
9.881520
  0
VERTEX
  8
0
  6
CONTINUOUS
 10
5.650040
 20
9.907480
  0
VERTEX
  8
0
  6
CONTINUOUS
 10
5.803160
 20
9.927720
  0
VERTEX
  8
0
  6
CONTINUOUS
 10
5.905680
 20
9.938280
  0
VERTEX
  8
0
  6
CONTINUOUS
 10
6.007760
 20
9.945760
  0
VERTEX
  8
0
  6
CONTINUOUS
 10
6.109840
 20
9.950160
  0
VERTEX
  8
0
  6
CONTINUOUS
 10
6.211040
 20
9.951040
  0
VERTEX
  8
0
  6
CONTINUOUS
 10
6.310920
 20
9.948840
  0
VERTEX
  8
0
  6
CONTINUOUS
 10
6.410360
 20
9.943120
  0
VERTEX
  8
0
  6
CONTINUOUS
 10
6.507600
 20
9.933440
  0
VERTEX
  8
0
  6
CONTINUOUS
 10
6.603520
 20
9.919360
  0
VERTEX
  8
0
  6
CONTINUOUS
 10
6.696800
 20
9.901760
  0
VERTEX
  8
0
  6
CONTINUOUS
 10
6.788320
 20
9.879320
  0
VERTEX
  8
0
  6
CONTINUOUS
 10
6.877200
 20
9.852480
  0
VERTEX
  8
0
  6
CONTINUOUS
 10
6.920320
 20
9.837520
  0
VERTEX
  8
0
  6
CONTINUOUS
 10
7.004360
 20
9.803200
  0
VERTEX
  8
0
  6
CONTINUOUS
 10
7.045280
 20
9.784720
  0
VERTEX
  8
0
  6
CONTINUOUS
 10
7.124480
 20
9.742920
  0
VERTEX
  8
0
  6
CONTINUOUS
 10
7.124040
 20
9.742920
  0
VERTEX
  8
0
  6
CONTINUOUS
 10
7.124040
 20
7.439080
  0
VERTEX
  8
0
  6
CONTINUOUS
 10
2.998600
 20
7.439080
  0
VERTEX
  8
0
  6
CONTINUOUS
 10
2.998600
 20
7.938480
  0
VERTEX
  8
0
  6
CONTINUOUS
 10
1.751640
 20
7.938480
  0
VERTEX
  8
0
  6
CONTINUOUS
 10
1.751640
 20
8.184440
  0
VERTEX
  8
0
  6
CONTINUOUS
 10
1.378080
 20
8.184440
  0
VERTEX
  8
0
  6
CONTINUOUS
 10
1.378960
 20
8.184880
  0
SEQEND
  8
0
  0
TEXT
  8
0
 10
6.059680
 20
7.757640
 40
0.138268
  1
BA  883
 41
1.000000
  7
SN0
 71
     0
 72
     5
 11
6.651851
 21
7.757640
  0
TEXT
  8
0
 10
5.830000
 20
7.566240
 40
0.138268
  1
2-1/2" x 5-3/4"
 41
1.000000
  7
SN0
 71
     0
 72
     5
 11
6.881807
 21
7.566240
  0
ENDSEC
  0
EOF
