  0
SECTION
  2
HEADER
  9
$ACADVER
  1
AC1006
  9
$EXTMIN
 10
2.977040
 20
4.676760
  9
$EXTMAX
 10
5.522440
 20
6.322800
  9
$LTSCALE
 40
0.044000
  9
$PDMODE
 70
    35
  9
$PDSIZE
 40
0.035200
  0
ENDSEC
  0
SECTION
  2
TABLES
  0
TABLE
  2
LTYPE
 70
     9
  0
LTYPE
  2
CONTINUOUS
 70
    64
  3
Solid line
 72
    65
 73
     0
 40
0.000000
  0
LTYPE
  2
DASHED
 70
    64
  3
__ __ __ __ __ __ __ __ __ __ __ __ __ __ __
 72
    65
 73
     2
 40
0.000330
 49
0.000220
 49
-0.000110
  0
LTYPE
  2
HIDDEN
 70
    64
  3
 _ _ _ _ _ _ _ _ _ _ _ _ _ _ _ _ _ _ _ _ _ _
 72
    65
 73
     2
 40
0.000165
 49
0.000110
 49
-0.000055
  0
LTYPE
  2
CENTER
 70
    64
  3
____ _ ____ _ ____ _ ____ _ ____ _ ____ _ ____
 72
    65
 73
     4
 40
0.000880
 49
0.000550
 49
-0.000110
 49
0.000110
 49
-0.000110
  0
LTYPE
  2
PHANTOM
 70
    64
  3
_____ _ _ _____ _ _ _____ _ _ _____ _ _ ____
 72
    65
 73
     6
 40
0.001100
 49
0.000550
 49
-0.000110
 49
0.000110
 49
-0.000110
 49
0.000110
 49
-0.000110
  0
LTYPE
  2
DOT
 70
    64
  3
...............................................
 72
    65
 73
     2
 40
0.000110
 49
0.000000
 49
-0.000110
  0
LTYPE
  2
DASHDOT
 70
    64
  3
__ . __ . __ . __ . __ . __ . __ . __ . __ . __
 72
    65
 73
     4
 40
0.000440
 49
0.000220
 49
-0.000110
 49
0.000000
 49
-0.000110
  0
LTYPE
  2
BORDER
 70
    64
  3
__ __ . __ __ . __ __ . __ __ . __ __ . __ __
 72
    65
 73
     6
 40
0.000770
 49
0.000220
 49
-0.000110
 49
0.000220
 49
-0.000110
 49
0.000000
 49
-0.000110
  0
LTYPE
  2
DIVIDE
 70
    64
  3
__ . . __ . . __ . . __ . . __ . . __ . . __
 72
    65
 73
     6
 40
0.000550
 49
0.000220
 49
-0.000110
 49
0.000000
 49
-0.000110
 49
0.000000
 49
-0.000110
  0
LTYPE
  2
DOTDOT
 70
    64
  3
 . .  . .  . .  . .  . .  . . 
 72
    65
 73
     5
 40
0.000242
 49
-0.000110
 49
0.000000
 49
-0.000110
 49
0.000000
 49
-0.000110
  0
ENDTAB
  0
TABLE
  2
STYLE
 70
     2
  0
STYLE
 70
     0
  2
SN0
 40
0.000000
 41
0.000440
 50
0.000000
 71
     0
 42
0.000000
  3
ROMAND
  0
STYLE
 70
    68
  2
SV0
 40
0.000000
 41
0.000440
 50
0.000000
 71
     0
 42
0.000000
  3
ROMAND
  0
ENDTAB
  0
TABLE
  2
LAYER
 70
     3
  0
LAYER
  2
FOREGROUND
 70
    64
 62
     7
  6
CONTINUOUS
  0
LAYER
  2
BACKGROUND
 70
    65
 62
    -7
  6
CONTINUOUS
  0
LAYER
  2
0
 70
    64
 62
     7
  6
CONTINUOUS
  0
ENDTAB
  0
ENDSEC
  0
SECTION
  2
ENTITIES
  0
POLYLINE
  8
FOREGROUND
  6
CONTINUOUS
 66
     1
 40
0.000000
 41
0.000000
  0
VERTEX
  8
FOREGROUND
  6
CONTINUOUS
 10
0.000000
 20
10.999560
  0
VERTEX
  8
FOREGROUND
  6
CONTINUOUS
 10
8.499920
 20
10.999560
  0
VERTEX
  8
FOREGROUND
  6
CONTINUOUS
 10
8.499920
 20
-0.000440
  0
VERTEX
  8
FOREGROUND
  6
CONTINUOUS
 10
0.000000
 20
-0.000440
  0
VERTEX
  8
FOREGROUND
  6
CONTINUOUS
 10
0.000000
 20
10.999560
  0
SEQEND
  8
0
  0
POLYLINE
  8
FOREGROUND
  6
CONTINUOUS
 66
     1
 40
0.000000
 41
0.000000
  0
VERTEX
  8
FOREGROUND
  6
CONTINUOUS
 10
0.000000
 20
10.999560
  0
VERTEX
  8
FOREGROUND
  6
CONTINUOUS
 10
8.499920
 20
10.999560
  0
VERTEX
  8
FOREGROUND
  6
CONTINUOUS
 10
8.499920
 20
-0.000440
  0
VERTEX
  8
FOREGROUND
  6
CONTINUOUS
 10
0.000000
 20
-0.000440
  0
VERTEX
  8
FOREGROUND
  6
CONTINUOUS
 10
0.000000
 20
10.999560
  0
SEQEND
  8
0
  0
TEXT
  8
0
 10
3.306600
 20
4.912600
 40
0.138135
  1
BA  882
 41
1.000000
  7
SN0
 71
     0
 72
     5
 11
3.896242
 21
4.912600
  0
TEXT
  8
0
 10
3.086160
 20
4.721200
 40
0.138135
  1
7/16" x 11/16"
 41
1.000000
  7
SN0
 71
     0
 72
     5
 11
4.115011
 21
4.721200
  0
SOLID
  8
0
 62
    15
 10
3.624280
 20
5.404960
 11
3.622080
 21
6.148120
 12
3.652880
 22
5.382080
 13
3.650240
 23
6.125240
  0
POLYLINE
  8
0
  6
CONTINUOUS
 66
     1
 40
0.000000
 41
0.000000
  0
VERTEX
  8
0
  6
CONTINUOUS
 10
3.624280
 20
5.404960
  0
VERTEX
  8
0
  6
CONTINUOUS
 10
3.622080
 20
6.148120
  0
VERTEX
  8
0
  6
CONTINUOUS
 10
3.650240
 20
6.125240
  0
VERTEX
  8
0
  6
CONTINUOUS
 10
3.652880
 20
5.382080
  0
VERTEX
  8
0
  6
CONTINUOUS
 10
3.624280
 20
5.404960
  0
SEQEND
  8
0
  0
SOLID
  8
0
 62
    15
 10
3.355880
 20
5.573480
 11
3.353680
 21
6.317080
 12
3.400320
 22
5.562920
 13
3.398120
 23
6.306520
  0
POLYLINE
  8
0
  6
CONTINUOUS
 66
     1
 40
0.000000
 41
0.000000
  0
VERTEX
  8
0
  6
CONTINUOUS
 10
3.355880
 20
5.573480
  0
VERTEX
  8
0
  6
CONTINUOUS
 10
3.353680
 20
6.317080
  0
VERTEX
  8
0
  6
CONTINUOUS
 10
3.398120
 20
6.306520
  0
VERTEX
  8
0
  6
CONTINUOUS
 10
3.400320
 20
5.562920
  0
VERTEX
  8
0
  6
CONTINUOUS
 10
3.355880
 20
5.573480
  0
SEQEND
  8
0
  0
SOLID
  8
0
 62
    15
 10
3.400320
 20
5.562920
 11
3.398120
 21
6.306520
 12
3.441680
 22
5.547520
 13
3.439040
 23
6.291120
  0
POLYLINE
  8
0
  6
CONTINUOUS
 66
     1
 40
0.000000
 41
0.000000
  0
VERTEX
  8
0
  6
CONTINUOUS
 10
3.400320
 20
5.562920
  0
VERTEX
  8
0
  6
CONTINUOUS
 10
3.398120
 20
6.306520
  0
VERTEX
  8
0
  6
CONTINUOUS
 10
3.439040
 20
6.291120
  0
VERTEX
  8
0
  6
CONTINUOUS
 10
3.441680
 20
5.547520
  0
VERTEX
  8
0
  6
CONTINUOUS
 10
3.400320
 20
5.562920
  0
SEQEND
  8
0
  0
SOLID
  8
0
 62
    15
 10
3.441680
 20
5.547520
 11
3.439040
 21
6.291120
 12
3.479520
 22
5.528160
 13
3.476880
 23
6.271760
  0
POLYLINE
  8
0
  6
CONTINUOUS
 66
     1
 40
0.000000
 41
0.000000
  0
VERTEX
  8
0
  6
CONTINUOUS
 10
3.441680
 20
5.547520
  0
VERTEX
  8
0
  6
CONTINUOUS
 10
3.439040
 20
6.291120
  0
VERTEX
  8
0
  6
CONTINUOUS
 10
3.476880
 20
6.271760
  0
VERTEX
  8
0
  6
CONTINUOUS
 10
3.479520
 20
5.528160
  0
VERTEX
  8
0
  6
CONTINUOUS
 10
3.441680
 20
5.547520
  0
SEQEND
  8
0
  0
SOLID
  8
0
 62
    15
 10
3.479520
 20
5.528160
 11
3.476880
 21
6.271760
 12
3.513840
 22
5.506160
 13
3.511640
 23
6.249760
  0
POLYLINE
  8
0
  6
CONTINUOUS
 66
     1
 40
0.000000
 41
0.000000
  0
VERTEX
  8
0
  6
CONTINUOUS
 10
3.479520
 20
5.528160
  0
VERTEX
  8
0
  6
CONTINUOUS
 10
3.476880
 20
6.271760
  0
VERTEX
  8
0
  6
CONTINUOUS
 10
3.511640
 20
6.249760
  0
VERTEX
  8
0
  6
CONTINUOUS
 10
3.513840
 20
5.506160
  0
VERTEX
  8
0
  6
CONTINUOUS
 10
3.479520
 20
5.528160
  0
SEQEND
  8
0
  0
SOLID
  8
0
 62
    15
 10
3.513840
 20
5.506160
 11
3.511640
 21
6.249760
 12
3.545080
 22
5.481520
 13
3.542440
 23
6.225120
  0
POLYLINE
  8
0
  6
CONTINUOUS
 66
     1
 40
0.000000
 41
0.000000
  0
VERTEX
  8
0
  6
CONTINUOUS
 10
3.513840
 20
5.506160
  0
VERTEX
  8
0
  6
CONTINUOUS
 10
3.511640
 20
6.249760
  0
VERTEX
  8
0
  6
CONTINUOUS
 10
3.542440
 20
6.225120
  0
VERTEX
  8
0
  6
CONTINUOUS
 10
3.545080
 20
5.481520
  0
VERTEX
  8
0
  6
CONTINUOUS
 10
3.513840
 20
5.506160
  0
SEQEND
  8
0
  0
SOLID
  8
0
 62
    15
 10
3.545080
 20
5.481520
 11
3.542440
 21
6.225120
 12
3.571920
 22
5.455560
 13
3.569720
 23
6.199160
  0
POLYLINE
  8
0
  6
CONTINUOUS
 66
     1
 40
0.000000
 41
0.000000
  0
VERTEX
  8
0
  6
CONTINUOUS
 10
3.545080
 20
5.481520
  0
VERTEX
  8
0
  6
CONTINUOUS
 10
3.542440
 20
6.225120
  0
VERTEX
  8
0
  6
CONTINUOUS
 10
3.569720
 20
6.199160
  0
VERTEX
  8
0
  6
CONTINUOUS
 10
3.571920
 20
5.455560
  0
VERTEX
  8
0
  6
CONTINUOUS
 10
3.545080
 20
5.481520
  0
SEQEND
  8
0
  0
SOLID
  8
0
 62
    15
 10
3.571920
 20
5.455560
 11
3.569720
 21
6.199160
 12
3.624280
 22
5.404960
 13
3.622080
 23
6.148120
  0
POLYLINE
  8
0
  6
CONTINUOUS
 66
     1
 40
0.000000
 41
0.000000
  0
VERTEX
  8
0
  6
CONTINUOUS
 10
3.571920
 20
5.455560
  0
VERTEX
  8
0
  6
CONTINUOUS
 10
3.569720
 20
6.199160
  0
VERTEX
  8
0
  6
CONTINUOUS
 10
3.622080
 20
6.148120
  0
VERTEX
  8
0
  6
CONTINUOUS
 10
3.624280
 20
5.404960
  0
VERTEX
  8
0
  6
CONTINUOUS
 10
3.571920
 20
5.455560
  0
SEQEND
  8
0
  0
SOLID
  8
0
 62
    15
 10
3.308360
 20
5.578320
 11
3.306160
 21
6.321920
 12
3.355880
 22
5.573480
 13
3.353680
 23
6.317080
  0
POLYLINE
  8
0
  6
CONTINUOUS
 66
     1
 40
0.000000
 41
0.000000
  0
VERTEX
  8
0
  6
CONTINUOUS
 10
3.308360
 20
5.578320
  0
VERTEX
  8
0
  6
CONTINUOUS
 10
3.306160
 20
6.321920
  0
VERTEX
  8
0
  6
CONTINUOUS
 10
3.353680
 20
6.317080
  0
VERTEX
  8
0
  6
CONTINUOUS
 10
3.355880
 20
5.573480
  0
VERTEX
  8
0
  6
CONTINUOUS
 10
3.308360
 20
5.578320
  0
SEQEND
  8
0
  0
SOLID
  8
0
 62
    15
 10
3.652880
 20
5.382080
 11
3.650240
 21
6.125240
 12
3.683240
 22
5.361400
 13
3.681040
 23
6.105000
  0
POLYLINE
  8
0
  6
CONTINUOUS
 66
     1
 40
0.000000
 41
0.000000
  0
VERTEX
  8
0
  6
CONTINUOUS
 10
3.652880
 20
5.382080
  0
VERTEX
  8
0
  6
CONTINUOUS
 10
3.650240
 20
6.125240
  0
VERTEX
  8
0
  6
CONTINUOUS
 10
3.681040
 20
6.105000
  0
VERTEX
  8
0
  6
CONTINUOUS
 10
3.683240
 20
5.361400
  0
VERTEX
  8
0
  6
CONTINUOUS
 10
3.652880
 20
5.382080
  0
SEQEND
  8
0
  0
SOLID
  8
0
 62
    15
 10
3.683240
 20
5.361400
 11
3.681040
 21
6.105000
 12
3.716680
 22
5.344240
 13
3.714040
 23
6.087840
  0
POLYLINE
  8
0
  6
CONTINUOUS
 66
     1
 40
0.000000
 41
0.000000
  0
VERTEX
  8
0
  6
CONTINUOUS
 10
3.683240
 20
5.361400
  0
VERTEX
  8
0
  6
CONTINUOUS
 10
3.681040
 20
6.105000
  0
VERTEX
  8
0
  6
CONTINUOUS
 10
3.714040
 20
6.087840
  0
VERTEX
  8
0
  6
CONTINUOUS
 10
3.716680
 20
5.344240
  0
VERTEX
  8
0
  6
CONTINUOUS
 10
3.683240
 20
5.361400
  0
SEQEND
  8
0
  0
SOLID
  8
0
 62
    15
 10
3.716680
 20
5.344240
 11
3.714040
 21
6.087840
 12
3.753200
 22
5.330600
 13
3.750560
 23
6.074200
  0
POLYLINE
  8
0
  6
CONTINUOUS
 66
     1
 40
0.000000
 41
0.000000
  0
VERTEX
  8
0
  6
CONTINUOUS
 10
3.716680
 20
5.344240
  0
VERTEX
  8
0
  6
CONTINUOUS
 10
3.714040
 20
6.087840
  0
VERTEX
  8
0
  6
CONTINUOUS
 10
3.750560
 20
6.074200
  0
VERTEX
  8
0
  6
CONTINUOUS
 10
3.753200
 20
5.330600
  0
VERTEX
  8
0
  6
CONTINUOUS
 10
3.716680
 20
5.344240
  0
SEQEND
  8
0
  0
SOLID
  8
0
 62
    15
 10
3.753200
 20
5.330600
 11
3.750560
 21
6.074200
 12
3.793240
 22
5.321800
 13
3.791040
 23
6.065400
  0
POLYLINE
  8
0
  6
CONTINUOUS
 66
     1
 40
0.000000
 41
0.000000
  0
VERTEX
  8
0
  6
CONTINUOUS
 10
3.753200
 20
5.330600
  0
VERTEX
  8
0
  6
CONTINUOUS
 10
3.750560
 20
6.074200
  0
VERTEX
  8
0
  6
CONTINUOUS
 10
3.791040
 20
6.065400
  0
VERTEX
  8
0
  6
CONTINUOUS
 10
3.793240
 20
5.321800
  0
VERTEX
  8
0
  6
CONTINUOUS
 10
3.753200
 20
5.330600
  0
SEQEND
  8
0
  0
SOLID
  8
0
 62
    15
 10
3.837680
 20
5.237760
 11
3.835480
 21
5.981360
 12
3.946360
 22
5.237760
 13
3.944160
 23
5.981360
  0
POLYLINE
  8
0
  6
CONTINUOUS
 66
     1
 40
0.000000
 41
0.000000
  0
VERTEX
  8
0
  6
CONTINUOUS
 10
3.837680
 20
5.237760
  0
VERTEX
  8
0
  6
CONTINUOUS
 10
3.835480
 20
5.981360
  0
VERTEX
  8
0
  6
CONTINUOUS
 10
3.944160
 20
5.981360
  0
VERTEX
  8
0
  6
CONTINUOUS
 10
3.946360
 20
5.237760
  0
VERTEX
  8
0
  6
CONTINUOUS
 10
3.837680
 20
5.237760
  0
SEQEND
  8
0
  0
SOLID
  8
0
 62
    15
 10
3.793240
 20
5.321800
 11
3.791040
 21
6.065400
 12
3.837680
 22
5.317840
 13
3.835480
 23
6.061440
  0
POLYLINE
  8
0
  6
CONTINUOUS
 66
     1
 40
0.000000
 41
0.000000
  0
VERTEX
  8
0
  6
CONTINUOUS
 10
3.793240
 20
5.321800
  0
VERTEX
  8
0
  6
CONTINUOUS
 10
3.791040
 20
6.065400
  0
VERTEX
  8
0
  6
CONTINUOUS
 10
3.835480
 20
6.061440
  0
VERTEX
  8
0
  6
CONTINUOUS
 10
3.837680
 20
5.317840
  0
VERTEX
  8
0
  6
CONTINUOUS
 10
3.793240
 20
5.321800
  0
SEQEND
  8
0
  0
SOLID
  8
0
 62
    15
 10
3.258200
 20
5.151520
 11
3.256000
 21
5.895120
 12
3.258200
 22
5.577000
 13
3.256000
 23
6.320600
  0
POLYLINE
  8
0
  6
CONTINUOUS
 66
     1
 40
0.000000
 41
0.000000
  0
VERTEX
  8
0
  6
CONTINUOUS
 10
3.258200
 20
5.151520
  0
VERTEX
  8
0
  6
CONTINUOUS
 10
3.256000
 20
5.895120
  0
VERTEX
  8
0
  6
CONTINUOUS
 10
3.256000
 20
6.320600
  0
VERTEX
  8
0
  6
CONTINUOUS
 10
3.258200
 20
5.577000
  0
VERTEX
  8
0
  6
CONTINUOUS
 10
3.258200
 20
5.151520
  0
SEQEND
  8
0
  0
SOLID
  8
0
 62
    15
 10
3.258200
 20
5.577000
 11
3.256000
 21
6.320600
 12
3.308360
 22
5.578320
 13
3.306160
 23
6.321920
  0
POLYLINE
  8
0
  6
CONTINUOUS
 66
     1
 40
0.000000
 41
0.000000
  0
VERTEX
  8
0
  6
CONTINUOUS
 10
3.258200
 20
5.577000
  0
VERTEX
  8
0
  6
CONTINUOUS
 10
3.256000
 20
6.320600
  0
VERTEX
  8
0
  6
CONTINUOUS
 10
3.306160
 20
6.321920
  0
VERTEX
  8
0
  6
CONTINUOUS
 10
3.308360
 20
5.578320
  0
VERTEX
  8
0
  6
CONTINUOUS
 10
3.258200
 20
5.577000
  0
SEQEND
  8
0
  0
POLYLINE
  8
0
  6
CONTINUOUS
 66
     1
 40
0.000000
 41
0.000000
  0
VERTEX
  8
0
  6
CONTINUOUS
 10
3.308360
 20
5.578320
  0
VERTEX
  8
0
  6
CONTINUOUS
 10
3.355880
 20
5.573480
  0
VERTEX
  8
0
  6
CONTINUOUS
 10
3.400320
 20
5.562920
  0
VERTEX
  8
0
  6
CONTINUOUS
 10
3.441680
 20
5.547520
  0
VERTEX
  8
0
  6
CONTINUOUS
 10
3.479520
 20
5.528160
  0
VERTEX
  8
0
  6
CONTINUOUS
 10
3.513840
 20
5.506160
  0
VERTEX
  8
0
  6
CONTINUOUS
 10
3.545080
 20
5.481520
  0
VERTEX
  8
0
  6
CONTINUOUS
 10
3.571920
 20
5.455560
  0
VERTEX
  8
0
  6
CONTINUOUS
 10
3.624280
 20
5.404960
  0
VERTEX
  8
0
  6
CONTINUOUS
 10
3.652880
 20
5.382080
  0
VERTEX
  8
0
  6
CONTINUOUS
 10
3.683240
 20
5.361400
  0
VERTEX
  8
0
  6
CONTINUOUS
 10
3.716680
 20
5.344240
  0
VERTEX
  8
0
  6
CONTINUOUS
 10
3.753200
 20
5.330600
  0
VERTEX
  8
0
  6
CONTINUOUS
 10
3.793240
 20
5.321800
  0
VERTEX
  8
0
  6
CONTINUOUS
 10
3.837680
 20
5.317840
  0
VERTEX
  8
0
  6
CONTINUOUS
 10
3.837680
 20
5.237760
  0
VERTEX
  8
0
  6
CONTINUOUS
 10
3.946360
 20
5.237760
  0
VERTEX
  8
0
  6
CONTINUOUS
 10
3.946360
 20
5.151520
  0
VERTEX
  8
0
  6
CONTINUOUS
 10
3.258200
 20
5.151520
  0
VERTEX
  8
0
  6
CONTINUOUS
 10
3.258200
 20
5.577000
  0
VERTEX
  8
0
  6
CONTINUOUS
 10
3.308360
 20
5.578320
  0
SEQEND
  8
0
  0
POLYLINE
  8
0
  6
CONTINUOUS
 66
     1
 40
0.014080
 41
0.014080
  0
VERTEX
  8
0
  6
CONTINUOUS
 10
4.495040
 20
6.042080
  0
VERTEX
  8
0
  6
CONTINUOUS
 10
4.495040
 20
5.616160
  0
VERTEX
  8
0
  6
CONTINUOUS
 10
5.183200
 20
5.616160
  0
VERTEX
  8
0
  6
CONTINUOUS
 10
5.183200
 20
5.702840
  0
VERTEX
  8
0
  6
CONTINUOUS
 10
5.074520
 20
5.702840
  0
VERTEX
  8
0
  6
CONTINUOUS
 10
5.074520
 20
5.782920
  0
VERTEX
  8
0
  6
CONTINUOUS
 10
5.051640
 20
5.784240
  0
VERTEX
  8
0
  6
CONTINUOUS
 10
5.030080
 20
5.786880
  0
VERTEX
  8
0
  6
CONTINUOUS
 10
5.009400
 20
5.790840
  0
VERTEX
  8
0
  6
CONTINUOUS
 10
4.989600
 20
5.795680
  0
VERTEX
  8
0
  6
CONTINUOUS
 10
4.971120
 20
5.801840
  0
VERTEX
  8
0
  6
CONTINUOUS
 10
4.953080
 20
5.809320
  0
VERTEX
  8
0
  6
CONTINUOUS
 10
4.936360
 20
5.817680
  0
VERTEX
  8
0
  6
CONTINUOUS
 10
4.920080
 20
5.826480
  0
VERTEX
  8
0
  6
CONTINUOUS
 10
4.904240
 20
5.836600
  0
VERTEX
  8
0
  6
CONTINUOUS
 10
4.889280
 20
5.846720
  0
VERTEX
  8
0
  6
CONTINUOUS
 10
4.875200
 20
5.858160
  0
VERTEX
  8
0
  6
CONTINUOUS
 10
4.861120
 20
5.870040
  0
VERTEX
  8
0
  6
CONTINUOUS
 10
4.834280
 20
5.894680
  0
VERTEX
  8
0
  6
CONTINUOUS
 10
4.808760
 20
5.920640
  0
VERTEX
  8
0
  6
CONTINUOUS
 10
4.795560
 20
5.933840
  0
VERTEX
  8
0
  6
CONTINUOUS
 10
4.781480
 20
5.946600
  0
VERTEX
  8
0
  6
CONTINUOUS
 10
4.766520
 20
5.958920
  0
VERTEX
  8
0
  6
CONTINUOUS
 10
4.750680
 20
5.971240
  0
VERTEX
  8
0
  6
CONTINUOUS
 10
4.733960
 20
5.982680
  0
VERTEX
  8
0
  6
CONTINUOUS
 10
4.716360
 20
5.993240
  0
VERTEX
  8
0
  6
CONTINUOUS
 10
4.697880
 20
6.003360
  0
VERTEX
  8
0
  6
CONTINUOUS
 10
4.678520
 20
6.012600
  0
VERTEX
  8
0
  6
CONTINUOUS
 10
4.658280
 20
6.020520
  0
VERTEX
  8
0
  6
CONTINUOUS
 10
4.637160
 20
6.028000
  0
VERTEX
  8
0
  6
CONTINUOUS
 10
4.615160
 20
6.033720
  0
VERTEX
  8
0
  6
CONTINUOUS
 10
4.592720
 20
6.038560
  0
VERTEX
  8
0
  6
CONTINUOUS
 10
4.569400
 20
6.041640
  0
VERTEX
  8
0
  6
CONTINUOUS
 10
4.545200
 20
6.043400
  0
VERTEX
  8
0
  6
CONTINUOUS
 10
4.520560
 20
6.043400
  0
VERTEX
  8
0
  6
CONTINUOUS
 10
4.495040
 20
6.042080
  0
SEQEND
  8
0
  0
TEXT
  8
0
 10
4.604160
 20
5.373280
 40
0.138135
  1
BA  882
 41
1.000000
  7
SN0
 71
     0
 72
     5
 11
5.193802
 21
5.373280
  0
TEXT
  8
0
 10
4.383720
 20
5.181440
 40
0.138135
  1
7/16" x 11/16"
 41
1.000000
  7
SN0
 71
     0
 72
     5
 11
5.412571
 21
5.181440
  0
ENDSEC
  0
EOF
