  0
SECTION
  2
HEADER
  9
$ACADVER
  1
AC1006
  9
$EXTMIN
 10
4.055040
 20
0.487520
  9
$EXTMAX
 10
7.194880
 20
2.915000
  9
$LTSCALE
 40
0.044000
  9
$PDMODE
 70
    35
  9
$PDSIZE
 40
0.035200
  0
ENDSEC
  0
SECTION
  2
TABLES
  0
TABLE
  2
LTYPE
 70
     9
  0
LTYPE
  2
CONTINUOUS
 70
    64
  3
Solid line
 72
    65
 73
     0
 40
0.000000
  0
LTYPE
  2
DASHED
 70
    64
  3
__ __ __ __ __ __ __ __ __ __ __ __ __ __ __
 72
    65
 73
     2
 40
0.000330
 49
0.000220
 49
-0.000110
  0
LTYPE
  2
HIDDEN
 70
    64
  3
 _ _ _ _ _ _ _ _ _ _ _ _ _ _ _ _ _ _ _ _ _ _
 72
    65
 73
     2
 40
0.000165
 49
0.000110
 49
-0.000055
  0
LTYPE
  2
CENTER
 70
    64
  3
____ _ ____ _ ____ _ ____ _ ____ _ ____ _ ____
 72
    65
 73
     4
 40
0.000880
 49
0.000550
 49
-0.000110
 49
0.000110
 49
-0.000110
  0
LTYPE
  2
PHANTOM
 70
    64
  3
_____ _ _ _____ _ _ _____ _ _ _____ _ _ ____
 72
    65
 73
     6
 40
0.001100
 49
0.000550
 49
-0.000110
 49
0.000110
 49
-0.000110
 49
0.000110
 49
-0.000110
  0
LTYPE
  2
DOT
 70
    64
  3
...............................................
 72
    65
 73
     2
 40
0.000110
 49
0.000000
 49
-0.000110
  0
LTYPE
  2
DASHDOT
 70
    64
  3
__ . __ . __ . __ . __ . __ . __ . __ . __ . __
 72
    65
 73
     4
 40
0.000440
 49
0.000220
 49
-0.000110
 49
0.000000
 49
-0.000110
  0
LTYPE
  2
BORDER
 70
    64
  3
__ __ . __ __ . __ __ . __ __ . __ __ . __ __
 72
    65
 73
     6
 40
0.000770
 49
0.000220
 49
-0.000110
 49
0.000220
 49
-0.000110
 49
0.000000
 49
-0.000110
  0
LTYPE
  2
DIVIDE
 70
    64
  3
__ . . __ . . __ . . __ . . __ . . __ . . __
 72
    65
 73
     6
 40
0.000550
 49
0.000220
 49
-0.000110
 49
0.000000
 49
-0.000110
 49
0.000000
 49
-0.000110
  0
LTYPE
  2
DOTDOT
 70
    64
  3
 . .  . .  . .  . .  . .  . . 
 72
    65
 73
     5
 40
0.000242
 49
-0.000110
 49
0.000000
 49
-0.000110
 49
0.000000
 49
-0.000110
  0
ENDTAB
  0
TABLE
  2
STYLE
 70
     2
  0
STYLE
 70
     0
  2
SN0
 40
0.000000
 41
0.000440
 50
0.000000
 71
     0
 42
0.000000
  3
ROMAND
  0
STYLE
 70
    68
  2
SV0
 40
0.000000
 41
0.000440
 50
0.000000
 71
     0
 42
0.000000
  3
ROMAND
  0
ENDTAB
  0
TABLE
  2
LAYER
 70
     3
  0
LAYER
  2
FOREGROUND
 70
    64
 62
     7
  6
CONTINUOUS
  0
LAYER
  2
BACKGROUND
 70
    65
 62
    -7
  6
CONTINUOUS
  0
LAYER
  2
0
 70
    64
 62
     7
  6
CONTINUOUS
  0
ENDTAB
  0
ENDSEC
  0
SECTION
  2
ENTITIES
  0
POLYLINE
  8
FOREGROUND
  6
CONTINUOUS
 66
     1
 40
0.000000
 41
0.000000
  0
VERTEX
  8
FOREGROUND
  6
CONTINUOUS
 10
0.000000
 20
3.402520
  0
VERTEX
  8
FOREGROUND
  6
CONTINUOUS
 10
8.499920
 20
3.402520
  0
VERTEX
  8
FOREGROUND
  6
CONTINUOUS
 10
8.499920
 20
-7.597480
  0
VERTEX
  8
FOREGROUND
  6
CONTINUOUS
 10
0.000000
 20
-7.597480
  0
VERTEX
  8
FOREGROUND
  6
CONTINUOUS
 10
0.000000
 20
3.402520
  0
SEQEND
  8
0
  0
POLYLINE
  8
FOREGROUND
  6
CONTINUOUS
 66
     1
 40
0.000000
 41
0.000000
  0
VERTEX
  8
FOREGROUND
  6
CONTINUOUS
 10
0.000000
 20
3.402520
  0
VERTEX
  8
FOREGROUND
  6
CONTINUOUS
 10
8.499920
 20
3.402520
  0
VERTEX
  8
FOREGROUND
  6
CONTINUOUS
 10
8.499920
 20
-7.597480
  0
VERTEX
  8
FOREGROUND
  6
CONTINUOUS
 10
0.000000
 20
-7.597480
  0
VERTEX
  8
FOREGROUND
  6
CONTINUOUS
 10
0.000000
 20
3.402520
  0
SEQEND
  8
0
  0
SOLID
  8
0
 62
    15
 10
4.707560
 20
1.797400
 11
5.352600
 21
2.158640
 12
4.770480
 22
1.793880
 13
5.415520
 23
2.155560
  0
POLYLINE
  8
0
  6
CONTINUOUS
 66
     1
 40
0.000000
 41
0.000000
  0
VERTEX
  8
0
  6
CONTINUOUS
 10
4.707560
 20
1.797400
  0
VERTEX
  8
0
  6
CONTINUOUS
 10
5.352600
 20
2.158640
  0
VERTEX
  8
0
  6
CONTINUOUS
 10
5.415520
 20
2.155560
  0
VERTEX
  8
0
  6
CONTINUOUS
 10
4.770480
 20
1.793880
  0
VERTEX
  8
0
  6
CONTINUOUS
 10
4.707560
 20
1.797400
  0
SEQEND
  8
0
  0
SOLID
  8
0
 62
    15
 10
4.310240
 20
2.427920
 11
4.955280
 21
2.789160
 12
4.360840
 22
2.404600
 13
5.005880
 23
2.765840
  0
POLYLINE
  8
0
  6
CONTINUOUS
 66
     1
 40
0.000000
 41
0.000000
  0
VERTEX
  8
0
  6
CONTINUOUS
 10
4.310240
 20
2.427920
  0
VERTEX
  8
0
  6
CONTINUOUS
 10
4.955280
 20
2.789160
  0
VERTEX
  8
0
  6
CONTINUOUS
 10
5.005880
 20
2.765840
  0
VERTEX
  8
0
  6
CONTINUOUS
 10
4.360840
 20
2.404600
  0
VERTEX
  8
0
  6
CONTINUOUS
 10
4.310240
 20
2.427920
  0
SEQEND
  8
0
  0
SOLID
  8
0
 62
    15
 10
4.360840
 20
2.404600
 11
5.005880
 21
2.765840
 12
4.397800
 22
2.370280
 13
5.042840
 23
2.731520
  0
POLYLINE
  8
0
  6
CONTINUOUS
 66
     1
 40
0.000000
 41
0.000000
  0
VERTEX
  8
0
  6
CONTINUOUS
 10
4.360840
 20
2.404600
  0
VERTEX
  8
0
  6
CONTINUOUS
 10
5.005880
 20
2.765840
  0
VERTEX
  8
0
  6
CONTINUOUS
 10
5.042840
 20
2.731520
  0
VERTEX
  8
0
  6
CONTINUOUS
 10
4.397800
 20
2.370280
  0
VERTEX
  8
0
  6
CONTINUOUS
 10
4.360840
 20
2.404600
  0
SEQEND
  8
0
  0
SOLID
  8
0
 62
     7
 10
4.397800
 20
2.370280
 11
5.042840
 21
2.731520
 12
4.419800
 22
2.328920
 13
5.064840
 23
2.690160
  0
POLYLINE
  8
0
  6
CONTINUOUS
 66
     1
 40
0.000000
 41
0.000000
  0
VERTEX
  8
0
  6
CONTINUOUS
 10
4.397800
 20
2.370280
  0
VERTEX
  8
0
  6
CONTINUOUS
 10
5.042840
 20
2.731520
  0
VERTEX
  8
0
  6
CONTINUOUS
 10
5.064840
 20
2.690160
  0
VERTEX
  8
0
  6
CONTINUOUS
 10
4.419800
 20
2.328920
  0
VERTEX
  8
0
  6
CONTINUOUS
 10
4.397800
 20
2.370280
  0
SEQEND
  8
0
  0
SOLID
  8
0
 62
    15
 10
4.419800
 20
2.328920
 11
5.064840
 21
2.690160
 12
4.424640
 22
2.284040
 13
5.069680
 23
2.645280
  0
POLYLINE
  8
0
  6
CONTINUOUS
 66
     1
 40
0.000000
 41
0.000000
  0
VERTEX
  8
0
  6
CONTINUOUS
 10
4.419800
 20
2.328920
  0
VERTEX
  8
0
  6
CONTINUOUS
 10
5.064840
 20
2.690160
  0
VERTEX
  8
0
  6
CONTINUOUS
 10
5.069680
 20
2.645280
  0
VERTEX
  8
0
  6
CONTINUOUS
 10
4.424640
 20
2.284040
  0
VERTEX
  8
0
  6
CONTINUOUS
 10
4.419800
 20
2.328920
  0
SEQEND
  8
0
  0
SOLID
  8
0
 62
    15
 10
4.424640
 20
2.284040
 11
5.069680
 21
2.645280
 12
4.410560
 22
2.239600
 13
5.055600
 23
2.601280
  0
POLYLINE
  8
0
  6
CONTINUOUS
 66
     1
 40
0.000000
 41
0.000000
  0
VERTEX
  8
0
  6
CONTINUOUS
 10
4.424640
 20
2.284040
  0
VERTEX
  8
0
  6
CONTINUOUS
 10
5.069680
 20
2.645280
  0
VERTEX
  8
0
  6
CONTINUOUS
 10
5.055600
 20
2.601280
  0
VERTEX
  8
0
  6
CONTINUOUS
 10
4.410560
 20
2.239600
  0
VERTEX
  8
0
  6
CONTINUOUS
 10
4.424640
 20
2.284040
  0
SEQEND
  8
0
  0
SOLID
  8
0
 62
    15
 10
4.410560
 20
2.239600
 11
5.055600
 21
2.601280
 12
4.396040
 22
2.218920
 13
5.041080
 23
2.580160
  0
POLYLINE
  8
0
  6
CONTINUOUS
 66
     1
 40
0.000000
 41
0.000000
  0
VERTEX
  8
0
  6
CONTINUOUS
 10
4.410560
 20
2.239600
  0
VERTEX
  8
0
  6
CONTINUOUS
 10
5.055600
 20
2.601280
  0
VERTEX
  8
0
  6
CONTINUOUS
 10
5.041080
 20
2.580160
  0
VERTEX
  8
0
  6
CONTINUOUS
 10
4.396040
 20
2.218920
  0
VERTEX
  8
0
  6
CONTINUOUS
 10
4.410560
 20
2.239600
  0
SEQEND
  8
0
  0
SOLID
  8
0
 62
    15
 10
4.396040
 20
2.218920
 11
5.041080
 21
2.580160
 12
4.376240
 22
2.199560
 13
5.021280
 23
2.560800
  0
POLYLINE
  8
0
  6
CONTINUOUS
 66
     1
 40
0.000000
 41
0.000000
  0
VERTEX
  8
0
  6
CONTINUOUS
 10
4.396040
 20
2.218920
  0
VERTEX
  8
0
  6
CONTINUOUS
 10
5.041080
 20
2.580160
  0
VERTEX
  8
0
  6
CONTINUOUS
 10
5.021280
 20
2.560800
  0
VERTEX
  8
0
  6
CONTINUOUS
 10
4.376240
 20
2.199560
  0
VERTEX
  8
0
  6
CONTINUOUS
 10
4.396040
 20
2.218920
  0
SEQEND
  8
0
  0
SOLID
  8
0
 62
     7
 10
4.319920
 20
2.167000
 11
4.964960
 21
2.528240
 12
4.326960
 22
2.117280
 13
4.972000
 23
2.478960
  0
POLYLINE
  8
0
  6
CONTINUOUS
 66
     1
 40
0.000000
 41
0.000000
  0
VERTEX
  8
0
  6
CONTINUOUS
 10
4.319920
 20
2.167000
  0
VERTEX
  8
0
  6
CONTINUOUS
 10
4.964960
 20
2.528240
  0
VERTEX
  8
0
  6
CONTINUOUS
 10
4.972000
 20
2.478960
  0
VERTEX
  8
0
  6
CONTINUOUS
 10
4.326960
 20
2.117280
  0
VERTEX
  8
0
  6
CONTINUOUS
 10
4.319920
 20
2.167000
  0
SEQEND
  8
0
  0
SOLID
  8
0
 62
    15
 10
4.376240
 20
2.199560
 11
5.021280
 21
2.560800
 12
4.351160
 22
2.181960
 13
4.996200
 23
2.543200
  0
POLYLINE
  8
0
  6
CONTINUOUS
 66
     1
 40
0.000000
 41
0.000000
  0
VERTEX
  8
0
  6
CONTINUOUS
 10
4.376240
 20
2.199560
  0
VERTEX
  8
0
  6
CONTINUOUS
 10
5.021280
 20
2.560800
  0
VERTEX
  8
0
  6
CONTINUOUS
 10
4.996200
 20
2.543200
  0
VERTEX
  8
0
  6
CONTINUOUS
 10
4.351160
 20
2.181960
  0
VERTEX
  8
0
  6
CONTINUOUS
 10
4.376240
 20
2.199560
  0
SEQEND
  8
0
  0
SOLID
  8
0
 62
     7
 10
4.326960
 20
2.117280
 11
4.972000
 21
2.478960
 12
4.338840
 22
2.071960
 13
4.983880
 23
2.433200
  0
POLYLINE
  8
0
  6
CONTINUOUS
 66
     1
 40
0.000000
 41
0.000000
  0
VERTEX
  8
0
  6
CONTINUOUS
 10
4.326960
 20
2.117280
  0
VERTEX
  8
0
  6
CONTINUOUS
 10
4.972000
 20
2.478960
  0
VERTEX
  8
0
  6
CONTINUOUS
 10
4.983880
 20
2.433200
  0
VERTEX
  8
0
  6
CONTINUOUS
 10
4.338840
 20
2.071960
  0
VERTEX
  8
0
  6
CONTINUOUS
 10
4.326960
 20
2.117280
  0
SEQEND
  8
0
  0
SOLID
  8
0
 62
     7
 10
4.338840
 20
2.071960
 11
4.983880
 21
2.433200
 12
4.356000
 22
2.030160
 13
5.001040
 23
2.391400
  0
POLYLINE
  8
0
  6
CONTINUOUS
 66
     1
 40
0.000000
 41
0.000000
  0
VERTEX
  8
0
  6
CONTINUOUS
 10
4.338840
 20
2.071960
  0
VERTEX
  8
0
  6
CONTINUOUS
 10
4.983880
 20
2.433200
  0
VERTEX
  8
0
  6
CONTINUOUS
 10
5.001040
 20
2.391400
  0
VERTEX
  8
0
  6
CONTINUOUS
 10
4.356000
 20
2.030160
  0
VERTEX
  8
0
  6
CONTINUOUS
 10
4.338840
 20
2.071960
  0
SEQEND
  8
0
  0
SOLID
  8
0
 62
     7
 10
4.356000
 20
2.030160
 11
5.001040
 21
2.391400
 12
4.377120
 22
1.992320
 13
5.022600
 23
2.353560
  0
POLYLINE
  8
0
  6
CONTINUOUS
 66
     1
 40
0.000000
 41
0.000000
  0
VERTEX
  8
0
  6
CONTINUOUS
 10
4.356000
 20
2.030160
  0
VERTEX
  8
0
  6
CONTINUOUS
 10
5.001040
 20
2.391400
  0
VERTEX
  8
0
  6
CONTINUOUS
 10
5.022600
 20
2.353560
  0
VERTEX
  8
0
  6
CONTINUOUS
 10
4.377120
 20
1.992320
  0
VERTEX
  8
0
  6
CONTINUOUS
 10
4.356000
 20
2.030160
  0
SEQEND
  8
0
  0
SOLID
  8
0
 62
     7
 10
4.377120
 20
1.992320
 11
5.022600
 21
2.353560
 12
4.430800
 22
1.927200
 13
5.075840
 23
2.288440
  0
POLYLINE
  8
0
  6
CONTINUOUS
 66
     1
 40
0.000000
 41
0.000000
  0
VERTEX
  8
0
  6
CONTINUOUS
 10
4.377120
 20
1.992320
  0
VERTEX
  8
0
  6
CONTINUOUS
 10
5.022600
 20
2.353560
  0
VERTEX
  8
0
  6
CONTINUOUS
 10
5.075840
 20
2.288440
  0
VERTEX
  8
0
  6
CONTINUOUS
 10
4.430800
 20
1.927200
  0
VERTEX
  8
0
  6
CONTINUOUS
 10
4.377120
 20
1.992320
  0
SEQEND
  8
0
  0
SOLID
  8
0
 62
    15
 10
4.430800
 20
1.927200
 11
5.075840
 21
2.288440
 12
4.494600
 22
1.875720
 13
5.140080
 23
2.236960
  0
POLYLINE
  8
0
  6
CONTINUOUS
 66
     1
 40
0.000000
 41
0.000000
  0
VERTEX
  8
0
  6
CONTINUOUS
 10
4.430800
 20
1.927200
  0
VERTEX
  8
0
  6
CONTINUOUS
 10
5.075840
 20
2.288440
  0
VERTEX
  8
0
  6
CONTINUOUS
 10
5.140080
 20
2.236960
  0
VERTEX
  8
0
  6
CONTINUOUS
 10
4.494600
 20
1.875720
  0
VERTEX
  8
0
  6
CONTINUOUS
 10
4.430800
 20
1.927200
  0
SEQEND
  8
0
  0
SOLID
  8
0
 62
    15
 10
4.494600
 20
1.875720
 11
5.140080
 21
2.236960
 12
4.565000
 22
1.837440
 13
5.210480
 23
2.198680
  0
POLYLINE
  8
0
  6
CONTINUOUS
 66
     1
 40
0.000000
 41
0.000000
  0
VERTEX
  8
0
  6
CONTINUOUS
 10
4.494600
 20
1.875720
  0
VERTEX
  8
0
  6
CONTINUOUS
 10
5.140080
 20
2.236960
  0
VERTEX
  8
0
  6
CONTINUOUS
 10
5.210480
 20
2.198680
  0
VERTEX
  8
0
  6
CONTINUOUS
 10
4.565000
 20
1.837440
  0
VERTEX
  8
0
  6
CONTINUOUS
 10
4.494600
 20
1.875720
  0
SEQEND
  8
0
  0
SOLID
  8
0
 62
    15
 10
4.565000
 20
1.837440
 11
5.210480
 21
2.198680
 12
4.637600
 22
1.811480
 13
5.282640
 23
2.173160
  0
POLYLINE
  8
0
  6
CONTINUOUS
 66
     1
 40
0.000000
 41
0.000000
  0
VERTEX
  8
0
  6
CONTINUOUS
 10
4.565000
 20
1.837440
  0
VERTEX
  8
0
  6
CONTINUOUS
 10
5.210480
 20
2.198680
  0
VERTEX
  8
0
  6
CONTINUOUS
 10
5.282640
 20
2.173160
  0
VERTEX
  8
0
  6
CONTINUOUS
 10
4.637600
 20
1.811480
  0
VERTEX
  8
0
  6
CONTINUOUS
 10
4.565000
 20
1.837440
  0
SEQEND
  8
0
  0
SOLID
  8
0
 62
    15
 10
4.637600
 20
1.811480
 11
5.282640
 21
2.173160
 12
4.707560
 22
1.797400
 13
5.352600
 23
2.158640
  0
POLYLINE
  8
0
  6
CONTINUOUS
 66
     1
 40
0.000000
 41
0.000000
  0
VERTEX
  8
0
  6
CONTINUOUS
 10
4.637600
 20
1.811480
  0
VERTEX
  8
0
  6
CONTINUOUS
 10
5.282640
 20
2.173160
  0
VERTEX
  8
0
  6
CONTINUOUS
 10
5.352600
 20
2.158640
  0
VERTEX
  8
0
  6
CONTINUOUS
 10
4.707560
 20
1.797400
  0
VERTEX
  8
0
  6
CONTINUOUS
 10
4.637600
 20
1.811480
  0
SEQEND
  8
0
  0
SOLID
  8
0
 62
    15
 10
4.247320
 20
2.436280
 11
4.892800
 21
2.797960
 12
4.310240
 22
2.427920
 13
4.955280
 23
2.789160
  0
POLYLINE
  8
0
  6
CONTINUOUS
 66
     1
 40
0.000000
 41
0.000000
  0
VERTEX
  8
0
  6
CONTINUOUS
 10
4.247320
 20
2.436280
  0
VERTEX
  8
0
  6
CONTINUOUS
 10
4.892800
 20
2.797960
  0
VERTEX
  8
0
  6
CONTINUOUS
 10
4.955280
 20
2.789160
  0
VERTEX
  8
0
  6
CONTINUOUS
 10
4.310240
 20
2.427920
  0
VERTEX
  8
0
  6
CONTINUOUS
 10
4.247320
 20
2.436280
  0
SEQEND
  8
0
  0
SOLID
  8
0
 62
    15
 10
4.770480
 20
1.793880
 11
5.415520
 21
2.155560
 12
4.786320
 22
1.669800
 13
5.431360
 23
2.031040
  0
POLYLINE
  8
0
  6
CONTINUOUS
 66
     1
 40
0.000000
 41
0.000000
  0
VERTEX
  8
0
  6
CONTINUOUS
 10
4.770480
 20
1.793880
  0
VERTEX
  8
0
  6
CONTINUOUS
 10
5.415520
 20
2.155560
  0
VERTEX
  8
0
  6
CONTINUOUS
 10
5.431360
 20
2.031040
  0
VERTEX
  8
0
  6
CONTINUOUS
 10
4.786320
 20
1.669800
  0
VERTEX
  8
0
  6
CONTINUOUS
 10
4.770480
 20
1.793880
  0
SEQEND
  8
0
  0
SOLID
  8
0
 62
    15
 10
4.786320
 20
1.669800
 11
5.431360
 21
2.031040
 12
4.871240
 22
1.658800
 13
5.516280
 23
2.020040
  0
POLYLINE
  8
0
  6
CONTINUOUS
 66
     1
 40
0.000000
 41
0.000000
  0
VERTEX
  8
0
  6
CONTINUOUS
 10
4.786320
 20
1.669800
  0
VERTEX
  8
0
  6
CONTINUOUS
 10
5.431360
 20
2.031040
  0
VERTEX
  8
0
  6
CONTINUOUS
 10
5.516280
 20
2.020040
  0
VERTEX
  8
0
  6
CONTINUOUS
 10
4.871240
 20
1.658800
  0
VERTEX
  8
0
  6
CONTINUOUS
 10
4.786320
 20
1.669800
  0
SEQEND
  8
0
  0
SOLID
  8
0
 62
    15
 10
4.871240
 20
1.658800
 11
5.516280
 21
2.020040
 12
4.945600
 22
1.634160
 13
5.590640
 23
1.995400
  0
POLYLINE
  8
0
  6
CONTINUOUS
 66
     1
 40
0.000000
 41
0.000000
  0
VERTEX
  8
0
  6
CONTINUOUS
 10
4.871240
 20
1.658800
  0
VERTEX
  8
0
  6
CONTINUOUS
 10
5.516280
 20
2.020040
  0
VERTEX
  8
0
  6
CONTINUOUS
 10
5.590640
 20
1.995400
  0
VERTEX
  8
0
  6
CONTINUOUS
 10
4.945600
 20
1.634160
  0
VERTEX
  8
0
  6
CONTINUOUS
 10
4.871240
 20
1.658800
  0
SEQEND
  8
0
  0
SOLID
  8
0
 62
    15
 10
4.945600
 20
1.634160
 11
5.590640
 21
1.995400
 12
5.008960
 22
1.598520
 13
5.654000
 23
1.959760
  0
POLYLINE
  8
0
  6
CONTINUOUS
 66
     1
 40
0.000000
 41
0.000000
  0
VERTEX
  8
0
  6
CONTINUOUS
 10
4.945600
 20
1.634160
  0
VERTEX
  8
0
  6
CONTINUOUS
 10
5.590640
 20
1.995400
  0
VERTEX
  8
0
  6
CONTINUOUS
 10
5.654000
 20
1.959760
  0
VERTEX
  8
0
  6
CONTINUOUS
 10
5.008960
 20
1.598520
  0
VERTEX
  8
0
  6
CONTINUOUS
 10
4.945600
 20
1.634160
  0
SEQEND
  8
0
  0
SOLID
  8
0
 62
    15
 10
5.008960
 20
1.598520
 11
5.654000
 21
1.959760
 12
5.061760
 22
1.553200
 13
5.706800
 23
1.914440
  0
POLYLINE
  8
0
  6
CONTINUOUS
 66
     1
 40
0.000000
 41
0.000000
  0
VERTEX
  8
0
  6
CONTINUOUS
 10
5.008960
 20
1.598520
  0
VERTEX
  8
0
  6
CONTINUOUS
 10
5.654000
 20
1.959760
  0
VERTEX
  8
0
  6
CONTINUOUS
 10
5.706800
 20
1.914440
  0
VERTEX
  8
0
  6
CONTINUOUS
 10
5.061760
 20
1.553200
  0
VERTEX
  8
0
  6
CONTINUOUS
 10
5.008960
 20
1.598520
  0
SEQEND
  8
0
  0
SOLID
  8
0
 62
     7
 10
5.061760
 20
1.553200
 11
5.706800
 21
1.914440
 12
5.104000
 22
1.499960
 13
5.749040
 23
1.861640
  0
POLYLINE
  8
0
  6
CONTINUOUS
 66
     1
 40
0.000000
 41
0.000000
  0
VERTEX
  8
0
  6
CONTINUOUS
 10
5.061760
 20
1.553200
  0
VERTEX
  8
0
  6
CONTINUOUS
 10
5.706800
 20
1.914440
  0
VERTEX
  8
0
  6
CONTINUOUS
 10
5.749040
 20
1.861640
  0
VERTEX
  8
0
  6
CONTINUOUS
 10
5.104000
 20
1.499960
  0
VERTEX
  8
0
  6
CONTINUOUS
 10
5.061760
 20
1.553200
  0
SEQEND
  8
0
  0
SOLID
  8
0
 62
     7
 10
5.104000
 20
1.499960
 11
5.749040
 21
1.861640
 12
5.135240
 22
1.441440
 13
5.780280
 23
1.803120
  0
POLYLINE
  8
0
  6
CONTINUOUS
 66
     1
 40
0.000000
 41
0.000000
  0
VERTEX
  8
0
  6
CONTINUOUS
 10
5.104000
 20
1.499960
  0
VERTEX
  8
0
  6
CONTINUOUS
 10
5.749040
 20
1.861640
  0
VERTEX
  8
0
  6
CONTINUOUS
 10
5.780280
 20
1.803120
  0
VERTEX
  8
0
  6
CONTINUOUS
 10
5.135240
 20
1.441440
  0
VERTEX
  8
0
  6
CONTINUOUS
 10
5.104000
 20
1.499960
  0
SEQEND
  8
0
  0
SOLID
  8
0
 62
    15
 10
5.135240
 20
1.441440
 11
5.780280
 21
1.803120
 12
5.155920
 22
1.379400
 13
5.800960
 23
1.740640
  0
POLYLINE
  8
0
  6
CONTINUOUS
 66
     1
 40
0.000000
 41
0.000000
  0
VERTEX
  8
0
  6
CONTINUOUS
 10
5.135240
 20
1.441440
  0
VERTEX
  8
0
  6
CONTINUOUS
 10
5.780280
 20
1.803120
  0
VERTEX
  8
0
  6
CONTINUOUS
 10
5.800960
 20
1.740640
  0
VERTEX
  8
0
  6
CONTINUOUS
 10
5.155920
 20
1.379400
  0
VERTEX
  8
0
  6
CONTINUOUS
 10
5.135240
 20
1.441440
  0
SEQEND
  8
0
  0
SOLID
  8
0
 62
    15
 10
5.155920
 20
1.379400
 11
5.800960
 21
1.740640
 12
5.165600
 22
1.315160
 13
5.810640
 23
1.676400
  0
POLYLINE
  8
0
  6
CONTINUOUS
 66
     1
 40
0.000000
 41
0.000000
  0
VERTEX
  8
0
  6
CONTINUOUS
 10
5.155920
 20
1.379400
  0
VERTEX
  8
0
  6
CONTINUOUS
 10
5.800960
 20
1.740640
  0
VERTEX
  8
0
  6
CONTINUOUS
 10
5.810640
 20
1.676400
  0
VERTEX
  8
0
  6
CONTINUOUS
 10
5.165600
 20
1.315160
  0
VERTEX
  8
0
  6
CONTINUOUS
 10
5.155920
 20
1.379400
  0
SEQEND
  8
0
  0
SOLID
  8
0
 62
    15
 10
5.165600
 20
1.315160
 11
5.810640
 21
1.676400
 12
5.164280
 22
1.250480
 13
5.809760
 23
1.612160
  0
POLYLINE
  8
0
  6
CONTINUOUS
 66
     1
 40
0.000000
 41
0.000000
  0
VERTEX
  8
0
  6
CONTINUOUS
 10
5.165600
 20
1.315160
  0
VERTEX
  8
0
  6
CONTINUOUS
 10
5.810640
 20
1.676400
  0
VERTEX
  8
0
  6
CONTINUOUS
 10
5.809760
 20
1.612160
  0
VERTEX
  8
0
  6
CONTINUOUS
 10
5.164280
 20
1.250480
  0
VERTEX
  8
0
  6
CONTINUOUS
 10
5.165600
 20
1.315160
  0
SEQEND
  8
0
  0
SOLID
  8
0
 62
    15
 10
5.164280
 20
1.250480
 11
5.809760
 21
1.612160
 12
5.152840
 22
1.188440
 13
5.797880
 23
1.549680
  0
POLYLINE
  8
0
  6
CONTINUOUS
 66
     1
 40
0.000000
 41
0.000000
  0
VERTEX
  8
0
  6
CONTINUOUS
 10
5.164280
 20
1.250480
  0
VERTEX
  8
0
  6
CONTINUOUS
 10
5.809760
 20
1.612160
  0
VERTEX
  8
0
  6
CONTINUOUS
 10
5.797880
 20
1.549680
  0
VERTEX
  8
0
  6
CONTINUOUS
 10
5.152840
 20
1.188440
  0
VERTEX
  8
0
  6
CONTINUOUS
 10
5.164280
 20
1.250480
  0
SEQEND
  8
0
  0
SOLID
  8
0
 62
    15
 10
5.152840
 20
1.188440
 11
5.797880
 21
1.549680
 12
5.129960
 22
1.129920
 13
5.775000
 23
1.491160
  0
POLYLINE
  8
0
  6
CONTINUOUS
 66
     1
 40
0.000000
 41
0.000000
  0
VERTEX
  8
0
  6
CONTINUOUS
 10
5.152840
 20
1.188440
  0
VERTEX
  8
0
  6
CONTINUOUS
 10
5.797880
 20
1.549680
  0
VERTEX
  8
0
  6
CONTINUOUS
 10
5.775000
 20
1.491160
  0
VERTEX
  8
0
  6
CONTINUOUS
 10
5.129960
 20
1.129920
  0
VERTEX
  8
0
  6
CONTINUOUS
 10
5.152840
 20
1.188440
  0
SEQEND
  8
0
  0
SOLID
  8
0
 62
    15
 10
5.129960
 20
1.129920
 11
5.775000
 21
1.491160
 12
5.096520
 22
1.076680
 13
5.741560
 23
1.438360
  0
POLYLINE
  8
0
  6
CONTINUOUS
 66
     1
 40
0.000000
 41
0.000000
  0
VERTEX
  8
0
  6
CONTINUOUS
 10
5.129960
 20
1.129920
  0
VERTEX
  8
0
  6
CONTINUOUS
 10
5.775000
 20
1.491160
  0
VERTEX
  8
0
  6
CONTINUOUS
 10
5.741560
 20
1.438360
  0
VERTEX
  8
0
  6
CONTINUOUS
 10
5.096520
 20
1.076680
  0
VERTEX
  8
0
  6
CONTINUOUS
 10
5.129960
 20
1.129920
  0
SEQEND
  8
0
  0
SOLID
  8
0
 62
    15
 10
5.096520
 20
1.076680
 11
5.741560
 21
1.438360
 12
5.052080
 22
1.031360
 13
5.697120
 23
1.393040
  0
POLYLINE
  8
0
  6
CONTINUOUS
 66
     1
 40
0.000000
 41
0.000000
  0
VERTEX
  8
0
  6
CONTINUOUS
 10
5.096520
 20
1.076680
  0
VERTEX
  8
0
  6
CONTINUOUS
 10
5.741560
 20
1.438360
  0
VERTEX
  8
0
  6
CONTINUOUS
 10
5.697120
 20
1.393040
  0
VERTEX
  8
0
  6
CONTINUOUS
 10
5.052080
 20
1.031360
  0
VERTEX
  8
0
  6
CONTINUOUS
 10
5.096520
 20
1.076680
  0
SEQEND
  8
0
  0
SOLID
  8
0
 62
    15
 10
5.052080
 20
1.031360
 11
5.697120
 21
1.393040
 12
4.996640
 22
0.995720
 13
5.641680
 23
1.356960
  0
POLYLINE
  8
0
  6
CONTINUOUS
 66
     1
 40
0.000000
 41
0.000000
  0
VERTEX
  8
0
  6
CONTINUOUS
 10
5.052080
 20
1.031360
  0
VERTEX
  8
0
  6
CONTINUOUS
 10
5.697120
 20
1.393040
  0
VERTEX
  8
0
  6
CONTINUOUS
 10
5.641680
 20
1.356960
  0
VERTEX
  8
0
  6
CONTINUOUS
 10
4.996640
 20
0.995720
  0
VERTEX
  8
0
  6
CONTINUOUS
 10
5.052080
 20
1.031360
  0
SEQEND
  8
0
  0
SOLID
  8
0
 62
    15
 10
4.055920
 20
2.534840
 11
4.700960
 21
2.896080
 12
4.246880
 22
2.534840
 13
4.891920
 23
2.896080
  0
POLYLINE
  8
0
  6
CONTINUOUS
 66
     1
 40
0.000000
 41
0.000000
  0
VERTEX
  8
0
  6
CONTINUOUS
 10
4.055920
 20
2.534840
  0
VERTEX
  8
0
  6
CONTINUOUS
 10
4.700960
 20
2.896080
  0
VERTEX
  8
0
  6
CONTINUOUS
 10
4.891920
 20
2.896080
  0
VERTEX
  8
0
  6
CONTINUOUS
 10
4.246880
 20
2.534840
  0
VERTEX
  8
0
  6
CONTINUOUS
 10
4.055920
 20
2.534840
  0
SEQEND
  8
0
  0
SOLID
  8
0
 62
    15
 10
4.246880
 20
2.534840
 11
4.891920
 21
2.896080
 12
4.246880
 22
2.436280
 13
4.891920
 23
2.797960
  0
POLYLINE
  8
0
  6
CONTINUOUS
 66
     1
 40
0.000000
 41
0.000000
  0
VERTEX
  8
0
  6
CONTINUOUS
 10
4.246880
 20
2.534840
  0
VERTEX
  8
0
  6
CONTINUOUS
 10
4.891920
 20
2.896080
  0
VERTEX
  8
0
  6
CONTINUOUS
 10
4.891920
 20
2.797960
  0
VERTEX
  8
0
  6
CONTINUOUS
 10
4.246880
 20
2.436280
  0
VERTEX
  8
0
  6
CONTINUOUS
 10
4.246880
 20
2.534840
  0
SEQEND
  8
0
  0
SOLID
  8
0
 62
    15
 10
4.246880
 20
2.436280
 11
4.891920
 21
2.797960
 12
4.247320
 22
2.436280
 13
4.892800
 23
2.797960
  0
POLYLINE
  8
0
  6
CONTINUOUS
 66
     1
 40
0.000000
 41
0.000000
  0
VERTEX
  8
0
  6
CONTINUOUS
 10
4.246880
 20
2.436280
  0
VERTEX
  8
0
  6
CONTINUOUS
 10
4.891920
 20
2.797960
  0
VERTEX
  8
0
  6
CONTINUOUS
 10
4.892800
 20
2.797960
  0
VERTEX
  8
0
  6
CONTINUOUS
 10
4.247320
 20
2.436280
  0
VERTEX
  8
0
  6
CONTINUOUS
 10
4.246880
 20
2.436280
  0
SEQEND
  8
0
  0
POLYLINE
  8
0
  6
CONTINUOUS
 66
     1
 40
0.000000
 41
0.000000
  0
VERTEX
  8
0
  6
CONTINUOUS
 10
4.247320
 20
2.436280
  0
VERTEX
  8
0
  6
CONTINUOUS
 10
4.310240
 20
2.427920
  0
VERTEX
  8
0
  6
CONTINUOUS
 10
4.360840
 20
2.404600
  0
VERTEX
  8
0
  6
CONTINUOUS
 10
4.397800
 20
2.370280
  0
VERTEX
  8
0
  6
CONTINUOUS
 10
4.419800
 20
2.328920
  0
VERTEX
  8
0
  6
CONTINUOUS
 10
4.424640
 20
2.284040
  0
VERTEX
  8
0
  6
CONTINUOUS
 10
4.410560
 20
2.239600
  0
VERTEX
  8
0
  6
CONTINUOUS
 10
4.396040
 20
2.218920
  0
VERTEX
  8
0
  6
CONTINUOUS
 10
4.376240
 20
2.199560
  0
VERTEX
  8
0
  6
CONTINUOUS
 10
4.351160
 20
2.181960
  0
VERTEX
  8
0
  6
CONTINUOUS
 10
4.319920
 20
2.167000
  0
VERTEX
  8
0
  6
CONTINUOUS
 10
4.326960
 20
2.117280
  0
VERTEX
  8
0
  6
CONTINUOUS
 10
4.338840
 20
2.071960
  0
VERTEX
  8
0
  6
CONTINUOUS
 10
4.356000
 20
2.030160
  0
VERTEX
  8
0
  6
CONTINUOUS
 10
4.377120
 20
1.992320
  0
VERTEX
  8
0
  6
CONTINUOUS
 10
4.430800
 20
1.927200
  0
VERTEX
  8
0
  6
CONTINUOUS
 10
4.494600
 20
1.875720
  0
VERTEX
  8
0
  6
CONTINUOUS
 10
4.565000
 20
1.837440
  0
VERTEX
  8
0
  6
CONTINUOUS
 10
4.637600
 20
1.811480
  0
VERTEX
  8
0
  6
CONTINUOUS
 10
4.707560
 20
1.797400
  0
VERTEX
  8
0
  6
CONTINUOUS
 10
4.770480
 20
1.793880
  0
VERTEX
  8
0
  6
CONTINUOUS
 10
4.786320
 20
1.669800
  0
VERTEX
  8
0
  6
CONTINUOUS
 10
4.871240
 20
1.658800
  0
VERTEX
  8
0
  6
CONTINUOUS
 10
4.945600
 20
1.634160
  0
VERTEX
  8
0
  6
CONTINUOUS
 10
5.008960
 20
1.598520
  0
VERTEX
  8
0
  6
CONTINUOUS
 10
5.061760
 20
1.553200
  0
VERTEX
  8
0
  6
CONTINUOUS
 10
5.104000
 20
1.499960
  0
VERTEX
  8
0
  6
CONTINUOUS
 10
5.135240
 20
1.441440
  0
VERTEX
  8
0
  6
CONTINUOUS
 10
5.155920
 20
1.379400
  0
VERTEX
  8
0
  6
CONTINUOUS
 10
5.165600
 20
1.315160
  0
VERTEX
  8
0
  6
CONTINUOUS
 10
5.164280
 20
1.250480
  0
VERTEX
  8
0
  6
CONTINUOUS
 10
5.152840
 20
1.188440
  0
VERTEX
  8
0
  6
CONTINUOUS
 10
5.129960
 20
1.129920
  0
VERTEX
  8
0
  6
CONTINUOUS
 10
5.096520
 20
1.076680
  0
VERTEX
  8
0
  6
CONTINUOUS
 10
5.052080
 20
1.031360
  0
VERTEX
  8
0
  6
CONTINUOUS
 10
4.996640
 20
0.995720
  0
VERTEX
  8
0
  6
CONTINUOUS
 10
4.930640
 20
0.971080
  0
VERTEX
  8
0
  6
CONTINUOUS
 10
4.853640
 20
0.960080
  0
VERTEX
  8
0
  6
CONTINUOUS
 10
4.055920
 20
0.960080
  0
VERTEX
  8
0
  6
CONTINUOUS
 10
4.055920
 20
2.534840
  0
VERTEX
  8
0
  6
CONTINUOUS
 10
4.246880
 20
2.534840
  0
VERTEX
  8
0
  6
CONTINUOUS
 10
4.246880
 20
2.436280
  0
VERTEX
  8
0
  6
CONTINUOUS
 10
4.247320
 20
2.436280
  0
SEQEND
  8
0
  0
TEXT
  8
0
 10
4.638480
 20
0.723360
 40
0.138158
  1
BA  881
 41
1.000000
  7
SN0
 71
     0
 72
     5
 11
5.229084
 21
0.723360
  0
TEXT
  8
0
 10
4.408800
 20
0.531520
 40
0.138158
  1
1-1/8" x 1-5/8"
 41
1.000000
  7
SN0
 71
     0
 72
     5
 11
5.457507
 21
0.531520
  0
POLYLINE
  8
0
  6
CONTINUOUS
 66
     1
 40
0.014080
 41
0.014080
  0
VERTEX
  8
0
  6
CONTINUOUS
 10
6.269120
 20
2.808960
  0
VERTEX
  8
0
  6
CONTINUOUS
 10
6.301680
 20
2.806760
  0
VERTEX
  8
0
  6
CONTINUOUS
 10
6.331600
 20
2.800160
  0
VERTEX
  8
0
  6
CONTINUOUS
 10
6.358440
 20
2.790480
  0
VERTEX
  8
0
  6
CONTINUOUS
 10
6.382200
 20
2.777280
  0
VERTEX
  8
0
  6
CONTINUOUS
 10
6.402880
 20
2.761000
  0
VERTEX
  8
0
  6
CONTINUOUS
 10
6.419600
 20
2.742960
  0
VERTEX
  8
0
  6
CONTINUOUS
 10
6.432360
 20
2.722720
  0
VERTEX
  8
0
  6
CONTINUOUS
 10
6.441160
 20
2.701600
  0
VERTEX
  8
0
  6
CONTINUOUS
 10
6.445560
 20
2.679160
  0
VERTEX
  8
0
  6
CONTINUOUS
 10
6.446000
 20
2.656720
  0
VERTEX
  8
0
  6
CONTINUOUS
 10
6.441600
 20
2.634280
  0
VERTEX
  8
0
  6
CONTINUOUS
 10
6.431920
 20
2.612280
  0
VERTEX
  8
0
  6
CONTINUOUS
 10
6.417400
 20
2.591600
  0
VERTEX
  8
0
  6
CONTINUOUS
 10
6.397600
 20
2.572240
  0
VERTEX
  8
0
  6
CONTINUOUS
 10
6.372520
 20
2.554640
  0
VERTEX
  8
0
  6
CONTINUOUS
 10
6.341280
 20
2.539680
  0
VERTEX
  8
0
  6
CONTINUOUS
 10
6.343920
 20
2.514600
  0
VERTEX
  8
0
  6
CONTINUOUS
 10
6.353600
 20
2.467080
  0
VERTEX
  8
0
  6
CONTINUOUS
 10
6.368120
 20
2.423080
  0
VERTEX
  8
0
  6
CONTINUOUS
 10
6.387480
 20
2.383480
  0
VERTEX
  8
0
  6
CONTINUOUS
 10
6.410800
 20
2.347400
  0
VERTEX
  8
0
  6
CONTINUOUS
 10
6.437640
 20
2.314840
  0
VERTEX
  8
0
  6
CONTINUOUS
 10
6.467560
 20
2.285800
  0
VERTEX
  8
0
  6
CONTINUOUS
 10
6.499680
 20
2.259840
  0
VERTEX
  8
0
  6
CONTINUOUS
 10
6.551160
 20
2.227720
  0
VERTEX
  8
0
  6
CONTINUOUS
 10
6.586800
 20
2.210120
  0
VERTEX
  8
0
  6
CONTINUOUS
 10
6.622880
 20
2.195600
  0
VERTEX
  8
0
  6
CONTINUOUS
 10
6.677000
 20
2.179760
  0
VERTEX
  8
0
  6
CONTINUOUS
 10
6.728920
 20
2.170080
  0
VERTEX
  8
0
  6
CONTINUOUS
 10
6.777320
 20
2.167000
  0
VERTEX
  8
0
  6
CONTINUOUS
 10
6.792280
 20
2.167000
  0
VERTEX
  8
0
  6
CONTINUOUS
 10
6.807680
 20
2.042480
  0
VERTEX
  8
0
  6
CONTINUOUS
 10
6.851680
 20
2.038520
  0
VERTEX
  8
0
  6
CONTINUOUS
 10
6.892600
 20
2.031480
  0
VERTEX
  8
0
  6
CONTINUOUS
 10
6.949360
 20
2.014320
  0
VERTEX
  8
0
  6
CONTINUOUS
 10
6.983680
 20
1.998920
  0
VERTEX
  8
0
  6
CONTINUOUS
 10
7.030760
 20
1.971200
  0
VERTEX
  8
0
  6
CONTINUOUS
 10
7.058480
 20
1.949640
  0
VERTEX
  8
0
  6
CONTINUOUS
 10
7.083560
 20
1.925880
  0
VERTEX
  8
0
  6
CONTINUOUS
 10
7.106000
 20
1.900360
  0
VERTEX
  8
0
  6
CONTINUOUS
 10
7.134160
 20
1.859000
  0
VERTEX
  8
0
  6
CONTINUOUS
 10
7.157040
 20
1.814560
  0
VERTEX
  8
0
  6
CONTINUOUS
 10
7.173320
 20
1.767920
  0
VERTEX
  8
0
  6
CONTINUOUS
 10
7.183440
 20
1.719960
  0
VERTEX
  8
0
  6
CONTINUOUS
 10
7.187400
 20
1.687840
  0
VERTEX
  8
0
  6
CONTINUOUS
 10
7.187400
 20
1.639440
  0
VERTEX
  8
0
  6
CONTINUOUS
 10
7.181680
 20
1.591920
  0
VERTEX
  8
0
  6
CONTINUOUS
 10
7.169800
 20
1.546160
  0
VERTEX
  8
0
  6
CONTINUOUS
 10
7.151760
 20
1.502600
  0
VERTEX
  8
0
  6
CONTINUOUS
 10
7.127560
 20
1.462120
  0
VERTEX
  8
0
  6
CONTINUOUS
 10
7.097200
 20
1.426040
  0
VERTEX
  8
0
  6
CONTINUOUS
 10
7.060680
 20
1.394360
  0
VERTEX
  8
0
  6
CONTINUOUS
 10
7.032960
 20
1.376320
  0
VERTEX
  8
0
  6
CONTINUOUS
 10
7.002600
 20
1.361360
  0
VERTEX
  8
0
  6
CONTINUOUS
 10
6.969600
 20
1.349040
  0
VERTEX
  8
0
  6
CONTINUOUS
 10
6.933960
 20
1.339800
  0
VERTEX
  8
0
  6
CONTINUOUS
 10
6.895240
 20
1.334080
  0
VERTEX
  8
0
  6
CONTINUOUS
 10
6.875000
 20
1.332760
  0
VERTEX
  8
0
  6
CONTINUOUS
 10
6.077280
 20
1.332760
  0
VERTEX
  8
0
  6
CONTINUOUS
 10
6.077280
 20
2.907520
  0
VERTEX
  8
0
  6
CONTINUOUS
 10
6.268240
 20
2.907520
  0
VERTEX
  8
0
  6
CONTINUOUS
 10
6.268240
 20
2.808960
  0
SEQEND
  8
0
  0
ENDSEC
  0
EOF
