  0
SECTION
  2
HEADER
  9
$ACADVER
  1
AC1006
  9
$EXTMIN
 10
4.782800
 20
0.729520
  9
$EXTMAX
 10
7.735640
 20
2.550240
  9
$LTSCALE
 40
0.044000
  9
$PDMODE
 70
    35
  9
$PDSIZE
 40
0.035200
  0
ENDSEC
  0
SECTION
  2
TABLES
  0
TABLE
  2
LTYPE
 70
     9
  0
LTYPE
  2
CONTINUOUS
 70
    64
  3
Solid line
 72
    65
 73
     0
 40
0.000000
  0
LTYPE
  2
DASHED
 70
    64
  3
__ __ __ __ __ __ __ __ __ __ __ __ __ __ __
 72
    65
 73
     2
 40
0.000330
 49
0.000220
 49
-0.000110
  0
LTYPE
  2
HIDDEN
 70
    64
  3
 _ _ _ _ _ _ _ _ _ _ _ _ _ _ _ _ _ _ _ _ _ _
 72
    65
 73
     2
 40
0.000165
 49
0.000110
 49
-0.000055
  0
LTYPE
  2
CENTER
 70
    64
  3
____ _ ____ _ ____ _ ____ _ ____ _ ____ _ ____
 72
    65
 73
     4
 40
0.000880
 49
0.000550
 49
-0.000110
 49
0.000110
 49
-0.000110
  0
LTYPE
  2
PHANTOM
 70
    64
  3
_____ _ _ _____ _ _ _____ _ _ _____ _ _ ____
 72
    65
 73
     6
 40
0.001100
 49
0.000550
 49
-0.000110
 49
0.000110
 49
-0.000110
 49
0.000110
 49
-0.000110
  0
LTYPE
  2
DOT
 70
    64
  3
...............................................
 72
    65
 73
     2
 40
0.000110
 49
0.000000
 49
-0.000110
  0
LTYPE
  2
DASHDOT
 70
    64
  3
__ . __ . __ . __ . __ . __ . __ . __ . __ . __
 72
    65
 73
     4
 40
0.000440
 49
0.000220
 49
-0.000110
 49
0.000000
 49
-0.000110
  0
LTYPE
  2
BORDER
 70
    64
  3
__ __ . __ __ . __ __ . __ __ . __ __ . __ __
 72
    65
 73
     6
 40
0.000770
 49
0.000220
 49
-0.000110
 49
0.000220
 49
-0.000110
 49
0.000000
 49
-0.000110
  0
LTYPE
  2
DIVIDE
 70
    64
  3
__ . . __ . . __ . . __ . . __ . . __ . . __
 72
    65
 73
     6
 40
0.000550
 49
0.000220
 49
-0.000110
 49
0.000000
 49
-0.000110
 49
0.000000
 49
-0.000110
  0
LTYPE
  2
DOTDOT
 70
    64
  3
 . .  . .  . .  . .  . .  . . 
 72
    65
 73
     5
 40
0.000242
 49
-0.000110
 49
0.000000
 49
-0.000110
 49
0.000000
 49
-0.000110
  0
ENDTAB
  0
TABLE
  2
STYLE
 70
     2
  0
STYLE
 70
     0
  2
SN0
 40
0.000000
 41
0.000440
 50
0.000000
 71
     0
 42
0.000000
  3
ROMAND
  0
STYLE
 70
    68
  2
SV0
 40
0.000000
 41
0.000440
 50
0.000000
 71
     0
 42
0.000000
  3
ROMAND
  0
ENDTAB
  0
TABLE
  2
LAYER
 70
     3
  0
LAYER
  2
FOREGROUND
 70
    64
 62
     7
  6
CONTINUOUS
  0
LAYER
  2
BACKGROUND
 70
    65
 62
    -7
  6
CONTINUOUS
  0
LAYER
  2
0
 70
    64
 62
     7
  6
CONTINUOUS
  0
ENDTAB
  0
ENDSEC
  0
SECTION
  2
ENTITIES
  0
POLYLINE
  8
FOREGROUND
  6
CONTINUOUS
 66
     1
 40
0.000000
 41
0.000000
  0
VERTEX
  8
FOREGROUND
  6
CONTINUOUS
 10
0.000000
 20
3.279760
  0
VERTEX
  8
FOREGROUND
  6
CONTINUOUS
 10
8.499920
 20
3.279760
  0
VERTEX
  8
FOREGROUND
  6
CONTINUOUS
 10
8.499920
 20
-7.720240
  0
VERTEX
  8
FOREGROUND
  6
CONTINUOUS
 10
0.000000
 20
-7.720240
  0
VERTEX
  8
FOREGROUND
  6
CONTINUOUS
 10
0.000000
 20
3.279760
  0
SEQEND
  8
0
  0
POLYLINE
  8
FOREGROUND
  6
CONTINUOUS
 66
     1
 40
0.000000
 41
0.000000
  0
VERTEX
  8
FOREGROUND
  6
CONTINUOUS
 10
0.000000
 20
3.279760
  0
VERTEX
  8
FOREGROUND
  6
CONTINUOUS
 10
8.499920
 20
3.279760
  0
VERTEX
  8
FOREGROUND
  6
CONTINUOUS
 10
8.499920
 20
-7.720240
  0
VERTEX
  8
FOREGROUND
  6
CONTINUOUS
 10
0.000000
 20
-7.720240
  0
VERTEX
  8
FOREGROUND
  6
CONTINUOUS
 10
0.000000
 20
3.279760
  0
SEQEND
  8
0
  0
POLYLINE
  8
0
  6
CONTINUOUS
 66
     1
 40
0.014080
 41
0.014080
  0
VERTEX
  8
0
  6
CONTINUOUS
 10
7.645880
 20
1.977360
  0
VERTEX
  8
0
  6
CONTINUOUS
 10
7.645440
 20
1.998480
  0
VERTEX
  8
0
  6
CONTINUOUS
 10
7.642800
 20
2.018280
  0
VERTEX
  8
0
  6
CONTINUOUS
 10
7.633560
 20
2.053480
  0
VERTEX
  8
0
  6
CONTINUOUS
 10
7.626520
 20
2.069320
  0
VERTEX
  8
0
  6
CONTINUOUS
 10
7.608920
 20
2.096600
  0
VERTEX
  8
0
  6
CONTINUOUS
 10
7.587360
 20
2.118600
  0
VERTEX
  8
0
  6
CONTINUOUS
 10
7.562280
 20
2.135320
  0
VERTEX
  8
0
  6
CONTINUOUS
 10
7.534560
 20
2.147200
  0
VERTEX
  8
0
  6
CONTINUOUS
 10
7.505520
 20
2.153800
  0
VERTEX
  8
0
  6
CONTINUOUS
 10
7.475600
 20
2.155560
  0
VERTEX
  8
0
  6
CONTINUOUS
 10
7.461080
 20
2.154680
  0
VERTEX
  8
0
  6
CONTINUOUS
 10
7.431600
 20
2.148960
  0
VERTEX
  8
0
  6
CONTINUOUS
 10
7.404320
 20
2.138400
  0
VERTEX
  8
0
  6
CONTINUOUS
 10
7.378800
 20
2.123000
  0
VERTEX
  8
0
  6
CONTINUOUS
 10
7.357240
 20
2.103200
  0
VERTEX
  8
0
  6
CONTINUOUS
 10
7.347560
 20
2.091320
  0
VERTEX
  8
0
  6
CONTINUOUS
 10
7.332600
 20
2.064480
  0
VERTEX
  8
0
  6
CONTINUOUS
 10
7.326880
 20
2.049520
  0
VERTEX
  8
0
  6
CONTINUOUS
 10
7.320280
 20
2.016080
  0
VERTEX
  8
0
  6
CONTINUOUS
 10
7.298280
 20
2.020040
  0
VERTEX
  8
0
  6
CONTINUOUS
 10
7.277160
 20
2.025760
  0
VERTEX
  8
0
  6
CONTINUOUS
 10
7.237120
 20
2.041600
  0
VERTEX
  8
0
  6
CONTINUOUS
 10
7.200160
 20
2.062280
  0
VERTEX
  8
0
  6
CONTINUOUS
 10
7.166720
 20
2.088240
  0
VERTEX
  8
0
  6
CONTINUOUS
 10
7.135920
 20
2.117720
  0
VERTEX
  8
0
  6
CONTINUOUS
 10
7.108640
 20
2.150720
  0
VERTEX
  8
0
  6
CONTINUOUS
 10
7.084000
 20
2.186800
  0
VERTEX
  8
0
  6
CONTINUOUS
 10
7.062440
 20
2.225080
  0
VERTEX
  8
0
  6
CONTINUOUS
 10
7.035160
 20
2.285360
  0
VERTEX
  8
0
  6
CONTINUOUS
 10
7.014480
 20
2.347840
  0
VERTEX
  8
0
  6
CONTINUOUS
 10
7.003920
 20
2.389200
  0
VERTEX
  8
0
  6
CONTINUOUS
 10
6.993360
 20
2.449920
  0
VERTEX
  8
0
  6
CONTINUOUS
 10
6.988520
 20
2.507120
  0
VERTEX
  8
0
  6
CONTINUOUS
 10
6.988520
 20
2.542320
  0
VERTEX
  8
0
  6
CONTINUOUS
 10
6.857840
 20
2.542320
  0
VERTEX
  8
0
  6
CONTINUOUS
 10
6.857840
 20
1.790360
  0
VERTEX
  8
0
  6
CONTINUOUS
 10
7.728600
 20
1.790360
  0
VERTEX
  8
0
  6
CONTINUOUS
 10
7.728600
 20
1.973840
  0
VERTEX
  8
0
  6
CONTINUOUS
 10
7.645880
 20
1.973840
  0
VERTEX
  8
0
  6
CONTINUOUS
 10
7.645880
 20
1.977360
  0
SEQEND
  8
0
  0
TEXT
  8
0
 10
7.036920
 20
1.558040
 40
0.138050
  1
BA  879
 41
1.000000
  7
SN0
 71
     0
 72
     5
 11
7.627340
 21
1.558040
  0
TEXT
  8
0
 10
6.955080
 20
1.366640
 40
0.138050
  1
3/4" x 7/8"
 41
1.000000
  7
SN0
 71
     0
 72
     5
 11
7.708645
 21
1.366640
  0
SOLID
  8
0
 62
    15
 10
5.019080
 20
1.587520
 11
5.670280
 21
1.213520
 12
5.009400
 22
1.544400
 13
5.660600
 23
1.170400
  0
POLYLINE
  8
0
  6
CONTINUOUS
 66
     1
 40
0.000000
 41
0.000000
  0
VERTEX
  8
0
  6
CONTINUOUS
 10
5.019080
 20
1.587520
  0
VERTEX
  8
0
  6
CONTINUOUS
 10
5.670280
 20
1.213520
  0
VERTEX
  8
0
  6
CONTINUOUS
 10
5.660600
 20
1.170400
  0
VERTEX
  8
0
  6
CONTINUOUS
 10
5.009400
 20
1.544400
  0
VERTEX
  8
0
  6
CONTINUOUS
 10
5.019080
 20
1.587520
  0
SEQEND
  8
0
  0
SOLID
  8
0
 62
    15
 10
4.967160
 20
1.136080
 11
5.617920
 21
0.762080
 12
4.783680
 22
1.136080
 13
5.434440
 23
0.762080
  0
POLYLINE
  8
0
  6
CONTINUOUS
 66
     1
 40
0.000000
 41
0.000000
  0
VERTEX
  8
0
  6
CONTINUOUS
 10
4.967160
 20
1.136080
  0
VERTEX
  8
0
  6
CONTINUOUS
 10
5.617920
 20
0.762080
  0
VERTEX
  8
0
  6
CONTINUOUS
 10
5.434440
 20
0.762080
  0
VERTEX
  8
0
  6
CONTINUOUS
 10
4.783680
 20
1.136080
  0
VERTEX
  8
0
  6
CONTINUOUS
 10
4.967160
 20
1.136080
  0
SEQEND
  8
0
  0
SOLID
  8
0
 62
    15
 10
5.535640
 20
2.006840
 11
6.186840
 21
1.632840
 12
5.535640
 22
1.876160
 13
6.186840
 23
1.502160
  0
POLYLINE
  8
0
  6
CONTINUOUS
 66
     1
 40
0.000000
 41
0.000000
  0
VERTEX
  8
0
  6
CONTINUOUS
 10
5.535640
 20
2.006840
  0
VERTEX
  8
0
  6
CONTINUOUS
 10
6.186840
 20
1.632840
  0
VERTEX
  8
0
  6
CONTINUOUS
 10
6.186840
 20
1.502160
  0
VERTEX
  8
0
  6
CONTINUOUS
 10
5.535640
 20
1.876160
  0
VERTEX
  8
0
  6
CONTINUOUS
 10
5.535640
 20
2.006840
  0
SEQEND
  8
0
  0
SOLID
  8
0
 62
    15
 10
5.535640
 20
1.876160
 11
6.186840
 21
1.502160
 12
5.463040
 22
1.873520
 13
6.113800
 23
1.499520
  0
POLYLINE
  8
0
  6
CONTINUOUS
 66
     1
 40
0.000000
 41
0.000000
  0
VERTEX
  8
0
  6
CONTINUOUS
 10
5.535640
 20
1.876160
  0
VERTEX
  8
0
  6
CONTINUOUS
 10
6.186840
 20
1.502160
  0
VERTEX
  8
0
  6
CONTINUOUS
 10
6.113800
 20
1.499520
  0
VERTEX
  8
0
  6
CONTINUOUS
 10
5.463040
 20
1.873520
  0
VERTEX
  8
0
  6
CONTINUOUS
 10
5.535640
 20
1.876160
  0
SEQEND
  8
0
  0
SOLID
  8
0
 62
    15
 10
5.463040
 20
1.873520
 11
6.113800
 21
1.499520
 12
5.382520
 22
1.860760
 13
6.033280
 23
1.486320
  0
POLYLINE
  8
0
  6
CONTINUOUS
 66
     1
 40
0.000000
 41
0.000000
  0
VERTEX
  8
0
  6
CONTINUOUS
 10
5.463040
 20
1.873520
  0
VERTEX
  8
0
  6
CONTINUOUS
 10
6.113800
 20
1.499520
  0
VERTEX
  8
0
  6
CONTINUOUS
 10
6.033280
 20
1.486320
  0
VERTEX
  8
0
  6
CONTINUOUS
 10
5.382520
 20
1.860760
  0
VERTEX
  8
0
  6
CONTINUOUS
 10
5.463040
 20
1.873520
  0
SEQEND
  8
0
  0
SOLID
  8
0
 62
    15
 10
5.382520
 20
1.860760
 11
6.033280
 21
1.486320
 12
5.299360
 22
1.837000
 13
5.950120
 23
1.463000
  0
POLYLINE
  8
0
  6
CONTINUOUS
 66
     1
 40
0.000000
 41
0.000000
  0
VERTEX
  8
0
  6
CONTINUOUS
 10
5.382520
 20
1.860760
  0
VERTEX
  8
0
  6
CONTINUOUS
 10
6.033280
 20
1.486320
  0
VERTEX
  8
0
  6
CONTINUOUS
 10
5.950120
 20
1.463000
  0
VERTEX
  8
0
  6
CONTINUOUS
 10
5.299360
 20
1.837000
  0
VERTEX
  8
0
  6
CONTINUOUS
 10
5.382520
 20
1.860760
  0
SEQEND
  8
0
  0
SOLID
  8
0
 62
    15
 10
5.299360
 20
1.837000
 11
5.950120
 21
1.463000
 12
5.218400
 22
1.802240
 13
5.869160
 23
1.428240
  0
POLYLINE
  8
0
  6
CONTINUOUS
 66
     1
 40
0.000000
 41
0.000000
  0
VERTEX
  8
0
  6
CONTINUOUS
 10
5.299360
 20
1.837000
  0
VERTEX
  8
0
  6
CONTINUOUS
 10
5.950120
 20
1.463000
  0
VERTEX
  8
0
  6
CONTINUOUS
 10
5.869160
 20
1.428240
  0
VERTEX
  8
0
  6
CONTINUOUS
 10
5.218400
 20
1.802240
  0
VERTEX
  8
0
  6
CONTINUOUS
 10
5.299360
 20
1.837000
  0
SEQEND
  8
0
  0
SOLID
  8
0
 62
    15
 10
5.218400
 20
1.802240
 11
5.869160
 21
1.428240
 12
5.180120
 22
1.780680
 13
5.830880
 23
1.406680
  0
POLYLINE
  8
0
  6
CONTINUOUS
 66
     1
 40
0.000000
 41
0.000000
  0
VERTEX
  8
0
  6
CONTINUOUS
 10
5.218400
 20
1.802240
  0
VERTEX
  8
0
  6
CONTINUOUS
 10
5.869160
 20
1.428240
  0
VERTEX
  8
0
  6
CONTINUOUS
 10
5.830880
 20
1.406680
  0
VERTEX
  8
0
  6
CONTINUOUS
 10
5.180120
 20
1.780680
  0
VERTEX
  8
0
  6
CONTINUOUS
 10
5.218400
 20
1.802240
  0
SEQEND
  8
0
  0
SOLID
  8
0
 62
    15
 10
5.180120
 20
1.780680
 11
5.830880
 21
1.406680
 12
5.144040
 22
1.756040
 13
5.794800
 23
1.382040
  0
POLYLINE
  8
0
  6
CONTINUOUS
 66
     1
 40
0.000000
 41
0.000000
  0
VERTEX
  8
0
  6
CONTINUOUS
 10
5.180120
 20
1.780680
  0
VERTEX
  8
0
  6
CONTINUOUS
 10
5.830880
 20
1.406680
  0
VERTEX
  8
0
  6
CONTINUOUS
 10
5.794800
 20
1.382040
  0
VERTEX
  8
0
  6
CONTINUOUS
 10
5.144040
 20
1.756040
  0
VERTEX
  8
0
  6
CONTINUOUS
 10
5.180120
 20
1.780680
  0
SEQEND
  8
0
  0
SOLID
  8
0
 62
    15
 10
5.144040
 20
1.756040
 11
5.794800
 21
1.382040
 12
5.111040
 22
1.728320
 13
5.761800
 23
1.354320
  0
POLYLINE
  8
0
  6
CONTINUOUS
 66
     1
 40
0.000000
 41
0.000000
  0
VERTEX
  8
0
  6
CONTINUOUS
 10
5.144040
 20
1.756040
  0
VERTEX
  8
0
  6
CONTINUOUS
 10
5.794800
 20
1.382040
  0
VERTEX
  8
0
  6
CONTINUOUS
 10
5.761800
 20
1.354320
  0
VERTEX
  8
0
  6
CONTINUOUS
 10
5.111040
 20
1.728320
  0
VERTEX
  8
0
  6
CONTINUOUS
 10
5.144040
 20
1.756040
  0
SEQEND
  8
0
  0
SOLID
  8
0
 62
    15
 10
5.111040
 20
1.728320
 11
5.761800
 21
1.354320
 12
5.081120
 22
1.697960
 13
5.732320
 23
1.323960
  0
POLYLINE
  8
0
  6
CONTINUOUS
 66
     1
 40
0.000000
 41
0.000000
  0
VERTEX
  8
0
  6
CONTINUOUS
 10
5.111040
 20
1.728320
  0
VERTEX
  8
0
  6
CONTINUOUS
 10
5.761800
 20
1.354320
  0
VERTEX
  8
0
  6
CONTINUOUS
 10
5.732320
 20
1.323960
  0
VERTEX
  8
0
  6
CONTINUOUS
 10
5.081120
 20
1.697960
  0
VERTEX
  8
0
  6
CONTINUOUS
 10
5.111040
 20
1.728320
  0
SEQEND
  8
0
  0
SOLID
  8
0
 62
    15
 10
5.081120
 20
1.697960
 11
5.732320
 21
1.323960
 12
5.055600
 22
1.664520
 13
5.706800
 23
1.290080
  0
POLYLINE
  8
0
  6
CONTINUOUS
 66
     1
 40
0.000000
 41
0.000000
  0
VERTEX
  8
0
  6
CONTINUOUS
 10
5.081120
 20
1.697960
  0
VERTEX
  8
0
  6
CONTINUOUS
 10
5.732320
 20
1.323960
  0
VERTEX
  8
0
  6
CONTINUOUS
 10
5.706800
 20
1.290080
  0
VERTEX
  8
0
  6
CONTINUOUS
 10
5.055600
 20
1.664520
  0
VERTEX
  8
0
  6
CONTINUOUS
 10
5.081120
 20
1.697960
  0
SEQEND
  8
0
  0
SOLID
  8
0
 62
    15
 10
5.055600
 20
1.664520
 11
5.706800
 21
1.290080
 12
5.034920
 22
1.627560
 13
5.685680
 23
1.253560
  0
POLYLINE
  8
0
  6
CONTINUOUS
 66
     1
 40
0.000000
 41
0.000000
  0
VERTEX
  8
0
  6
CONTINUOUS
 10
5.055600
 20
1.664520
  0
VERTEX
  8
0
  6
CONTINUOUS
 10
5.706800
 20
1.290080
  0
VERTEX
  8
0
  6
CONTINUOUS
 10
5.685680
 20
1.253560
  0
VERTEX
  8
0
  6
CONTINUOUS
 10
5.034920
 20
1.627560
  0
VERTEX
  8
0
  6
CONTINUOUS
 10
5.055600
 20
1.664520
  0
SEQEND
  8
0
  0
SOLID
  8
0
 62
    15
 10
5.034920
 20
1.627560
 11
5.685680
 21
1.253560
 12
5.019080
 22
1.587520
 13
5.670280
 23
1.213520
  0
POLYLINE
  8
0
  6
CONTINUOUS
 66
     1
 40
0.000000
 41
0.000000
  0
VERTEX
  8
0
  6
CONTINUOUS
 10
5.034920
 20
1.627560
  0
VERTEX
  8
0
  6
CONTINUOUS
 10
5.685680
 20
1.253560
  0
VERTEX
  8
0
  6
CONTINUOUS
 10
5.670280
 20
1.213520
  0
VERTEX
  8
0
  6
CONTINUOUS
 10
5.019080
 20
1.587520
  0
VERTEX
  8
0
  6
CONTINUOUS
 10
5.034920
 20
1.627560
  0
SEQEND
  8
0
  0
SOLID
  8
0
 62
    15
 10
5.071880
 20
1.525040
 11
5.722640
 21
1.151040
 12
5.096520
 22
1.507440
 13
5.747280
 23
1.133440
  0
POLYLINE
  8
0
  6
CONTINUOUS
 66
     1
 40
0.000000
 41
0.000000
  0
VERTEX
  8
0
  6
CONTINUOUS
 10
5.071880
 20
1.525040
  0
VERTEX
  8
0
  6
CONTINUOUS
 10
5.722640
 20
1.151040
  0
VERTEX
  8
0
  6
CONTINUOUS
 10
5.747280
 20
1.133440
  0
VERTEX
  8
0
  6
CONTINUOUS
 10
5.096520
 20
1.507440
  0
VERTEX
  8
0
  6
CONTINUOUS
 10
5.071880
 20
1.525040
  0
SEQEND
  8
0
  0
SOLID
  8
0
 62
    15
 10
4.967160
 20
1.218800
 11
5.617920
 21
0.844800
 12
4.967160
 22
1.136080
 13
5.617920
 23
0.762080
  0
POLYLINE
  8
0
  6
CONTINUOUS
 66
     1
 40
0.000000
 41
0.000000
  0
VERTEX
  8
0
  6
CONTINUOUS
 10
4.967160
 20
1.218800
  0
VERTEX
  8
0
  6
CONTINUOUS
 10
5.617920
 20
0.844800
  0
VERTEX
  8
0
  6
CONTINUOUS
 10
5.617920
 20
0.762080
  0
VERTEX
  8
0
  6
CONTINUOUS
 10
4.967160
 20
1.136080
  0
VERTEX
  8
0
  6
CONTINUOUS
 10
4.967160
 20
1.218800
  0
SEQEND
  8
0
  0
SOLID
  8
0
 62
    15
 10
5.096520
 20
1.507440
 11
5.747280
 21
1.133440
 12
5.116320
 22
1.485440
 13
5.767080
 23
1.111440
  0
POLYLINE
  8
0
  6
CONTINUOUS
 66
     1
 40
0.000000
 41
0.000000
  0
VERTEX
  8
0
  6
CONTINUOUS
 10
5.096520
 20
1.507440
  0
VERTEX
  8
0
  6
CONTINUOUS
 10
5.747280
 20
1.133440
  0
VERTEX
  8
0
  6
CONTINUOUS
 10
5.767080
 20
1.111440
  0
VERTEX
  8
0
  6
CONTINUOUS
 10
5.116320
 20
1.485440
  0
VERTEX
  8
0
  6
CONTINUOUS
 10
5.096520
 20
1.507440
  0
SEQEND
  8
0
  0
SOLID
  8
0
 62
    15
 10
5.116320
 20
1.485440
 11
5.767080
 21
1.111440
 12
5.131280
 22
1.460360
 13
5.782480
 23
1.086360
  0
POLYLINE
  8
0
  6
CONTINUOUS
 66
     1
 40
0.000000
 41
0.000000
  0
VERTEX
  8
0
  6
CONTINUOUS
 10
5.116320
 20
1.485440
  0
VERTEX
  8
0
  6
CONTINUOUS
 10
5.767080
 20
1.111440
  0
VERTEX
  8
0
  6
CONTINUOUS
 10
5.782480
 20
1.086360
  0
VERTEX
  8
0
  6
CONTINUOUS
 10
5.131280
 20
1.460360
  0
VERTEX
  8
0
  6
CONTINUOUS
 10
5.116320
 20
1.485440
  0
SEQEND
  8
0
  0
SOLID
  8
0
 62
    15
 10
5.131280
 20
1.460360
 11
5.782480
 21
1.086360
 12
5.141840
 22
1.432640
 13
5.793040
 23
1.058640
  0
POLYLINE
  8
0
  6
CONTINUOUS
 66
     1
 40
0.000000
 41
0.000000
  0
VERTEX
  8
0
  6
CONTINUOUS
 10
5.131280
 20
1.460360
  0
VERTEX
  8
0
  6
CONTINUOUS
 10
5.782480
 20
1.086360
  0
VERTEX
  8
0
  6
CONTINUOUS
 10
5.793040
 20
1.058640
  0
VERTEX
  8
0
  6
CONTINUOUS
 10
5.141840
 20
1.432640
  0
VERTEX
  8
0
  6
CONTINUOUS
 10
5.131280
 20
1.460360
  0
SEQEND
  8
0
  0
SOLID
  8
0
 62
    15
 10
5.141840
 20
1.432640
 11
5.793040
 21
1.058640
 12
5.147560
 22
1.403600
 13
5.798760
 23
1.029600
  0
POLYLINE
  8
0
  6
CONTINUOUS
 66
     1
 40
0.000000
 41
0.000000
  0
VERTEX
  8
0
  6
CONTINUOUS
 10
5.141840
 20
1.432640
  0
VERTEX
  8
0
  6
CONTINUOUS
 10
5.793040
 20
1.058640
  0
VERTEX
  8
0
  6
CONTINUOUS
 10
5.798760
 20
1.029600
  0
VERTEX
  8
0
  6
CONTINUOUS
 10
5.147560
 20
1.403600
  0
VERTEX
  8
0
  6
CONTINUOUS
 10
5.141840
 20
1.432640
  0
SEQEND
  8
0
  0
SOLID
  8
0
 62
    15
 10
5.147560
 20
1.403600
 11
5.798760
 21
1.029600
 12
5.148440
 22
1.373680
 13
5.799200
 23
0.999680
  0
POLYLINE
  8
0
  6
CONTINUOUS
 66
     1
 40
0.000000
 41
0.000000
  0
VERTEX
  8
0
  6
CONTINUOUS
 10
5.147560
 20
1.403600
  0
VERTEX
  8
0
  6
CONTINUOUS
 10
5.798760
 20
1.029600
  0
VERTEX
  8
0
  6
CONTINUOUS
 10
5.799200
 20
0.999680
  0
VERTEX
  8
0
  6
CONTINUOUS
 10
5.148440
 20
1.373680
  0
VERTEX
  8
0
  6
CONTINUOUS
 10
5.147560
 20
1.403600
  0
SEQEND
  8
0
  0
SOLID
  8
0
 62
    15
 10
5.148440
 20
1.373680
 11
5.799200
 21
0.999680
 12
5.144480
 22
1.344200
 13
5.795240
 23
0.970200
  0
POLYLINE
  8
0
  6
CONTINUOUS
 66
     1
 40
0.000000
 41
0.000000
  0
VERTEX
  8
0
  6
CONTINUOUS
 10
5.148440
 20
1.373680
  0
VERTEX
  8
0
  6
CONTINUOUS
 10
5.799200
 20
0.999680
  0
VERTEX
  8
0
  6
CONTINUOUS
 10
5.795240
 20
0.970200
  0
VERTEX
  8
0
  6
CONTINUOUS
 10
5.144480
 20
1.344200
  0
VERTEX
  8
0
  6
CONTINUOUS
 10
5.148440
 20
1.373680
  0
SEQEND
  8
0
  0
SOLID
  8
0
 62
    15
 10
5.144480
 20
1.344200
 11
5.795240
 21
0.970200
 12
5.135240
 22
1.316040
 13
5.786000
 23
0.942040
  0
POLYLINE
  8
0
  6
CONTINUOUS
 66
     1
 40
0.000000
 41
0.000000
  0
VERTEX
  8
0
  6
CONTINUOUS
 10
5.144480
 20
1.344200
  0
VERTEX
  8
0
  6
CONTINUOUS
 10
5.795240
 20
0.970200
  0
VERTEX
  8
0
  6
CONTINUOUS
 10
5.786000
 20
0.942040
  0
VERTEX
  8
0
  6
CONTINUOUS
 10
5.135240
 20
1.316040
  0
VERTEX
  8
0
  6
CONTINUOUS
 10
5.144480
 20
1.344200
  0
SEQEND
  8
0
  0
SOLID
  8
0
 62
    15
 10
5.135240
 20
1.316040
 11
5.786000
 21
0.942040
 12
5.120720
 22
1.289640
 13
5.771920
 23
0.915640
  0
POLYLINE
  8
0
  6
CONTINUOUS
 66
     1
 40
0.000000
 41
0.000000
  0
VERTEX
  8
0
  6
CONTINUOUS
 10
5.135240
 20
1.316040
  0
VERTEX
  8
0
  6
CONTINUOUS
 10
5.786000
 20
0.942040
  0
VERTEX
  8
0
  6
CONTINUOUS
 10
5.771920
 20
0.915640
  0
VERTEX
  8
0
  6
CONTINUOUS
 10
5.120720
 20
1.289640
  0
VERTEX
  8
0
  6
CONTINUOUS
 10
5.135240
 20
1.316040
  0
SEQEND
  8
0
  0
SOLID
  8
0
 62
    15
 10
5.120720
 20
1.289640
 11
5.771920
 21
0.915640
 12
5.101360
 22
1.265880
 13
5.752120
 23
0.891880
  0
POLYLINE
  8
0
  6
CONTINUOUS
 66
     1
 40
0.000000
 41
0.000000
  0
VERTEX
  8
0
  6
CONTINUOUS
 10
5.120720
 20
1.289640
  0
VERTEX
  8
0
  6
CONTINUOUS
 10
5.771920
 20
0.915640
  0
VERTEX
  8
0
  6
CONTINUOUS
 10
5.752120
 20
0.891880
  0
VERTEX
  8
0
  6
CONTINUOUS
 10
5.101360
 20
1.265880
  0
VERTEX
  8
0
  6
CONTINUOUS
 10
5.120720
 20
1.289640
  0
SEQEND
  8
0
  0
SOLID
  8
0
 62
    15
 10
5.101360
 20
1.265880
 11
5.752120
 21
0.891880
 12
5.076720
 22
1.246520
 13
5.727480
 23
0.872520
  0
POLYLINE
  8
0
  6
CONTINUOUS
 66
     1
 40
0.000000
 41
0.000000
  0
VERTEX
  8
0
  6
CONTINUOUS
 10
5.101360
 20
1.265880
  0
VERTEX
  8
0
  6
CONTINUOUS
 10
5.752120
 20
0.891880
  0
VERTEX
  8
0
  6
CONTINUOUS
 10
5.727480
 20
0.872520
  0
VERTEX
  8
0
  6
CONTINUOUS
 10
5.076720
 20
1.246520
  0
VERTEX
  8
0
  6
CONTINUOUS
 10
5.101360
 20
1.265880
  0
SEQEND
  8
0
  0
SOLID
  8
0
 62
    15
 10
5.076720
 20
1.246520
 11
5.727480
 21
0.872520
 12
5.046800
 22
1.231560
 13
5.697560
 23
0.857120
  0
POLYLINE
  8
0
  6
CONTINUOUS
 66
     1
 40
0.000000
 41
0.000000
  0
VERTEX
  8
0
  6
CONTINUOUS
 10
5.076720
 20
1.246520
  0
VERTEX
  8
0
  6
CONTINUOUS
 10
5.727480
 20
0.872520
  0
VERTEX
  8
0
  6
CONTINUOUS
 10
5.697560
 20
0.857120
  0
VERTEX
  8
0
  6
CONTINUOUS
 10
5.046800
 20
1.231560
  0
VERTEX
  8
0
  6
CONTINUOUS
 10
5.076720
 20
1.246520
  0
SEQEND
  8
0
  0
SOLID
  8
0
 62
    15
 10
5.046800
 20
1.231560
 11
5.697560
 21
0.857120
 12
5.011600
 22
1.221880
 13
5.662360
 23
0.847880
  0
POLYLINE
  8
0
  6
CONTINUOUS
 66
     1
 40
0.000000
 41
0.000000
  0
VERTEX
  8
0
  6
CONTINUOUS
 10
5.046800
 20
1.231560
  0
VERTEX
  8
0
  6
CONTINUOUS
 10
5.697560
 20
0.857120
  0
VERTEX
  8
0
  6
CONTINUOUS
 10
5.662360
 20
0.847880
  0
VERTEX
  8
0
  6
CONTINUOUS
 10
5.011600
 20
1.221880
  0
VERTEX
  8
0
  6
CONTINUOUS
 10
5.046800
 20
1.231560
  0
SEQEND
  8
0
  0
SOLID
  8
0
 62
    15
 10
5.011600
 20
1.221880
 11
5.662360
 21
0.847880
 12
4.970680
 22
1.218800
 13
5.621440
 23
0.844800
  0
POLYLINE
  8
0
  6
CONTINUOUS
 66
     1
 40
0.000000
 41
0.000000
  0
VERTEX
  8
0
  6
CONTINUOUS
 10
5.011600
 20
1.221880
  0
VERTEX
  8
0
  6
CONTINUOUS
 10
5.662360
 20
0.847880
  0
VERTEX
  8
0
  6
CONTINUOUS
 10
5.621440
 20
0.844800
  0
VERTEX
  8
0
  6
CONTINUOUS
 10
4.970680
 20
1.218800
  0
VERTEX
  8
0
  6
CONTINUOUS
 10
5.011600
 20
1.221880
  0
SEQEND
  8
0
  0
SOLID
  8
0
 62
    15
 10
4.970680
 20
1.218800
 11
5.621440
 21
0.844800
 12
4.967160
 22
1.218800
 13
5.617920
 23
0.844800
  0
POLYLINE
  8
0
  6
CONTINUOUS
 66
     1
 40
0.000000
 41
0.000000
  0
VERTEX
  8
0
  6
CONTINUOUS
 10
4.970680
 20
1.218800
  0
VERTEX
  8
0
  6
CONTINUOUS
 10
5.621440
 20
0.844800
  0
VERTEX
  8
0
  6
CONTINUOUS
 10
5.617920
 20
0.844800
  0
VERTEX
  8
0
  6
CONTINUOUS
 10
4.967160
 20
1.218800
  0
VERTEX
  8
0
  6
CONTINUOUS
 10
4.970680
 20
1.218800
  0
SEQEND
  8
0
  0
POLYLINE
  8
0
  6
CONTINUOUS
 66
     1
 40
0.000000
 41
0.000000
  0
VERTEX
  8
0
  6
CONTINUOUS
 10
4.967160
 20
1.218800
  0
VERTEX
  8
0
  6
CONTINUOUS
 10
4.967160
 20
1.136080
  0
VERTEX
  8
0
  6
CONTINUOUS
 10
4.783680
 20
1.136080
  0
VERTEX
  8
0
  6
CONTINUOUS
 10
4.783680
 20
2.006840
  0
VERTEX
  8
0
  6
CONTINUOUS
 10
5.535640
 20
2.006840
  0
VERTEX
  8
0
  6
CONTINUOUS
 10
5.535640
 20
1.876160
  0
VERTEX
  8
0
  6
CONTINUOUS
 10
5.463040
 20
1.873520
  0
VERTEX
  8
0
  6
CONTINUOUS
 10
5.382520
 20
1.860760
  0
VERTEX
  8
0
  6
CONTINUOUS
 10
5.299360
 20
1.837000
  0
VERTEX
  8
0
  6
CONTINUOUS
 10
5.218400
 20
1.802240
  0
VERTEX
  8
0
  6
CONTINUOUS
 10
5.180120
 20
1.780680
  0
VERTEX
  8
0
  6
CONTINUOUS
 10
5.144040
 20
1.756040
  0
VERTEX
  8
0
  6
CONTINUOUS
 10
5.111040
 20
1.728320
  0
VERTEX
  8
0
  6
CONTINUOUS
 10
5.081120
 20
1.697960
  0
VERTEX
  8
0
  6
CONTINUOUS
 10
5.055600
 20
1.664520
  0
VERTEX
  8
0
  6
CONTINUOUS
 10
5.034920
 20
1.627560
  0
VERTEX
  8
0
  6
CONTINUOUS
 10
5.019080
 20
1.587520
  0
VERTEX
  8
0
  6
CONTINUOUS
 10
5.009400
 20
1.544400
  0
VERTEX
  8
0
  6
CONTINUOUS
 10
5.042840
 20
1.537800
  0
VERTEX
  8
0
  6
CONTINUOUS
 10
5.071880
 20
1.525040
  0
VERTEX
  8
0
  6
CONTINUOUS
 10
5.096520
 20
1.507440
  0
VERTEX
  8
0
  6
CONTINUOUS
 10
5.116320
 20
1.485440
  0
VERTEX
  8
0
  6
CONTINUOUS
 10
5.131280
 20
1.460360
  0
VERTEX
  8
0
  6
CONTINUOUS
 10
5.141840
 20
1.432640
  0
VERTEX
  8
0
  6
CONTINUOUS
 10
5.147560
 20
1.403600
  0
VERTEX
  8
0
  6
CONTINUOUS
 10
5.148440
 20
1.373680
  0
VERTEX
  8
0
  6
CONTINUOUS
 10
5.144480
 20
1.344200
  0
VERTEX
  8
0
  6
CONTINUOUS
 10
5.135240
 20
1.316040
  0
VERTEX
  8
0
  6
CONTINUOUS
 10
5.120720
 20
1.289640
  0
VERTEX
  8
0
  6
CONTINUOUS
 10
5.101360
 20
1.265880
  0
VERTEX
  8
0
  6
CONTINUOUS
 10
5.076720
 20
1.246520
  0
VERTEX
  8
0
  6
CONTINUOUS
 10
5.046800
 20
1.231560
  0
VERTEX
  8
0
  6
CONTINUOUS
 10
5.011600
 20
1.221880
  0
VERTEX
  8
0
  6
CONTINUOUS
 10
4.970680
 20
1.218800
  0
VERTEX
  8
0
  6
CONTINUOUS
 10
4.967160
 20
1.218800
  0
SEQEND
  8
0
  0
TEXT
  8
0
 10
5.982240
 20
0.965360
 40
0.138050
  1
BA  879
 41
1.000000
  7
SN0
 71
     0
 72
     5
 11
6.572660
 21
0.965360
  0
TEXT
  8
0
 10
5.899960
 20
0.773960
 40
0.138050
  1
3/4" x 7/8"
 41
1.000000
  7
SN0
 71
     0
 72
     5
 11
6.653525
 21
0.773960
  0
ENDSEC
  0
EOF
