  0
SECTION
  2
HEADER
  9
$ACADVER
  1
AC1006
  9
$EXTMIN
 10
5.057800
 20
0.539880
  9
$EXTMAX
 10
7.003480
 20
2.247080
  9
$LTSCALE
 40
0.044000
  9
$PDMODE
 70
    35
  9
$PDSIZE
 40
0.035200
  0
ENDSEC
  0
SECTION
  2
TABLES
  0
TABLE
  2
LTYPE
 70
     9
  0
LTYPE
  2
CONTINUOUS
 70
    64
  3
Solid line
 72
    65
 73
     0
 40
0.000000
  0
LTYPE
  2
DASHED
 70
    64
  3
__ __ __ __ __ __ __ __ __ __ __ __ __ __ __
 72
    65
 73
     2
 40
0.000330
 49
0.000220
 49
-0.000110
  0
LTYPE
  2
HIDDEN
 70
    64
  3
 _ _ _ _ _ _ _ _ _ _ _ _ _ _ _ _ _ _ _ _ _ _
 72
    65
 73
     2
 40
0.000165
 49
0.000110
 49
-0.000055
  0
LTYPE
  2
CENTER
 70
    64
  3
____ _ ____ _ ____ _ ____ _ ____ _ ____ _ ____
 72
    65
 73
     4
 40
0.000880
 49
0.000550
 49
-0.000110
 49
0.000110
 49
-0.000110
  0
LTYPE
  2
PHANTOM
 70
    64
  3
_____ _ _ _____ _ _ _____ _ _ _____ _ _ ____
 72
    65
 73
     6
 40
0.001100
 49
0.000550
 49
-0.000110
 49
0.000110
 49
-0.000110
 49
0.000110
 49
-0.000110
  0
LTYPE
  2
DOT
 70
    64
  3
...............................................
 72
    65
 73
     2
 40
0.000110
 49
0.000000
 49
-0.000110
  0
LTYPE
  2
DASHDOT
 70
    64
  3
__ . __ . __ . __ . __ . __ . __ . __ . __ . __
 72
    65
 73
     4
 40
0.000440
 49
0.000220
 49
-0.000110
 49
0.000000
 49
-0.000110
  0
LTYPE
  2
BORDER
 70
    64
  3
__ __ . __ __ . __ __ . __ __ . __ __ . __ __
 72
    65
 73
     6
 40
0.000770
 49
0.000220
 49
-0.000110
 49
0.000220
 49
-0.000110
 49
0.000000
 49
-0.000110
  0
LTYPE
  2
DIVIDE
 70
    64
  3
__ . . __ . . __ . . __ . . __ . . __ . . __
 72
    65
 73
     6
 40
0.000550
 49
0.000220
 49
-0.000110
 49
0.000000
 49
-0.000110
 49
0.000000
 49
-0.000110
  0
LTYPE
  2
DOTDOT
 70
    64
  3
 . .  . .  . .  . .  . .  . . 
 72
    65
 73
     5
 40
0.000242
 49
-0.000110
 49
0.000000
 49
-0.000110
 49
0.000000
 49
-0.000110
  0
ENDTAB
  0
TABLE
  2
STYLE
 70
     2
  0
STYLE
 70
     0
  2
SN0
 40
0.000000
 41
0.000440
 50
0.000000
 71
     0
 42
0.000000
  3
ROMAND
  0
STYLE
 70
    68
  2
SV0
 40
0.000000
 41
0.000440
 50
0.000000
 71
     0
 42
0.000000
  3
ROMAND
  0
ENDTAB
  0
TABLE
  2
LAYER
 70
     3
  0
LAYER
  2
FOREGROUND
 70
    64
 62
     7
  6
CONTINUOUS
  0
LAYER
  2
BACKGROUND
 70
    65
 62
    -7
  6
CONTINUOUS
  0
LAYER
  2
0
 70
    64
 62
     7
  6
CONTINUOUS
  0
ENDTAB
  0
ENDSEC
  0
SECTION
  2
ENTITIES
  0
POLYLINE
  8
FOREGROUND
  6
CONTINUOUS
 66
     1
 40
0.000000
 41
0.000000
  0
VERTEX
  8
FOREGROUND
  6
CONTINUOUS
 10
0.000000
 20
2.786960
  0
VERTEX
  8
FOREGROUND
  6
CONTINUOUS
 10
8.499920
 20
2.786960
  0
VERTEX
  8
FOREGROUND
  6
CONTINUOUS
 10
8.499920
 20
-8.213040
  0
VERTEX
  8
FOREGROUND
  6
CONTINUOUS
 10
0.000000
 20
-8.213040
  0
VERTEX
  8
FOREGROUND
  6
CONTINUOUS
 10
0.000000
 20
2.786960
  0
SEQEND
  8
0
  0
POLYLINE
  8
FOREGROUND
  6
CONTINUOUS
 66
     1
 40
0.000000
 41
0.000000
  0
VERTEX
  8
FOREGROUND
  6
CONTINUOUS
 10
0.000000
 20
2.786960
  0
VERTEX
  8
FOREGROUND
  6
CONTINUOUS
 10
8.499920
 20
2.786960
  0
VERTEX
  8
FOREGROUND
  6
CONTINUOUS
 10
8.499920
 20
-8.213040
  0
VERTEX
  8
FOREGROUND
  6
CONTINUOUS
 10
0.000000
 20
-8.213040
  0
VERTEX
  8
FOREGROUND
  6
CONTINUOUS
 10
0.000000
 20
2.786960
  0
SEQEND
  8
0
  0
POLYLINE
  8
0
  6
CONTINUOUS
 66
     1
 40
0.014080
 41
0.014080
  0
VERTEX
  8
0
  6
CONTINUOUS
 10
6.126120
 20
2.016080
  0
VERTEX
  8
0
  6
CONTINUOUS
 10
6.135800
 20
2.058320
  0
VERTEX
  8
0
  6
CONTINUOUS
 10
6.143720
 20
2.084280
  0
VERTEX
  8
0
  6
CONTINUOUS
 10
6.158680
 20
2.119040
  0
VERTEX
  8
0
  6
CONTINUOUS
 10
6.170120
 20
2.139720
  0
VERTEX
  8
0
  6
CONTINUOUS
 10
6.195640
 20
2.174920
  0
VERTEX
  8
0
  6
CONTINUOUS
 10
6.225120
 20
2.202200
  0
VERTEX
  8
0
  6
CONTINUOUS
 10
6.240520
 20
2.213200
  0
VERTEX
  8
0
  6
CONTINUOUS
 10
6.256800
 20
2.222000
  0
VERTEX
  8
0
  6
CONTINUOUS
 10
6.290240
 20
2.234320
  0
VERTEX
  8
0
  6
CONTINUOUS
 10
6.307400
 20
2.237840
  0
VERTEX
  8
0
  6
CONTINUOUS
 10
6.324560
 20
2.239600
  0
VERTEX
  8
0
  6
CONTINUOUS
 10
6.341720
 20
2.239600
  0
VERTEX
  8
0
  6
CONTINUOUS
 10
6.358440
 20
2.237840
  0
VERTEX
  8
0
  6
CONTINUOUS
 10
6.391880
 20
2.229040
  0
VERTEX
  8
0
  6
CONTINUOUS
 10
6.423120
 20
2.213200
  0
VERTEX
  8
0
  6
CONTINUOUS
 10
6.438080
 20
2.203080
  0
VERTEX
  8
0
  6
CONTINUOUS
 10
6.464920
 20
2.178000
  0
VERTEX
  8
0
  6
CONTINUOUS
 10
6.487800
 20
2.146320
  0
VERTEX
  8
0
  6
CONTINUOUS
 10
6.497480
 20
2.128280
  0
VERTEX
  8
0
  6
CONTINUOUS
 10
6.505840
 20
2.108920
  0
VERTEX
  8
0
  6
CONTINUOUS
 10
6.512440
 20
2.087800
  0
VERTEX
  8
0
  6
CONTINUOUS
 10
6.517720
 20
2.065360
  0
VERTEX
  8
0
  6
CONTINUOUS
 10
6.521680
 20
2.041160
  0
VERTEX
  8
0
  6
CONTINUOUS
 10
6.523440
 20
2.016080
  0
VERTEX
  8
0
  6
CONTINUOUS
 10
6.667320
 20
2.016080
  0
VERTEX
  8
0
  6
CONTINUOUS
 10
6.690200
 20
1.977800
  0
VERTEX
  8
0
  6
CONTINUOUS
 10
6.717040
 20
1.945240
  0
VERTEX
  8
0
  6
CONTINUOUS
 10
6.731560
 20
1.930720
  0
VERTEX
  8
0
  6
CONTINUOUS
 10
6.765000
 20
1.905640
  0
VERTEX
  8
0
  6
CONTINUOUS
 10
6.783920
 20
1.894640
  0
VERTEX
  8
0
  6
CONTINUOUS
 10
6.825720
 20
1.877480
  0
VERTEX
  8
0
  6
CONTINUOUS
 10
6.874560
 20
1.864720
  0
VERTEX
  8
0
  6
CONTINUOUS
 10
6.931320
 20
1.857680
  0
VERTEX
  8
0
  6
CONTINUOUS
 10
6.978840
 20
1.855040
  0
VERTEX
  8
0
  6
CONTINUOUS
 10
6.996000
 20
1.855040
  0
VERTEX
  8
0
  6
CONTINUOUS
 10
6.996000
 20
1.742840
  0
VERTEX
  8
0
  6
CONTINUOUS
 10
6.277040
 20
1.742840
  0
VERTEX
  8
0
  6
CONTINUOUS
 10
6.277040
 20
2.012560
  0
VERTEX
  8
0
  6
CONTINUOUS
 10
6.126120
 20
2.012560
  0
SEQEND
  8
0
  0
SOLID
  8
0
 62
    15
 10
5.464360
 20
1.360920
 11
5.467440
 21
2.101000
 12
5.473160
 22
1.338480
 13
5.476240
 23
2.078120
  0
POLYLINE
  8
0
  6
CONTINUOUS
 66
     1
 40
0.000000
 41
0.000000
  0
VERTEX
  8
0
  6
CONTINUOUS
 10
5.464360
 20
1.360920
  0
VERTEX
  8
0
  6
CONTINUOUS
 10
5.467440
 20
2.101000
  0
VERTEX
  8
0
  6
CONTINUOUS
 10
5.476240
 20
2.078120
  0
VERTEX
  8
0
  6
CONTINUOUS
 10
5.473160
 20
1.338480
  0
VERTEX
  8
0
  6
CONTINUOUS
 10
5.464360
 20
1.360920
  0
SEQEND
  8
0
  0
SOLID
  8
0
 62
    15
 10
5.093000
 20
1.256200
 11
5.096080
 21
1.995840
 12
5.102240
 22
1.304160
 13
5.105320
 23
2.043800
  0
POLYLINE
  8
0
  6
CONTINUOUS
 66
     1
 40
0.000000
 41
0.000000
  0
VERTEX
  8
0
  6
CONTINUOUS
 10
5.093000
 20
1.256200
  0
VERTEX
  8
0
  6
CONTINUOUS
 10
5.096080
 20
1.995840
  0
VERTEX
  8
0
  6
CONTINUOUS
 10
5.105320
 20
2.043800
  0
VERTEX
  8
0
  6
CONTINUOUS
 10
5.102240
 20
1.304160
  0
VERTEX
  8
0
  6
CONTINUOUS
 10
5.093000
 20
1.256200
  0
SEQEND
  8
0
  0
SOLID
  8
0
 62
    15
 10
5.102240
 20
1.304160
 11
5.105320
 21
2.043800
 12
5.117640
 22
1.347280
 13
5.120720
 23
2.086920
  0
POLYLINE
  8
0
  6
CONTINUOUS
 66
     1
 40
0.000000
 41
0.000000
  0
VERTEX
  8
0
  6
CONTINUOUS
 10
5.102240
 20
1.304160
  0
VERTEX
  8
0
  6
CONTINUOUS
 10
5.105320
 20
2.043800
  0
VERTEX
  8
0
  6
CONTINUOUS
 10
5.120720
 20
2.086920
  0
VERTEX
  8
0
  6
CONTINUOUS
 10
5.117640
 20
1.347280
  0
VERTEX
  8
0
  6
CONTINUOUS
 10
5.102240
 20
1.304160
  0
SEQEND
  8
0
  0
SOLID
  8
0
 62
    15
 10
5.117640
 20
1.347280
 11
5.120720
 21
2.086920
 12
5.137880
 22
1.384240
 13
5.141400
 23
2.124320
  0
POLYLINE
  8
0
  6
CONTINUOUS
 66
     1
 40
0.000000
 41
0.000000
  0
VERTEX
  8
0
  6
CONTINUOUS
 10
5.117640
 20
1.347280
  0
VERTEX
  8
0
  6
CONTINUOUS
 10
5.120720
 20
2.086920
  0
VERTEX
  8
0
  6
CONTINUOUS
 10
5.141400
 20
2.124320
  0
VERTEX
  8
0
  6
CONTINUOUS
 10
5.137880
 20
1.384240
  0
VERTEX
  8
0
  6
CONTINUOUS
 10
5.117640
 20
1.347280
  0
SEQEND
  8
0
  0
SOLID
  8
0
 62
    15
 10
5.137880
 20
1.384240
 11
5.141400
 21
2.124320
 12
5.162960
 22
1.415920
 13
5.166480
 23
2.155560
  0
POLYLINE
  8
0
  6
CONTINUOUS
 66
     1
 40
0.000000
 41
0.000000
  0
VERTEX
  8
0
  6
CONTINUOUS
 10
5.137880
 20
1.384240
  0
VERTEX
  8
0
  6
CONTINUOUS
 10
5.141400
 20
2.124320
  0
VERTEX
  8
0
  6
CONTINUOUS
 10
5.166480
 20
2.155560
  0
VERTEX
  8
0
  6
CONTINUOUS
 10
5.162960
 20
1.415920
  0
VERTEX
  8
0
  6
CONTINUOUS
 10
5.137880
 20
1.384240
  0
SEQEND
  8
0
  0
SOLID
  8
0
 62
    15
 10
5.162960
 20
1.415920
 11
5.166480
 21
2.155560
 12
5.191560
 22
1.441440
 13
5.195080
 23
2.181080
  0
POLYLINE
  8
0
  6
CONTINUOUS
 66
     1
 40
0.000000
 41
0.000000
  0
VERTEX
  8
0
  6
CONTINUOUS
 10
5.162960
 20
1.415920
  0
VERTEX
  8
0
  6
CONTINUOUS
 10
5.166480
 20
2.155560
  0
VERTEX
  8
0
  6
CONTINUOUS
 10
5.195080
 20
2.181080
  0
VERTEX
  8
0
  6
CONTINUOUS
 10
5.191560
 20
1.441440
  0
VERTEX
  8
0
  6
CONTINUOUS
 10
5.162960
 20
1.415920
  0
SEQEND
  8
0
  0
SOLID
  8
0
 62
    15
 10
5.191560
 20
1.441440
 11
5.195080
 21
2.181080
 12
5.222800
 22
1.460800
 13
5.226320
 23
2.200440
  0
POLYLINE
  8
0
  6
CONTINUOUS
 66
     1
 40
0.000000
 41
0.000000
  0
VERTEX
  8
0
  6
CONTINUOUS
 10
5.191560
 20
1.441440
  0
VERTEX
  8
0
  6
CONTINUOUS
 10
5.195080
 20
2.181080
  0
VERTEX
  8
0
  6
CONTINUOUS
 10
5.226320
 20
2.200440
  0
VERTEX
  8
0
  6
CONTINUOUS
 10
5.222800
 20
1.460800
  0
VERTEX
  8
0
  6
CONTINUOUS
 10
5.191560
 20
1.441440
  0
SEQEND
  8
0
  0
SOLID
  8
0
 62
    15
 10
5.222800
 20
1.460800
 11
5.226320
 21
2.200440
 12
5.255800
 22
1.473560
 13
5.259320
 23
2.213200
  0
POLYLINE
  8
0
  6
CONTINUOUS
 66
     1
 40
0.000000
 41
0.000000
  0
VERTEX
  8
0
  6
CONTINUOUS
 10
5.222800
 20
1.460800
  0
VERTEX
  8
0
  6
CONTINUOUS
 10
5.226320
 20
2.200440
  0
VERTEX
  8
0
  6
CONTINUOUS
 10
5.259320
 20
2.213200
  0
VERTEX
  8
0
  6
CONTINUOUS
 10
5.255800
 20
1.473560
  0
VERTEX
  8
0
  6
CONTINUOUS
 10
5.222800
 20
1.460800
  0
SEQEND
  8
0
  0
SOLID
  8
0
 62
     7
 10
5.255800
 20
1.473560
 11
5.259320
 21
2.213200
 12
5.290120
 22
1.479280
 13
5.293200
 23
2.218920
  0
POLYLINE
  8
0
  6
CONTINUOUS
 66
     1
 40
0.000000
 41
0.000000
  0
VERTEX
  8
0
  6
CONTINUOUS
 10
5.255800
 20
1.473560
  0
VERTEX
  8
0
  6
CONTINUOUS
 10
5.259320
 20
2.213200
  0
VERTEX
  8
0
  6
CONTINUOUS
 10
5.293200
 20
2.218920
  0
VERTEX
  8
0
  6
CONTINUOUS
 10
5.290120
 20
1.479280
  0
VERTEX
  8
0
  6
CONTINUOUS
 10
5.255800
 20
1.473560
  0
SEQEND
  8
0
  0
SOLID
  8
0
 62
     7
 10
5.290120
 20
1.479280
 11
5.293200
 21
2.218920
 12
5.324000
 22
1.478400
 13
5.327080
 23
2.218040
  0
POLYLINE
  8
0
  6
CONTINUOUS
 66
     1
 40
0.000000
 41
0.000000
  0
VERTEX
  8
0
  6
CONTINUOUS
 10
5.290120
 20
1.479280
  0
VERTEX
  8
0
  6
CONTINUOUS
 10
5.293200
 20
2.218920
  0
VERTEX
  8
0
  6
CONTINUOUS
 10
5.327080
 20
2.218040
  0
VERTEX
  8
0
  6
CONTINUOUS
 10
5.324000
 20
1.478400
  0
VERTEX
  8
0
  6
CONTINUOUS
 10
5.290120
 20
1.479280
  0
SEQEND
  8
0
  0
SOLID
  8
0
 62
     7
 10
5.324000
 20
1.478400
 11
5.327080
 21
2.218040
 12
5.357000
 22
1.470480
 13
5.360520
 23
2.210120
  0
POLYLINE
  8
0
  6
CONTINUOUS
 66
     1
 40
0.000000
 41
0.000000
  0
VERTEX
  8
0
  6
CONTINUOUS
 10
5.324000
 20
1.478400
  0
VERTEX
  8
0
  6
CONTINUOUS
 10
5.327080
 20
2.218040
  0
VERTEX
  8
0
  6
CONTINUOUS
 10
5.360520
 20
2.210120
  0
VERTEX
  8
0
  6
CONTINUOUS
 10
5.357000
 20
1.470480
  0
VERTEX
  8
0
  6
CONTINUOUS
 10
5.324000
 20
1.478400
  0
SEQEND
  8
0
  0
SOLID
  8
0
 62
     7
 10
5.357000
 20
1.470480
 11
5.360520
 21
2.210120
 12
5.388680
 22
1.454640
 13
5.391760
 23
2.194280
  0
POLYLINE
  8
0
  6
CONTINUOUS
 66
     1
 40
0.000000
 41
0.000000
  0
VERTEX
  8
0
  6
CONTINUOUS
 10
5.357000
 20
1.470480
  0
VERTEX
  8
0
  6
CONTINUOUS
 10
5.360520
 20
2.210120
  0
VERTEX
  8
0
  6
CONTINUOUS
 10
5.391760
 20
2.194280
  0
VERTEX
  8
0
  6
CONTINUOUS
 10
5.388680
 20
1.454640
  0
VERTEX
  8
0
  6
CONTINUOUS
 10
5.357000
 20
1.470480
  0
SEQEND
  8
0
  0
SOLID
  8
0
 62
    15
 10
5.388680
 20
1.454640
 11
5.391760
 21
2.194280
 12
5.417720
 22
1.431320
 13
5.420800
 23
2.171400
  0
POLYLINE
  8
0
  6
CONTINUOUS
 66
     1
 40
0.000000
 41
0.000000
  0
VERTEX
  8
0
  6
CONTINUOUS
 10
5.388680
 20
1.454640
  0
VERTEX
  8
0
  6
CONTINUOUS
 10
5.391760
 20
2.194280
  0
VERTEX
  8
0
  6
CONTINUOUS
 10
5.420800
 20
2.171400
  0
VERTEX
  8
0
  6
CONTINUOUS
 10
5.417720
 20
1.431320
  0
VERTEX
  8
0
  6
CONTINUOUS
 10
5.388680
 20
1.454640
  0
SEQEND
  8
0
  0
SOLID
  8
0
 62
    15
 10
5.417720
 20
1.431320
 11
5.420800
 21
2.171400
 12
5.443240
 22
1.400520
 13
5.446320
 23
2.140160
  0
POLYLINE
  8
0
  6
CONTINUOUS
 66
     1
 40
0.000000
 41
0.000000
  0
VERTEX
  8
0
  6
CONTINUOUS
 10
5.417720
 20
1.431320
  0
VERTEX
  8
0
  6
CONTINUOUS
 10
5.420800
 20
2.171400
  0
VERTEX
  8
0
  6
CONTINUOUS
 10
5.446320
 20
2.140160
  0
VERTEX
  8
0
  6
CONTINUOUS
 10
5.443240
 20
1.400520
  0
VERTEX
  8
0
  6
CONTINUOUS
 10
5.417720
 20
1.431320
  0
SEQEND
  8
0
  0
SOLID
  8
0
 62
    15
 10
5.443240
 20
1.400520
 11
5.446320
 21
2.140160
 12
5.454240
 22
1.381600
 13
5.457320
 23
2.121680
  0
POLYLINE
  8
0
  6
CONTINUOUS
 66
     1
 40
0.000000
 41
0.000000
  0
VERTEX
  8
0
  6
CONTINUOUS
 10
5.443240
 20
1.400520
  0
VERTEX
  8
0
  6
CONTINUOUS
 10
5.446320
 20
2.140160
  0
VERTEX
  8
0
  6
CONTINUOUS
 10
5.457320
 20
2.121680
  0
VERTEX
  8
0
  6
CONTINUOUS
 10
5.454240
 20
1.381600
  0
VERTEX
  8
0
  6
CONTINUOUS
 10
5.443240
 20
1.400520
  0
SEQEND
  8
0
  0
SOLID
  8
0
 62
    15
 10
5.454240
 20
1.381600
 11
5.457320
 21
2.121680
 12
5.464360
 22
1.360920
 13
5.467440
 23
2.101000
  0
POLYLINE
  8
0
  6
CONTINUOUS
 66
     1
 40
0.000000
 41
0.000000
  0
VERTEX
  8
0
  6
CONTINUOUS
 10
5.454240
 20
1.381600
  0
VERTEX
  8
0
  6
CONTINUOUS
 10
5.457320
 20
2.121680
  0
VERTEX
  8
0
  6
CONTINUOUS
 10
5.467440
 20
2.101000
  0
VERTEX
  8
0
  6
CONTINUOUS
 10
5.464360
 20
1.360920
  0
VERTEX
  8
0
  6
CONTINUOUS
 10
5.454240
 20
1.381600
  0
SEQEND
  8
0
  0
SOLID
  8
0
 62
    15
 10
5.959360
 20
1.092960
 11
5.962440
 21
1.832600
 12
5.959360
 22
0.981640
 13
5.962440
 23
1.721280
  0
POLYLINE
  8
0
  6
CONTINUOUS
 66
     1
 40
0.000000
 41
0.000000
  0
VERTEX
  8
0
  6
CONTINUOUS
 10
5.959360
 20
1.092960
  0
VERTEX
  8
0
  6
CONTINUOUS
 10
5.962440
 20
1.832600
  0
VERTEX
  8
0
  6
CONTINUOUS
 10
5.962440
 20
1.721280
  0
VERTEX
  8
0
  6
CONTINUOUS
 10
5.959360
 20
0.981640
  0
VERTEX
  8
0
  6
CONTINUOUS
 10
5.959360
 20
1.092960
  0
SEQEND
  8
0
  0
SOLID
  8
0
 62
    15
 10
5.473160
 20
1.338480
 11
5.476240
 21
2.078120
 12
5.480200
 22
1.313400
 13
5.483280
 23
2.053040
  0
POLYLINE
  8
0
  6
CONTINUOUS
 66
     1
 40
0.000000
 41
0.000000
  0
VERTEX
  8
0
  6
CONTINUOUS
 10
5.473160
 20
1.338480
  0
VERTEX
  8
0
  6
CONTINUOUS
 10
5.476240
 20
2.078120
  0
VERTEX
  8
0
  6
CONTINUOUS
 10
5.483280
 20
2.053040
  0
VERTEX
  8
0
  6
CONTINUOUS
 10
5.480200
 20
1.313400
  0
VERTEX
  8
0
  6
CONTINUOUS
 10
5.473160
 20
1.338480
  0
SEQEND
  8
0
  0
SOLID
  8
0
 62
    15
 10
5.480200
 20
1.313400
 11
5.483280
 21
2.053040
 12
5.485920
 22
1.286560
 13
5.489440
 23
2.026200
  0
POLYLINE
  8
0
  6
CONTINUOUS
 66
     1
 40
0.000000
 41
0.000000
  0
VERTEX
  8
0
  6
CONTINUOUS
 10
5.480200
 20
1.313400
  0
VERTEX
  8
0
  6
CONTINUOUS
 10
5.483280
 20
2.053040
  0
VERTEX
  8
0
  6
CONTINUOUS
 10
5.489440
 20
2.026200
  0
VERTEX
  8
0
  6
CONTINUOUS
 10
5.485920
 20
1.286560
  0
VERTEX
  8
0
  6
CONTINUOUS
 10
5.480200
 20
1.313400
  0
SEQEND
  8
0
  0
SOLID
  8
0
 62
    15
 10
5.485920
 20
1.286560
 11
5.489440
 21
2.026200
 12
5.490320
 22
1.257080
 13
5.493400
 23
1.996720
  0
POLYLINE
  8
0
  6
CONTINUOUS
 66
     1
 40
0.000000
 41
0.000000
  0
VERTEX
  8
0
  6
CONTINUOUS
 10
5.485920
 20
1.286560
  0
VERTEX
  8
0
  6
CONTINUOUS
 10
5.489440
 20
2.026200
  0
VERTEX
  8
0
  6
CONTINUOUS
 10
5.493400
 20
1.996720
  0
VERTEX
  8
0
  6
CONTINUOUS
 10
5.490320
 20
1.257080
  0
VERTEX
  8
0
  6
CONTINUOUS
 10
5.485920
 20
1.286560
  0
SEQEND
  8
0
  0
SOLID
  8
0
 62
     7
 10
5.490320
 20
1.257080
 11
5.493400
 21
1.996720
 12
5.630680
 22
1.257080
 13
5.633760
 23
1.996720
  0
POLYLINE
  8
0
  6
CONTINUOUS
 66
     1
 40
0.000000
 41
0.000000
  0
VERTEX
  8
0
  6
CONTINUOUS
 10
5.490320
 20
1.257080
  0
VERTEX
  8
0
  6
CONTINUOUS
 10
5.493400
 20
1.996720
  0
VERTEX
  8
0
  6
CONTINUOUS
 10
5.633760
 20
1.996720
  0
VERTEX
  8
0
  6
CONTINUOUS
 10
5.630680
 20
1.257080
  0
VERTEX
  8
0
  6
CONTINUOUS
 10
5.490320
 20
1.257080
  0
SEQEND
  8
0
  0
SOLID
  8
0
 62
    15
 10
5.630680
 20
1.257080
 11
5.633760
 21
1.996720
 12
5.642560
 22
1.233760
 13
5.645640
 23
1.973400
  0
POLYLINE
  8
0
  6
CONTINUOUS
 66
     1
 40
0.000000
 41
0.000000
  0
VERTEX
  8
0
  6
CONTINUOUS
 10
5.630680
 20
1.257080
  0
VERTEX
  8
0
  6
CONTINUOUS
 10
5.633760
 20
1.996720
  0
VERTEX
  8
0
  6
CONTINUOUS
 10
5.645640
 20
1.973400
  0
VERTEX
  8
0
  6
CONTINUOUS
 10
5.642560
 20
1.233760
  0
VERTEX
  8
0
  6
CONTINUOUS
 10
5.630680
 20
1.257080
  0
SEQEND
  8
0
  0
SOLID
  8
0
 62
    15
 10
5.642560
 20
1.233760
 11
5.645640
 21
1.973400
 12
5.655760
 22
1.212200
 13
5.658840
 23
1.952280
  0
POLYLINE
  8
0
  6
CONTINUOUS
 66
     1
 40
0.000000
 41
0.000000
  0
VERTEX
  8
0
  6
CONTINUOUS
 10
5.642560
 20
1.233760
  0
VERTEX
  8
0
  6
CONTINUOUS
 10
5.645640
 20
1.973400
  0
VERTEX
  8
0
  6
CONTINUOUS
 10
5.658840
 20
1.952280
  0
VERTEX
  8
0
  6
CONTINUOUS
 10
5.655760
 20
1.212200
  0
VERTEX
  8
0
  6
CONTINUOUS
 10
5.642560
 20
1.233760
  0
SEQEND
  8
0
  0
SOLID
  8
0
 62
    15
 10
5.655760
 20
1.212200
 11
5.658840
 21
1.952280
 12
5.669840
 22
1.193280
 13
5.673360
 23
1.932920
  0
POLYLINE
  8
0
  6
CONTINUOUS
 66
     1
 40
0.000000
 41
0.000000
  0
VERTEX
  8
0
  6
CONTINUOUS
 10
5.655760
 20
1.212200
  0
VERTEX
  8
0
  6
CONTINUOUS
 10
5.658840
 20
1.952280
  0
VERTEX
  8
0
  6
CONTINUOUS
 10
5.673360
 20
1.932920
  0
VERTEX
  8
0
  6
CONTINUOUS
 10
5.669840
 20
1.193280
  0
VERTEX
  8
0
  6
CONTINUOUS
 10
5.655760
 20
1.212200
  0
SEQEND
  8
0
  0
SOLID
  8
0
 62
    15
 10
5.669840
 20
1.193280
 11
5.673360
 21
1.932920
 12
5.685240
 22
1.176120
 13
5.688760
 23
1.915760
  0
POLYLINE
  8
0
  6
CONTINUOUS
 66
     1
 40
0.000000
 41
0.000000
  0
VERTEX
  8
0
  6
CONTINUOUS
 10
5.669840
 20
1.193280
  0
VERTEX
  8
0
  6
CONTINUOUS
 10
5.673360
 20
1.932920
  0
VERTEX
  8
0
  6
CONTINUOUS
 10
5.688760
 20
1.915760
  0
VERTEX
  8
0
  6
CONTINUOUS
 10
5.685240
 20
1.176120
  0
VERTEX
  8
0
  6
CONTINUOUS
 10
5.669840
 20
1.193280
  0
SEQEND
  8
0
  0
SOLID
  8
0
 62
    15
 10
5.685240
 20
1.176120
 11
5.688760
 21
1.915760
 12
5.720000
 22
1.147520
 13
5.723080
 23
1.887160
  0
POLYLINE
  8
0
  6
CONTINUOUS
 66
     1
 40
0.000000
 41
0.000000
  0
VERTEX
  8
0
  6
CONTINUOUS
 10
5.685240
 20
1.176120
  0
VERTEX
  8
0
  6
CONTINUOUS
 10
5.688760
 20
1.915760
  0
VERTEX
  8
0
  6
CONTINUOUS
 10
5.723080
 20
1.887160
  0
VERTEX
  8
0
  6
CONTINUOUS
 10
5.720000
 20
1.147520
  0
VERTEX
  8
0
  6
CONTINUOUS
 10
5.685240
 20
1.176120
  0
SEQEND
  8
0
  0
SOLID
  8
0
 62
     7
 10
5.720000
 20
1.147520
 11
5.723080
 21
1.887160
 12
5.758720
 22
1.125960
 13
5.761800
 23
1.865600
  0
POLYLINE
  8
0
  6
CONTINUOUS
 66
     1
 40
0.000000
 41
0.000000
  0
VERTEX
  8
0
  6
CONTINUOUS
 10
5.720000
 20
1.147520
  0
VERTEX
  8
0
  6
CONTINUOUS
 10
5.723080
 20
1.887160
  0
VERTEX
  8
0
  6
CONTINUOUS
 10
5.761800
 20
1.865600
  0
VERTEX
  8
0
  6
CONTINUOUS
 10
5.758720
 20
1.125960
  0
VERTEX
  8
0
  6
CONTINUOUS
 10
5.720000
 20
1.147520
  0
SEQEND
  8
0
  0
SOLID
  8
0
 62
     7
 10
5.758720
 20
1.125960
 11
5.761800
 21
1.865600
 12
5.802280
 22
1.110560
 13
5.805360
 23
1.850640
  0
POLYLINE
  8
0
  6
CONTINUOUS
 66
     1
 40
0.000000
 41
0.000000
  0
VERTEX
  8
0
  6
CONTINUOUS
 10
5.758720
 20
1.125960
  0
VERTEX
  8
0
  6
CONTINUOUS
 10
5.761800
 20
1.865600
  0
VERTEX
  8
0
  6
CONTINUOUS
 10
5.805360
 20
1.850640
  0
VERTEX
  8
0
  6
CONTINUOUS
 10
5.802280
 20
1.110560
  0
VERTEX
  8
0
  6
CONTINUOUS
 10
5.758720
 20
1.125960
  0
SEQEND
  8
0
  0
SOLID
  8
0
 62
     7
 10
5.802280
 20
1.110560
 11
5.805360
 21
1.850640
 12
5.850240
 22
1.100440
 13
5.853320
 23
1.840520
  0
POLYLINE
  8
0
  6
CONTINUOUS
 66
     1
 40
0.000000
 41
0.000000
  0
VERTEX
  8
0
  6
CONTINUOUS
 10
5.802280
 20
1.110560
  0
VERTEX
  8
0
  6
CONTINUOUS
 10
5.805360
 20
1.850640
  0
VERTEX
  8
0
  6
CONTINUOUS
 10
5.853320
 20
1.840520
  0
VERTEX
  8
0
  6
CONTINUOUS
 10
5.850240
 20
1.100440
  0
VERTEX
  8
0
  6
CONTINUOUS
 10
5.802280
 20
1.110560
  0
SEQEND
  8
0
  0
SOLID
  8
0
 62
     7
 10
5.850240
 20
1.100440
 11
5.853320
 21
1.840520
 12
5.902600
 22
1.094720
 13
5.905680
 23
1.834800
  0
POLYLINE
  8
0
  6
CONTINUOUS
 66
     1
 40
0.000000
 41
0.000000
  0
VERTEX
  8
0
  6
CONTINUOUS
 10
5.850240
 20
1.100440
  0
VERTEX
  8
0
  6
CONTINUOUS
 10
5.853320
 20
1.840520
  0
VERTEX
  8
0
  6
CONTINUOUS
 10
5.905680
 20
1.834800
  0
VERTEX
  8
0
  6
CONTINUOUS
 10
5.902600
 20
1.094720
  0
VERTEX
  8
0
  6
CONTINUOUS
 10
5.850240
 20
1.100440
  0
SEQEND
  8
0
  0
SOLID
  8
0
 62
     7
 10
5.902600
 20
1.094720
 11
5.905680
 21
1.834800
 12
5.959360
 22
1.092960
 13
5.962440
 23
1.832600
  0
POLYLINE
  8
0
  6
CONTINUOUS
 66
     1
 40
0.000000
 41
0.000000
  0
VERTEX
  8
0
  6
CONTINUOUS
 10
5.902600
 20
1.094720
  0
VERTEX
  8
0
  6
CONTINUOUS
 10
5.905680
 20
1.834800
  0
VERTEX
  8
0
  6
CONTINUOUS
 10
5.962440
 20
1.832600
  0
VERTEX
  8
0
  6
CONTINUOUS
 10
5.959360
 20
1.092960
  0
VERTEX
  8
0
  6
CONTINUOUS
 10
5.902600
 20
1.094720
  0
SEQEND
  8
0
  0
POLYLINE
  8
0
  6
CONTINUOUS
 66
     1
 40
0.000000
 41
0.000000
  0
VERTEX
  8
0
  6
CONTINUOUS
 10
5.959360
 20
1.092960
  0
VERTEX
  8
0
  6
CONTINUOUS
 10
5.962440
 20
1.832600
  0
VERTEX
  8
0
  6
CONTINUOUS
 10
5.959360
 20
1.092960
  0
SEQEND
  8
0
  0
POLYLINE
  8
0
  6
CONTINUOUS
 66
     1
 40
0.000000
 41
0.000000
  0
VERTEX
  8
0
  6
CONTINUOUS
 10
5.959360
 20
1.092960
  0
VERTEX
  8
0
  6
CONTINUOUS
 10
5.959360
 20
0.981640
  0
VERTEX
  8
0
  6
CONTINUOUS
 10
5.247440
 20
0.981640
  0
VERTEX
  8
0
  6
CONTINUOUS
 10
5.247440
 20
1.256200
  0
VERTEX
  8
0
  6
CONTINUOUS
 10
5.093000
 20
1.256200
  0
VERTEX
  8
0
  6
CONTINUOUS
 10
5.102240
 20
1.304160
  0
VERTEX
  8
0
  6
CONTINUOUS
 10
5.117640
 20
1.347280
  0
VERTEX
  8
0
  6
CONTINUOUS
 10
5.137880
 20
1.384240
  0
VERTEX
  8
0
  6
CONTINUOUS
 10
5.162960
 20
1.415920
  0
VERTEX
  8
0
  6
CONTINUOUS
 10
5.191560
 20
1.441440
  0
VERTEX
  8
0
  6
CONTINUOUS
 10
5.222800
 20
1.460800
  0
VERTEX
  8
0
  6
CONTINUOUS
 10
5.255800
 20
1.473560
  0
VERTEX
  8
0
  6
CONTINUOUS
 10
5.290120
 20
1.479280
  0
VERTEX
  8
0
  6
CONTINUOUS
 10
5.324000
 20
1.478400
  0
VERTEX
  8
0
  6
CONTINUOUS
 10
5.357000
 20
1.470480
  0
VERTEX
  8
0
  6
CONTINUOUS
 10
5.388680
 20
1.454640
  0
VERTEX
  8
0
  6
CONTINUOUS
 10
5.417720
 20
1.431320
  0
VERTEX
  8
0
  6
CONTINUOUS
 10
5.443240
 20
1.400520
  0
VERTEX
  8
0
  6
CONTINUOUS
 10
5.454240
 20
1.381600
  0
VERTEX
  8
0
  6
CONTINUOUS
 10
5.464360
 20
1.360920
  0
VERTEX
  8
0
  6
CONTINUOUS
 10
5.473160
 20
1.338480
  0
VERTEX
  8
0
  6
CONTINUOUS
 10
5.480200
 20
1.313400
  0
VERTEX
  8
0
  6
CONTINUOUS
 10
5.485920
 20
1.286560
  0
VERTEX
  8
0
  6
CONTINUOUS
 10
5.490320
 20
1.257080
  0
VERTEX
  8
0
  6
CONTINUOUS
 10
5.630680
 20
1.257080
  0
VERTEX
  8
0
  6
CONTINUOUS
 10
5.642560
 20
1.233760
  0
VERTEX
  8
0
  6
CONTINUOUS
 10
5.655760
 20
1.212200
  0
VERTEX
  8
0
  6
CONTINUOUS
 10
5.669840
 20
1.193280
  0
VERTEX
  8
0
  6
CONTINUOUS
 10
5.685240
 20
1.176120
  0
VERTEX
  8
0
  6
CONTINUOUS
 10
5.720000
 20
1.147520
  0
VERTEX
  8
0
  6
CONTINUOUS
 10
5.758720
 20
1.125960
  0
VERTEX
  8
0
  6
CONTINUOUS
 10
5.802280
 20
1.110560
  0
VERTEX
  8
0
  6
CONTINUOUS
 10
5.850240
 20
1.100440
  0
VERTEX
  8
0
  6
CONTINUOUS
 10
5.902600
 20
1.094720
  0
VERTEX
  8
0
  6
CONTINUOUS
 10
5.959360
 20
1.092960
  0
SEQEND
  8
0
  0
TEXT
  8
0
 10
5.232920
 20
0.774400
 40
0.138140
  1
BA  878
 41
1.000000
  7
SN0
 71
     0
 72
     5
 11
5.822850
 21
0.774400
  0
TEXT
  8
0
 10
5.151080
 20
0.582560
 40
0.138140
  1
1/2" x 7/8"
 41
1.000000
  7
SN0
 71
     0
 72
     5
 11
5.903864
 21
0.582560
  0
ENDSEC
  0
EOF
