  0
SECTION
  2
HEADER
  9
$ACADVER
  1
AC1006
  9
$EXTMIN
 10
3.452680
 20
0.630080
  9
$EXTMAX
 10
6.750480
 20
3.449600
  9
$LTSCALE
 40
0.044000
  9
$PDMODE
 70
    35
  9
$PDSIZE
 40
0.035200
  0
ENDSEC
  0
SECTION
  2
TABLES
  0
TABLE
  2
LTYPE
 70
     9
  0
LTYPE
  2
CONTINUOUS
 70
    64
  3
Solid line
 72
    65
 73
     0
 40
0.000000
  0
LTYPE
  2
DASHED
 70
    64
  3
__ __ __ __ __ __ __ __ __ __ __ __ __ __ __
 72
    65
 73
     2
 40
0.000330
 49
0.000220
 49
-0.000110
  0
LTYPE
  2
HIDDEN
 70
    64
  3
 _ _ _ _ _ _ _ _ _ _ _ _ _ _ _ _ _ _ _ _ _ _
 72
    65
 73
     2
 40
0.000165
 49
0.000110
 49
-0.000055
  0
LTYPE
  2
CENTER
 70
    64
  3
____ _ ____ _ ____ _ ____ _ ____ _ ____ _ ____
 72
    65
 73
     4
 40
0.000880
 49
0.000550
 49
-0.000110
 49
0.000110
 49
-0.000110
  0
LTYPE
  2
PHANTOM
 70
    64
  3
_____ _ _ _____ _ _ _____ _ _ _____ _ _ ____
 72
    65
 73
     6
 40
0.001100
 49
0.000550
 49
-0.000110
 49
0.000110
 49
-0.000110
 49
0.000110
 49
-0.000110
  0
LTYPE
  2
DOT
 70
    64
  3
...............................................
 72
    65
 73
     2
 40
0.000110
 49
0.000000
 49
-0.000110
  0
LTYPE
  2
DASHDOT
 70
    64
  3
__ . __ . __ . __ . __ . __ . __ . __ . __ . __
 72
    65
 73
     4
 40
0.000440
 49
0.000220
 49
-0.000110
 49
0.000000
 49
-0.000110
  0
LTYPE
  2
BORDER
 70
    64
  3
__ __ . __ __ . __ __ . __ __ . __ __ . __ __
 72
    65
 73
     6
 40
0.000770
 49
0.000220
 49
-0.000110
 49
0.000220
 49
-0.000110
 49
0.000000
 49
-0.000110
  0
LTYPE
  2
DIVIDE
 70
    64
  3
__ . . __ . . __ . . __ . . __ . . __ . . __
 72
    65
 73
     6
 40
0.000550
 49
0.000220
 49
-0.000110
 49
0.000000
 49
-0.000110
 49
0.000000
 49
-0.000110
  0
LTYPE
  2
DOTDOT
 70
    64
  3
 . .  . .  . .  . .  . .  . . 
 72
    65
 73
     5
 40
0.000242
 49
-0.000110
 49
0.000000
 49
-0.000110
 49
0.000000
 49
-0.000110
  0
ENDTAB
  0
TABLE
  2
STYLE
 70
     2
  0
STYLE
 70
     0
  2
SN0
 40
0.000000
 41
0.000440
 50
0.000000
 71
     0
 42
0.000000
  3
ROMAND
  0
STYLE
 70
    68
  2
SV0
 40
0.000000
 41
0.000440
 50
0.000000
 71
     0
 42
0.000000
  3
ROMAND
  0
ENDTAB
  0
TABLE
  2
LAYER
 70
     3
  0
LAYER
  2
FOREGROUND
 70
    64
 62
     7
  6
CONTINUOUS
  0
LAYER
  2
BACKGROUND
 70
    65
 62
    -7
  6
CONTINUOUS
  0
LAYER
  2
0
 70
    64
 62
     7
  6
CONTINUOUS
  0
ENDTAB
  0
ENDSEC
  0
SECTION
  2
ENTITIES
  0
POLYLINE
  8
FOREGROUND
  6
CONTINUOUS
 66
     1
 40
0.000000
 41
0.000000
  0
VERTEX
  8
FOREGROUND
  6
CONTINUOUS
 10
0.000000
 20
4.079680
  0
VERTEX
  8
FOREGROUND
  6
CONTINUOUS
 10
8.499920
 20
4.079680
  0
VERTEX
  8
FOREGROUND
  6
CONTINUOUS
 10
8.499920
 20
-6.920320
  0
VERTEX
  8
FOREGROUND
  6
CONTINUOUS
 10
0.000000
 20
-6.920320
  0
VERTEX
  8
FOREGROUND
  6
CONTINUOUS
 10
0.000000
 20
4.079680
  0
SEQEND
  8
0
  0
POLYLINE
  8
FOREGROUND
  6
CONTINUOUS
 66
     1
 40
0.000000
 41
0.000000
  0
VERTEX
  8
FOREGROUND
  6
CONTINUOUS
 10
0.000000
 20
4.079680
  0
VERTEX
  8
FOREGROUND
  6
CONTINUOUS
 10
8.499920
 20
4.079680
  0
VERTEX
  8
FOREGROUND
  6
CONTINUOUS
 10
8.499920
 20
-6.920320
  0
VERTEX
  8
FOREGROUND
  6
CONTINUOUS
 10
0.000000
 20
-6.920320
  0
VERTEX
  8
FOREGROUND
  6
CONTINUOUS
 10
0.000000
 20
4.079680
  0
SEQEND
  8
0
  0
SOLID
  8
0
 62
    15
 10
4.076600
 20
2.359280
 11
4.718560
 21
2.737240
 12
4.143480
 22
2.323200
 13
4.785440
 23
2.700720
  0
POLYLINE
  8
0
  6
CONTINUOUS
 66
     1
 40
0.000000
 41
0.000000
  0
VERTEX
  8
0
  6
CONTINUOUS
 10
4.076600
 20
2.359280
  0
VERTEX
  8
0
  6
CONTINUOUS
 10
4.718560
 20
2.737240
  0
VERTEX
  8
0
  6
CONTINUOUS
 10
4.785440
 20
2.700720
  0
VERTEX
  8
0
  6
CONTINUOUS
 10
4.143480
 20
2.323200
  0
VERTEX
  8
0
  6
CONTINUOUS
 10
4.076600
 20
2.359280
  0
SEQEND
  8
0
  0
SOLID
  8
0
 62
    15
 10
3.682360
 20
2.918520
 11
4.324320
 21
3.296480
 12
3.721080
 22
2.908840
 13
4.363040
 23
3.286800
  0
POLYLINE
  8
0
  6
CONTINUOUS
 66
     1
 40
0.000000
 41
0.000000
  0
VERTEX
  8
0
  6
CONTINUOUS
 10
3.682360
 20
2.918520
  0
VERTEX
  8
0
  6
CONTINUOUS
 10
4.324320
 20
3.296480
  0
VERTEX
  8
0
  6
CONTINUOUS
 10
4.363040
 20
3.286800
  0
VERTEX
  8
0
  6
CONTINUOUS
 10
3.721080
 20
2.908840
  0
VERTEX
  8
0
  6
CONTINUOUS
 10
3.682360
 20
2.918520
  0
SEQEND
  8
0
  0
SOLID
  8
0
 62
    15
 10
3.721080
 20
2.908840
 11
4.363040
 21
3.286800
 12
3.755840
 22
2.893440
 13
4.397800
 23
3.271400
  0
POLYLINE
  8
0
  6
CONTINUOUS
 66
     1
 40
0.000000
 41
0.000000
  0
VERTEX
  8
0
  6
CONTINUOUS
 10
3.721080
 20
2.908840
  0
VERTEX
  8
0
  6
CONTINUOUS
 10
4.363040
 20
3.286800
  0
VERTEX
  8
0
  6
CONTINUOUS
 10
4.397800
 20
3.271400
  0
VERTEX
  8
0
  6
CONTINUOUS
 10
3.755840
 20
2.893440
  0
VERTEX
  8
0
  6
CONTINUOUS
 10
3.721080
 20
2.908840
  0
SEQEND
  8
0
  0
SOLID
  8
0
 62
    15
 10
3.755840
 20
2.893440
 11
4.397800
 21
3.271400
 12
3.786640
 22
2.873640
 13
4.428600
 23
3.251600
  0
POLYLINE
  8
0
  6
CONTINUOUS
 66
     1
 40
0.000000
 41
0.000000
  0
VERTEX
  8
0
  6
CONTINUOUS
 10
3.755840
 20
2.893440
  0
VERTEX
  8
0
  6
CONTINUOUS
 10
4.397800
 20
3.271400
  0
VERTEX
  8
0
  6
CONTINUOUS
 10
4.428600
 20
3.251600
  0
VERTEX
  8
0
  6
CONTINUOUS
 10
3.786640
 20
2.873640
  0
VERTEX
  8
0
  6
CONTINUOUS
 10
3.755840
 20
2.893440
  0
SEQEND
  8
0
  0
SOLID
  8
0
 62
     7
 10
3.786640
 20
2.873640
 11
4.428600
 21
3.251600
 12
3.813480
 22
2.849880
 13
4.455000
 23
3.227840
  0
POLYLINE
  8
0
  6
CONTINUOUS
 66
     1
 40
0.000000
 41
0.000000
  0
VERTEX
  8
0
  6
CONTINUOUS
 10
3.786640
 20
2.873640
  0
VERTEX
  8
0
  6
CONTINUOUS
 10
4.428600
 20
3.251600
  0
VERTEX
  8
0
  6
CONTINUOUS
 10
4.455000
 20
3.227840
  0
VERTEX
  8
0
  6
CONTINUOUS
 10
3.813480
 20
2.849880
  0
VERTEX
  8
0
  6
CONTINUOUS
 10
3.786640
 20
2.873640
  0
SEQEND
  8
0
  0
SOLID
  8
0
 62
     7
 10
3.813480
 20
2.849880
 11
4.455000
 21
3.227840
 12
3.835480
 22
2.822600
 13
4.477440
 23
3.200560
  0
POLYLINE
  8
0
  6
CONTINUOUS
 66
     1
 40
0.000000
 41
0.000000
  0
VERTEX
  8
0
  6
CONTINUOUS
 10
3.813480
 20
2.849880
  0
VERTEX
  8
0
  6
CONTINUOUS
 10
4.455000
 20
3.227840
  0
VERTEX
  8
0
  6
CONTINUOUS
 10
4.477440
 20
3.200560
  0
VERTEX
  8
0
  6
CONTINUOUS
 10
3.835480
 20
2.822600
  0
VERTEX
  8
0
  6
CONTINUOUS
 10
3.813480
 20
2.849880
  0
SEQEND
  8
0
  0
SOLID
  8
0
 62
     7
 10
3.835480
 20
2.822600
 11
4.477440
 21
3.200560
 12
3.865400
 22
2.762320
 13
4.507360
 23
3.140280
  0
POLYLINE
  8
0
  6
CONTINUOUS
 66
     1
 40
0.000000
 41
0.000000
  0
VERTEX
  8
0
  6
CONTINUOUS
 10
3.835480
 20
2.822600
  0
VERTEX
  8
0
  6
CONTINUOUS
 10
4.477440
 20
3.200560
  0
VERTEX
  8
0
  6
CONTINUOUS
 10
4.507360
 20
3.140280
  0
VERTEX
  8
0
  6
CONTINUOUS
 10
3.865400
 20
2.762320
  0
VERTEX
  8
0
  6
CONTINUOUS
 10
3.835480
 20
2.822600
  0
SEQEND
  8
0
  0
SOLID
  8
0
 62
    15
 10
3.865400
 20
2.762320
 11
4.507360
 21
3.140280
 12
3.874640
 22
2.698080
 13
4.516600
 23
3.076040
  0
POLYLINE
  8
0
  6
CONTINUOUS
 66
     1
 40
0.000000
 41
0.000000
  0
VERTEX
  8
0
  6
CONTINUOUS
 10
3.865400
 20
2.762320
  0
VERTEX
  8
0
  6
CONTINUOUS
 10
4.507360
 20
3.140280
  0
VERTEX
  8
0
  6
CONTINUOUS
 10
4.516600
 20
3.076040
  0
VERTEX
  8
0
  6
CONTINUOUS
 10
3.874640
 20
2.698080
  0
VERTEX
  8
0
  6
CONTINUOUS
 10
3.865400
 20
2.762320
  0
SEQEND
  8
0
  0
SOLID
  8
0
 62
    15
 10
3.874640
 20
2.698080
 11
4.516600
 21
3.076040
 12
3.871120
 22
2.666840
 13
4.513080
 23
3.044800
  0
POLYLINE
  8
0
  6
CONTINUOUS
 66
     1
 40
0.000000
 41
0.000000
  0
VERTEX
  8
0
  6
CONTINUOUS
 10
3.874640
 20
2.698080
  0
VERTEX
  8
0
  6
CONTINUOUS
 10
4.516600
 20
3.076040
  0
VERTEX
  8
0
  6
CONTINUOUS
 10
4.513080
 20
3.044800
  0
VERTEX
  8
0
  6
CONTINUOUS
 10
3.871120
 20
2.666840
  0
VERTEX
  8
0
  6
CONTINUOUS
 10
3.874640
 20
2.698080
  0
SEQEND
  8
0
  0
SOLID
  8
0
 62
    15
 10
3.871120
 20
2.666840
 11
4.513080
 21
3.044800
 12
3.861880
 22
2.636920
 13
4.503400
 23
3.014880
  0
POLYLINE
  8
0
  6
CONTINUOUS
 66
     1
 40
0.000000
 41
0.000000
  0
VERTEX
  8
0
  6
CONTINUOUS
 10
3.871120
 20
2.666840
  0
VERTEX
  8
0
  6
CONTINUOUS
 10
4.513080
 20
3.044800
  0
VERTEX
  8
0
  6
CONTINUOUS
 10
4.503400
 20
3.014880
  0
VERTEX
  8
0
  6
CONTINUOUS
 10
3.861880
 20
2.636920
  0
VERTEX
  8
0
  6
CONTINUOUS
 10
3.871120
 20
2.666840
  0
SEQEND
  8
0
  0
SOLID
  8
0
 62
    15
 10
3.861880
 20
2.636920
 11
4.503400
 21
3.014880
 12
3.846040
 22
2.609200
 13
4.488000
 23
2.987160
  0
POLYLINE
  8
0
  6
CONTINUOUS
 66
     1
 40
0.000000
 41
0.000000
  0
VERTEX
  8
0
  6
CONTINUOUS
 10
3.861880
 20
2.636920
  0
VERTEX
  8
0
  6
CONTINUOUS
 10
4.503400
 20
3.014880
  0
VERTEX
  8
0
  6
CONTINUOUS
 10
4.488000
 20
2.987160
  0
VERTEX
  8
0
  6
CONTINUOUS
 10
3.846040
 20
2.609200
  0
VERTEX
  8
0
  6
CONTINUOUS
 10
3.861880
 20
2.636920
  0
SEQEND
  8
0
  0
SOLID
  8
0
 62
    15
 10
3.761120
 20
2.547600
 11
4.403080
 21
2.925560
 12
3.761120
 22
2.475880
 13
4.403080
 23
2.853840
  0
POLYLINE
  8
0
  6
CONTINUOUS
 66
     1
 40
0.000000
 41
0.000000
  0
VERTEX
  8
0
  6
CONTINUOUS
 10
3.761120
 20
2.547600
  0
VERTEX
  8
0
  6
CONTINUOUS
 10
4.403080
 20
2.925560
  0
VERTEX
  8
0
  6
CONTINUOUS
 10
4.403080
 20
2.853840
  0
VERTEX
  8
0
  6
CONTINUOUS
 10
3.761120
 20
2.475880
  0
VERTEX
  8
0
  6
CONTINUOUS
 10
3.761120
 20
2.547600
  0
SEQEND
  8
0
  0
SOLID
  8
0
 62
    15
 10
3.824480
 20
2.584560
 11
4.466440
 21
2.962520
 12
3.795880
 22
2.563880
 13
4.437840
 23
2.941840
  0
POLYLINE
  8
0
  6
CONTINUOUS
 66
     1
 40
0.000000
 41
0.000000
  0
VERTEX
  8
0
  6
CONTINUOUS
 10
3.824480
 20
2.584560
  0
VERTEX
  8
0
  6
CONTINUOUS
 10
4.466440
 20
2.962520
  0
VERTEX
  8
0
  6
CONTINUOUS
 10
4.437840
 20
2.941840
  0
VERTEX
  8
0
  6
CONTINUOUS
 10
3.795880
 20
2.563880
  0
VERTEX
  8
0
  6
CONTINUOUS
 10
3.824480
 20
2.584560
  0
SEQEND
  8
0
  0
SOLID
  8
0
 62
    15
 10
3.846040
 20
2.609200
 11
4.488000
 21
2.987160
 12
3.824480
 22
2.584560
 13
4.466440
 23
2.962520
  0
POLYLINE
  8
0
  6
CONTINUOUS
 66
     1
 40
0.000000
 41
0.000000
  0
VERTEX
  8
0
  6
CONTINUOUS
 10
3.846040
 20
2.609200
  0
VERTEX
  8
0
  6
CONTINUOUS
 10
4.488000
 20
2.987160
  0
VERTEX
  8
0
  6
CONTINUOUS
 10
4.466440
 20
2.962520
  0
VERTEX
  8
0
  6
CONTINUOUS
 10
3.824480
 20
2.584560
  0
VERTEX
  8
0
  6
CONTINUOUS
 10
3.846040
 20
2.609200
  0
SEQEND
  8
0
  0
SOLID
  8
0
 62
    15
 10
3.761120
 20
2.475880
 11
4.403080
 21
2.853840
 12
3.847360
 22
2.451240
 13
4.488880
 23
2.829200
  0
POLYLINE
  8
0
  6
CONTINUOUS
 66
     1
 40
0.000000
 41
0.000000
  0
VERTEX
  8
0
  6
CONTINUOUS
 10
3.761120
 20
2.475880
  0
VERTEX
  8
0
  6
CONTINUOUS
 10
4.403080
 20
2.853840
  0
VERTEX
  8
0
  6
CONTINUOUS
 10
4.488880
 20
2.829200
  0
VERTEX
  8
0
  6
CONTINUOUS
 10
3.847360
 20
2.451240
  0
VERTEX
  8
0
  6
CONTINUOUS
 10
3.761120
 20
2.475880
  0
SEQEND
  8
0
  0
SOLID
  8
0
 62
    15
 10
3.847360
 20
2.451240
 11
4.488880
 21
2.829200
 12
3.928760
 22
2.423520
 13
4.570280
 23
2.801480
  0
POLYLINE
  8
0
  6
CONTINUOUS
 66
     1
 40
0.000000
 41
0.000000
  0
VERTEX
  8
0
  6
CONTINUOUS
 10
3.847360
 20
2.451240
  0
VERTEX
  8
0
  6
CONTINUOUS
 10
4.488880
 20
2.829200
  0
VERTEX
  8
0
  6
CONTINUOUS
 10
4.570280
 20
2.801480
  0
VERTEX
  8
0
  6
CONTINUOUS
 10
3.928760
 20
2.423520
  0
VERTEX
  8
0
  6
CONTINUOUS
 10
3.847360
 20
2.451240
  0
SEQEND
  8
0
  0
SOLID
  8
0
 62
    15
 10
3.928760
 20
2.423520
 11
4.570280
 21
2.801480
 12
4.004880
 22
2.392720
 13
4.646840
 23
2.770680
  0
POLYLINE
  8
0
  6
CONTINUOUS
 66
     1
 40
0.000000
 41
0.000000
  0
VERTEX
  8
0
  6
CONTINUOUS
 10
3.928760
 20
2.423520
  0
VERTEX
  8
0
  6
CONTINUOUS
 10
4.570280
 20
2.801480
  0
VERTEX
  8
0
  6
CONTINUOUS
 10
4.646840
 20
2.770680
  0
VERTEX
  8
0
  6
CONTINUOUS
 10
4.004880
 20
2.392720
  0
VERTEX
  8
0
  6
CONTINUOUS
 10
3.928760
 20
2.423520
  0
SEQEND
  8
0
  0
SOLID
  8
0
 62
    15
 10
4.004880
 20
2.392720
 11
4.646840
 21
2.770680
 12
4.076600
 22
2.359280
 13
4.718560
 23
2.737240
  0
POLYLINE
  8
0
  6
CONTINUOUS
 66
     1
 40
0.000000
 41
0.000000
  0
VERTEX
  8
0
  6
CONTINUOUS
 10
4.004880
 20
2.392720
  0
VERTEX
  8
0
  6
CONTINUOUS
 10
4.646840
 20
2.770680
  0
VERTEX
  8
0
  6
CONTINUOUS
 10
4.718560
 20
2.737240
  0
VERTEX
  8
0
  6
CONTINUOUS
 10
4.076600
 20
2.359280
  0
VERTEX
  8
0
  6
CONTINUOUS
 10
4.004880
 20
2.392720
  0
SEQEND
  8
0
  0
SOLID
  8
0
 62
    15
 10
3.640120
 20
2.921600
 11
4.282080
 21
3.299560
 12
3.682360
 22
2.918520
 13
4.324320
 23
3.296480
  0
POLYLINE
  8
0
  6
CONTINUOUS
 66
     1
 40
0.000000
 41
0.000000
  0
VERTEX
  8
0
  6
CONTINUOUS
 10
3.640120
 20
2.921600
  0
VERTEX
  8
0
  6
CONTINUOUS
 10
4.282080
 20
3.299560
  0
VERTEX
  8
0
  6
CONTINUOUS
 10
4.324320
 20
3.296480
  0
VERTEX
  8
0
  6
CONTINUOUS
 10
3.682360
 20
2.918520
  0
VERTEX
  8
0
  6
CONTINUOUS
 10
3.640120
 20
2.921600
  0
SEQEND
  8
0
  0
SOLID
  8
0
 62
     7
 10
4.143480
 20
2.323200
 11
4.785440
 21
2.700720
 12
4.205960
 22
2.284480
 13
4.847920
 23
2.662440
  0
POLYLINE
  8
0
  6
CONTINUOUS
 66
     1
 40
0.000000
 41
0.000000
  0
VERTEX
  8
0
  6
CONTINUOUS
 10
4.143480
 20
2.323200
  0
VERTEX
  8
0
  6
CONTINUOUS
 10
4.785440
 20
2.700720
  0
VERTEX
  8
0
  6
CONTINUOUS
 10
4.847920
 20
2.662440
  0
VERTEX
  8
0
  6
CONTINUOUS
 10
4.205960
 20
2.284480
  0
VERTEX
  8
0
  6
CONTINUOUS
 10
4.143480
 20
2.323200
  0
SEQEND
  8
0
  0
SOLID
  8
0
 62
     7
 10
4.205960
 20
2.284480
 11
4.847920
 21
2.662440
 12
4.316400
 22
2.201320
 13
4.958360
 23
2.579280
  0
POLYLINE
  8
0
  6
CONTINUOUS
 66
     1
 40
0.000000
 41
0.000000
  0
VERTEX
  8
0
  6
CONTINUOUS
 10
4.205960
 20
2.284480
  0
VERTEX
  8
0
  6
CONTINUOUS
 10
4.847920
 20
2.662440
  0
VERTEX
  8
0
  6
CONTINUOUS
 10
4.958360
 20
2.579280
  0
VERTEX
  8
0
  6
CONTINUOUS
 10
4.316400
 20
2.201320
  0
VERTEX
  8
0
  6
CONTINUOUS
 10
4.205960
 20
2.284480
  0
SEQEND
  8
0
  0
SOLID
  8
0
 62
     7
 10
4.316400
 20
2.201320
 11
4.958360
 21
2.579280
 12
4.408360
 22
2.111560
 13
5.050320
 23
2.489520
  0
POLYLINE
  8
0
  6
CONTINUOUS
 66
     1
 40
0.000000
 41
0.000000
  0
VERTEX
  8
0
  6
CONTINUOUS
 10
4.316400
 20
2.201320
  0
VERTEX
  8
0
  6
CONTINUOUS
 10
4.958360
 20
2.579280
  0
VERTEX
  8
0
  6
CONTINUOUS
 10
5.050320
 20
2.489520
  0
VERTEX
  8
0
  6
CONTINUOUS
 10
4.408360
 20
2.111560
  0
VERTEX
  8
0
  6
CONTINUOUS
 10
4.316400
 20
2.201320
  0
SEQEND
  8
0
  0
SOLID
  8
0
 62
     7
 10
4.408360
 20
2.111560
 11
5.050320
 21
2.489520
 12
4.482280
 22
2.016080
 13
5.124240
 23
2.394040
  0
POLYLINE
  8
0
  6
CONTINUOUS
 66
     1
 40
0.000000
 41
0.000000
  0
VERTEX
  8
0
  6
CONTINUOUS
 10
4.408360
 20
2.111560
  0
VERTEX
  8
0
  6
CONTINUOUS
 10
5.050320
 20
2.489520
  0
VERTEX
  8
0
  6
CONTINUOUS
 10
5.124240
 20
2.394040
  0
VERTEX
  8
0
  6
CONTINUOUS
 10
4.482280
 20
2.016080
  0
VERTEX
  8
0
  6
CONTINUOUS
 10
4.408360
 20
2.111560
  0
SEQEND
  8
0
  0
SOLID
  8
0
 62
     7
 10
4.482280
 20
2.016080
 11
5.124240
 21
2.394040
 12
4.538600
 22
1.917520
 13
5.180560
 23
2.295480
  0
POLYLINE
  8
0
  6
CONTINUOUS
 66
     1
 40
0.000000
 41
0.000000
  0
VERTEX
  8
0
  6
CONTINUOUS
 10
4.482280
 20
2.016080
  0
VERTEX
  8
0
  6
CONTINUOUS
 10
5.124240
 20
2.394040
  0
VERTEX
  8
0
  6
CONTINUOUS
 10
5.180560
 20
2.295480
  0
VERTEX
  8
0
  6
CONTINUOUS
 10
4.538600
 20
1.917520
  0
VERTEX
  8
0
  6
CONTINUOUS
 10
4.482280
 20
2.016080
  0
SEQEND
  8
0
  0
SOLID
  8
0
 62
     7
 10
4.538600
 20
1.917520
 11
5.180560
 21
2.295480
 12
4.577320
 22
1.816760
 13
5.219280
 23
2.194720
  0
POLYLINE
  8
0
  6
CONTINUOUS
 66
     1
 40
0.000000
 41
0.000000
  0
VERTEX
  8
0
  6
CONTINUOUS
 10
4.538600
 20
1.917520
  0
VERTEX
  8
0
  6
CONTINUOUS
 10
5.180560
 20
2.295480
  0
VERTEX
  8
0
  6
CONTINUOUS
 10
5.219280
 20
2.194720
  0
VERTEX
  8
0
  6
CONTINUOUS
 10
4.577320
 20
1.816760
  0
VERTEX
  8
0
  6
CONTINUOUS
 10
4.538600
 20
1.917520
  0
SEQEND
  8
0
  0
SOLID
  8
0
 62
    15
 10
4.577320
 20
1.816760
 11
5.219280
 21
2.194720
 12
4.599320
 22
1.716000
 13
5.241280
 23
2.093960
  0
POLYLINE
  8
0
  6
CONTINUOUS
 66
     1
 40
0.000000
 41
0.000000
  0
VERTEX
  8
0
  6
CONTINUOUS
 10
4.577320
 20
1.816760
  0
VERTEX
  8
0
  6
CONTINUOUS
 10
5.219280
 20
2.194720
  0
VERTEX
  8
0
  6
CONTINUOUS
 10
5.241280
 20
2.093960
  0
VERTEX
  8
0
  6
CONTINUOUS
 10
4.599320
 20
1.716000
  0
VERTEX
  8
0
  6
CONTINUOUS
 10
4.577320
 20
1.816760
  0
SEQEND
  8
0
  0
SOLID
  8
0
 62
    15
 10
4.599320
 20
1.716000
 11
5.241280
 21
2.093960
 12
4.604600
 22
1.617000
 13
5.246120
 23
1.994960
  0
POLYLINE
  8
0
  6
CONTINUOUS
 66
     1
 40
0.000000
 41
0.000000
  0
VERTEX
  8
0
  6
CONTINUOUS
 10
4.599320
 20
1.716000
  0
VERTEX
  8
0
  6
CONTINUOUS
 10
5.241280
 20
2.093960
  0
VERTEX
  8
0
  6
CONTINUOUS
 10
5.246120
 20
1.994960
  0
VERTEX
  8
0
  6
CONTINUOUS
 10
4.604600
 20
1.617000
  0
VERTEX
  8
0
  6
CONTINUOUS
 10
4.599320
 20
1.716000
  0
SEQEND
  8
0
  0
SOLID
  8
0
 62
    15
 10
4.604600
 20
1.617000
 11
5.246120
 21
1.994960
 12
4.593160
 22
1.520640
 13
5.235120
 23
1.898600
  0
POLYLINE
  8
0
  6
CONTINUOUS
 66
     1
 40
0.000000
 41
0.000000
  0
VERTEX
  8
0
  6
CONTINUOUS
 10
4.604600
 20
1.617000
  0
VERTEX
  8
0
  6
CONTINUOUS
 10
5.246120
 20
1.994960
  0
VERTEX
  8
0
  6
CONTINUOUS
 10
5.235120
 20
1.898600
  0
VERTEX
  8
0
  6
CONTINUOUS
 10
4.593160
 20
1.520640
  0
VERTEX
  8
0
  6
CONTINUOUS
 10
4.604600
 20
1.617000
  0
SEQEND
  8
0
  0
SOLID
  8
0
 62
    15
 10
4.593160
 20
1.520640
 11
5.235120
 21
1.898600
 12
4.565880
 22
1.429560
 13
5.207840
 23
1.807520
  0
POLYLINE
  8
0
  6
CONTINUOUS
 66
     1
 40
0.000000
 41
0.000000
  0
VERTEX
  8
0
  6
CONTINUOUS
 10
4.593160
 20
1.520640
  0
VERTEX
  8
0
  6
CONTINUOUS
 10
5.235120
 20
1.898600
  0
VERTEX
  8
0
  6
CONTINUOUS
 10
5.207840
 20
1.807520
  0
VERTEX
  8
0
  6
CONTINUOUS
 10
4.565880
 20
1.429560
  0
VERTEX
  8
0
  6
CONTINUOUS
 10
4.593160
 20
1.520640
  0
SEQEND
  8
0
  0
SOLID
  8
0
 62
    15
 10
4.565880
 20
1.429560
 11
5.207840
 21
1.807520
 12
4.522760
 22
1.344640
 13
5.164720
 23
1.722600
  0
POLYLINE
  8
0
  6
CONTINUOUS
 66
     1
 40
0.000000
 41
0.000000
  0
VERTEX
  8
0
  6
CONTINUOUS
 10
4.565880
 20
1.429560
  0
VERTEX
  8
0
  6
CONTINUOUS
 10
5.207840
 20
1.807520
  0
VERTEX
  8
0
  6
CONTINUOUS
 10
5.164720
 20
1.722600
  0
VERTEX
  8
0
  6
CONTINUOUS
 10
4.522760
 20
1.344640
  0
VERTEX
  8
0
  6
CONTINUOUS
 10
4.565880
 20
1.429560
  0
SEQEND
  8
0
  0
SOLID
  8
0
 62
    15
 10
4.522760
 20
1.344640
 11
5.164720
 21
1.722600
 12
4.464240
 22
1.268520
 13
5.106200
 23
1.646040
  0
POLYLINE
  8
0
  6
CONTINUOUS
 66
     1
 40
0.000000
 41
0.000000
  0
VERTEX
  8
0
  6
CONTINUOUS
 10
4.522760
 20
1.344640
  0
VERTEX
  8
0
  6
CONTINUOUS
 10
5.164720
 20
1.722600
  0
VERTEX
  8
0
  6
CONTINUOUS
 10
5.106200
 20
1.646040
  0
VERTEX
  8
0
  6
CONTINUOUS
 10
4.464240
 20
1.268520
  0
VERTEX
  8
0
  6
CONTINUOUS
 10
4.522760
 20
1.344640
  0
SEQEND
  8
0
  0
SOLID
  8
0
 62
    15
 10
4.390320
 20
1.201640
 11
5.032280
 21
1.579600
 12
4.302320
 22
1.146640
 13
4.943840
 23
1.524600
  0
POLYLINE
  8
0
  6
CONTINUOUS
 66
     1
 40
0.000000
 41
0.000000
  0
VERTEX
  8
0
  6
CONTINUOUS
 10
4.390320
 20
1.201640
  0
VERTEX
  8
0
  6
CONTINUOUS
 10
5.032280
 20
1.579600
  0
VERTEX
  8
0
  6
CONTINUOUS
 10
4.943840
 20
1.524600
  0
VERTEX
  8
0
  6
CONTINUOUS
 10
4.302320
 20
1.146640
  0
VERTEX
  8
0
  6
CONTINUOUS
 10
4.390320
 20
1.201640
  0
SEQEND
  8
0
  0
SOLID
  8
0
 62
    15
 10
4.464240
 20
1.268520
 11
5.106200
 21
1.646040
 12
4.390320
 22
1.201640
 13
5.032280
 23
1.579600
  0
POLYLINE
  8
0
  6
CONTINUOUS
 66
     1
 40
0.000000
 41
0.000000
  0
VERTEX
  8
0
  6
CONTINUOUS
 10
4.464240
 20
1.268520
  0
VERTEX
  8
0
  6
CONTINUOUS
 10
5.106200
 20
1.646040
  0
VERTEX
  8
0
  6
CONTINUOUS
 10
5.032280
 20
1.579600
  0
VERTEX
  8
0
  6
CONTINUOUS
 10
4.390320
 20
1.201640
  0
VERTEX
  8
0
  6
CONTINUOUS
 10
4.464240
 20
1.268520
  0
SEQEND
  8
0
  0
SOLID
  8
0
 62
    15
 10
3.453120
 20
3.025000
 11
4.095080
 21
3.402960
 12
3.637480
 22
3.025000
 13
4.279440
 23
3.402960
  0
POLYLINE
  8
0
  6
CONTINUOUS
 66
     1
 40
0.000000
 41
0.000000
  0
VERTEX
  8
0
  6
CONTINUOUS
 10
3.453120
 20
3.025000
  0
VERTEX
  8
0
  6
CONTINUOUS
 10
4.095080
 20
3.402960
  0
VERTEX
  8
0
  6
CONTINUOUS
 10
4.279440
 20
3.402960
  0
VERTEX
  8
0
  6
CONTINUOUS
 10
3.637480
 20
3.025000
  0
VERTEX
  8
0
  6
CONTINUOUS
 10
3.453120
 20
3.025000
  0
SEQEND
  8
0
  0
SOLID
  8
0
 62
    15
 10
3.637480
 20
3.025000
 11
4.279440
 21
3.402960
 12
3.637480
 22
2.921600
 13
4.279440
 23
3.299560
  0
POLYLINE
  8
0
  6
CONTINUOUS
 66
     1
 40
0.000000
 41
0.000000
  0
VERTEX
  8
0
  6
CONTINUOUS
 10
3.637480
 20
3.025000
  0
VERTEX
  8
0
  6
CONTINUOUS
 10
4.279440
 20
3.402960
  0
VERTEX
  8
0
  6
CONTINUOUS
 10
4.279440
 20
3.299560
  0
VERTEX
  8
0
  6
CONTINUOUS
 10
3.637480
 20
2.921600
  0
VERTEX
  8
0
  6
CONTINUOUS
 10
3.637480
 20
3.025000
  0
SEQEND
  8
0
  0
SOLID
  8
0
 62
    15
 10
3.637480
 20
2.921600
 11
4.279440
 21
3.299560
 12
3.640120
 22
2.921600
 13
4.282080
 23
3.299560
  0
POLYLINE
  8
0
  6
CONTINUOUS
 66
     1
 40
0.000000
 41
0.000000
  0
VERTEX
  8
0
  6
CONTINUOUS
 10
3.637480
 20
2.921600
  0
VERTEX
  8
0
  6
CONTINUOUS
 10
4.279440
 20
3.299560
  0
VERTEX
  8
0
  6
CONTINUOUS
 10
4.282080
 20
3.299560
  0
VERTEX
  8
0
  6
CONTINUOUS
 10
3.640120
 20
2.921600
  0
VERTEX
  8
0
  6
CONTINUOUS
 10
3.637480
 20
2.921600
  0
SEQEND
  8
0
  0
POLYLINE
  8
0
  6
CONTINUOUS
 66
     1
 40
0.000000
 41
0.000000
  0
VERTEX
  8
0
  6
CONTINUOUS
 10
3.640120
 20
2.921600
  0
VERTEX
  8
0
  6
CONTINUOUS
 10
3.682360
 20
2.918520
  0
VERTEX
  8
0
  6
CONTINUOUS
 10
3.721080
 20
2.908840
  0
VERTEX
  8
0
  6
CONTINUOUS
 10
3.755840
 20
2.893440
  0
VERTEX
  8
0
  6
CONTINUOUS
 10
3.786640
 20
2.873640
  0
VERTEX
  8
0
  6
CONTINUOUS
 10
3.813480
 20
2.849880
  0
VERTEX
  8
0
  6
CONTINUOUS
 10
3.835480
 20
2.822600
  0
VERTEX
  8
0
  6
CONTINUOUS
 10
3.865400
 20
2.762320
  0
VERTEX
  8
0
  6
CONTINUOUS
 10
3.874640
 20
2.698080
  0
VERTEX
  8
0
  6
CONTINUOUS
 10
3.871120
 20
2.666840
  0
VERTEX
  8
0
  6
CONTINUOUS
 10
3.861880
 20
2.636920
  0
VERTEX
  8
0
  6
CONTINUOUS
 10
3.846040
 20
2.609200
  0
VERTEX
  8
0
  6
CONTINUOUS
 10
3.824480
 20
2.584560
  0
VERTEX
  8
0
  6
CONTINUOUS
 10
3.795880
 20
2.563880
  0
VERTEX
  8
0
  6
CONTINUOUS
 10
3.761120
 20
2.547600
  0
VERTEX
  8
0
  6
CONTINUOUS
 10
3.761120
 20
2.475880
  0
VERTEX
  8
0
  6
CONTINUOUS
 10
3.847360
 20
2.451240
  0
VERTEX
  8
0
  6
CONTINUOUS
 10
3.928760
 20
2.423520
  0
VERTEX
  8
0
  6
CONTINUOUS
 10
4.004880
 20
2.392720
  0
VERTEX
  8
0
  6
CONTINUOUS
 10
4.076600
 20
2.359280
  0
VERTEX
  8
0
  6
CONTINUOUS
 10
4.143480
 20
2.323200
  0
VERTEX
  8
0
  6
CONTINUOUS
 10
4.205960
 20
2.284480
  0
VERTEX
  8
0
  6
CONTINUOUS
 10
4.316400
 20
2.201320
  0
VERTEX
  8
0
  6
CONTINUOUS
 10
4.408360
 20
2.111560
  0
VERTEX
  8
0
  6
CONTINUOUS
 10
4.482280
 20
2.016080
  0
VERTEX
  8
0
  6
CONTINUOUS
 10
4.538600
 20
1.917520
  0
VERTEX
  8
0
  6
CONTINUOUS
 10
4.577320
 20
1.816760
  0
VERTEX
  8
0
  6
CONTINUOUS
 10
4.599320
 20
1.716000
  0
VERTEX
  8
0
  6
CONTINUOUS
 10
4.604600
 20
1.617000
  0
VERTEX
  8
0
  6
CONTINUOUS
 10
4.593160
 20
1.520640
  0
VERTEX
  8
0
  6
CONTINUOUS
 10
4.565880
 20
1.429560
  0
VERTEX
  8
0
  6
CONTINUOUS
 10
4.522760
 20
1.344640
  0
VERTEX
  8
0
  6
CONTINUOUS
 10
4.464240
 20
1.268520
  0
VERTEX
  8
0
  6
CONTINUOUS
 10
4.390320
 20
1.201640
  0
VERTEX
  8
0
  6
CONTINUOUS
 10
4.302320
 20
1.146640
  0
VERTEX
  8
0
  6
CONTINUOUS
 10
3.453120
 20
1.146640
  0
VERTEX
  8
0
  6
CONTINUOUS
 10
3.453120
 20
3.025000
  0
VERTEX
  8
0
  6
CONTINUOUS
 10
3.637480
 20
3.025000
  0
VERTEX
  8
0
  6
CONTINUOUS
 10
3.637480
 20
2.921600
  0
VERTEX
  8
0
  6
CONTINUOUS
 10
3.640120
 20
2.921600
  0
SEQEND
  8
0
  0
TEXT
  8
0
 10
4.055040
 20
0.866360
 40
0.138004
  1
BA  877
 41
1.000000
  7
SN0
 71
     0
 72
     5
 11
4.644852
 21
0.866360
  0
TEXT
  8
0
 10
3.686760
 20
0.674520
 40
0.138004
  1
1-3/16" x 1-13/16"
 41
1.000000
  7
SN0
 71
     0
 72
     5
 11
5.010497
 21
0.674520
  0
POLYLINE
  8
0
  6
CONTINUOUS
 66
     1
 40
0.014080
 41
0.014080
  0
VERTEX
  8
0
  6
CONTINUOUS
 10
5.779400
 20
3.338720
  0
VERTEX
  8
0
  6
CONTINUOUS
 10
5.800960
 20
3.337840
  0
VERTEX
  8
0
  6
CONTINUOUS
 10
5.841440
 20
3.331240
  0
VERTEX
  8
0
  6
CONTINUOUS
 10
5.860360
 20
3.325520
  0
VERTEX
  8
0
  6
CONTINUOUS
 10
5.895120
 20
3.310560
  0
VERTEX
  8
0
  6
CONTINUOUS
 10
5.925920
 20
3.290760
  0
VERTEX
  8
0
  6
CONTINUOUS
 10
5.952320
 20
3.266560
  0
VERTEX
  8
0
  6
CONTINUOUS
 10
5.974760
 20
3.239720
  0
VERTEX
  8
0
  6
CONTINUOUS
 10
5.991920
 20
3.210240
  0
VERTEX
  8
0
  6
CONTINUOUS
 10
6.004680
 20
3.179000
  0
VERTEX
  8
0
  6
CONTINUOUS
 10
6.011720
 20
3.147320
  0
VERTEX
  8
0
  6
CONTINUOUS
 10
6.013920
 20
3.115200
  0
VERTEX
  8
0
  6
CONTINUOUS
 10
6.010400
 20
3.083960
  0
VERTEX
  8
0
  6
CONTINUOUS
 10
6.000720
 20
3.054040
  0
VERTEX
  8
0
  6
CONTINUOUS
 10
5.985320
 20
3.026320
  0
VERTEX
  8
0
  6
CONTINUOUS
 10
5.975200
 20
3.013560
  0
VERTEX
  8
0
  6
CONTINUOUS
 10
5.950120
 20
2.990680
  0
VERTEX
  8
0
  6
CONTINUOUS
 10
5.918440
 20
2.972200
  0
VERTEX
  8
0
  6
CONTINUOUS
 10
5.899960
 20
2.964720
  0
VERTEX
  8
0
  6
CONTINUOUS
 10
5.899960
 20
2.893000
  0
VERTEX
  8
0
  6
CONTINUOUS
 10
5.986200
 20
2.868360
  0
VERTEX
  8
0
  6
CONTINUOUS
 10
6.067600
 20
2.840640
  0
VERTEX
  8
0
  6
CONTINUOUS
 10
6.144160
 20
2.809840
  0
VERTEX
  8
0
  6
CONTINUOUS
 10
6.215880
 20
2.775960
  0
VERTEX
  8
0
  6
CONTINUOUS
 10
6.282760
 20
2.739880
  0
VERTEX
  8
0
  6
CONTINUOUS
 10
6.344800
 20
2.701600
  0
VERTEX
  8
0
  6
CONTINUOUS
 10
6.402440
 20
2.661120
  0
VERTEX
  8
0
  6
CONTINUOUS
 10
6.455240
 20
2.618440
  0
VERTEX
  8
0
  6
CONTINUOUS
 10
6.526080
 20
2.551560
  0
VERTEX
  8
0
  6
CONTINUOUS
 10
6.586800
 20
2.481160
  0
VERTEX
  8
0
  6
CONTINUOUS
 10
6.621560
 20
2.433200
  0
VERTEX
  8
0
  6
CONTINUOUS
 10
6.651920
 20
2.383920
  0
VERTEX
  8
0
  6
CONTINUOUS
 10
6.677880
 20
2.334200
  0
VERTEX
  8
0
  6
CONTINUOUS
 10
6.699440
 20
2.284040
  0
VERTEX
  8
0
  6
CONTINUOUS
 10
6.716600
 20
2.233880
  0
VERTEX
  8
0
  6
CONTINUOUS
 10
6.729360
 20
2.183280
  0
VERTEX
  8
0
  6
CONTINUOUS
 10
6.734640
 20
2.158200
  0
VERTEX
  8
0
  6
CONTINUOUS
 10
6.741240
 20
2.108040
  0
VERTEX
  8
0
  6
CONTINUOUS
 10
6.743880
 20
2.058320
  0
VERTEX
  8
0
  6
CONTINUOUS
 10
6.742120
 20
2.009480
  0
VERTEX
  8
0
  6
CONTINUOUS
 10
6.736400
 20
1.961080
  0
VERTEX
  8
0
  6
CONTINUOUS
 10
6.726720
 20
1.914440
  0
VERTEX
  8
0
  6
CONTINUOUS
 10
6.713080
 20
1.868680
  0
VERTEX
  8
0
  6
CONTINUOUS
 10
6.695480
 20
1.824680
  0
VERTEX
  8
0
  6
CONTINUOUS
 10
6.673920
 20
1.782000
  0
VERTEX
  8
0
  6
CONTINUOUS
 10
6.648400
 20
1.741520
  0
VERTEX
  8
0
  6
CONTINUOUS
 10
6.619360
 20
1.703240
  0
VERTEX
  8
0
  6
CONTINUOUS
 10
6.568320
 20
1.650440
  0
VERTEX
  8
0
  6
CONTINUOUS
 10
6.529600
 20
1.618320
  0
VERTEX
  8
0
  6
CONTINUOUS
 10
6.487360
 20
1.589280
  0
VERTEX
  8
0
  6
CONTINUOUS
 10
6.441160
 20
1.563320
  0
VERTEX
  8
0
  6
CONTINUOUS
 10
5.592400
 20
1.563320
  0
VERTEX
  8
0
  6
CONTINUOUS
 10
5.592400
 20
3.442120
  0
VERTEX
  8
0
  6
CONTINUOUS
 10
5.776320
 20
3.442120
  0
VERTEX
  8
0
  6
CONTINUOUS
 10
5.776320
 20
3.338720
  0
VERTEX
  8
0
  6
CONTINUOUS
 10
5.779400
 20
3.338720
  0
SEQEND
  8
0
  0
ENDSEC
  0
EOF
