  0
SECTION
  2
HEADER
  9
$ACADVER
  1
AC1006
  9
$EXTMIN
 10
3.619440
 20
0.434720
  9
$EXTMAX
 10
7.128440
 20
5.841000
  9
$LTSCALE
 40
0.044000
  9
$PDMODE
 70
    35
  9
$PDSIZE
 40
0.035200
  0
ENDSEC
  0
SECTION
  2
TABLES
  0
TABLE
  2
LTYPE
 70
     9
  0
LTYPE
  2
CONTINUOUS
 70
    64
  3
Solid line
 72
    65
 73
     0
 40
0.000000
  0
LTYPE
  2
DASHED
 70
    64
  3
__ __ __ __ __ __ __ __ __ __ __ __ __ __ __
 72
    65
 73
     2
 40
0.000330
 49
0.000220
 49
-0.000110
  0
LTYPE
  2
HIDDEN
 70
    64
  3
 _ _ _ _ _ _ _ _ _ _ _ _ _ _ _ _ _ _ _ _ _ _
 72
    65
 73
     2
 40
0.000165
 49
0.000110
 49
-0.000055
  0
LTYPE
  2
CENTER
 70
    64
  3
____ _ ____ _ ____ _ ____ _ ____ _ ____ _ ____
 72
    65
 73
     4
 40
0.000880
 49
0.000550
 49
-0.000110
 49
0.000110
 49
-0.000110
  0
LTYPE
  2
PHANTOM
 70
    64
  3
_____ _ _ _____ _ _ _____ _ _ _____ _ _ ____
 72
    65
 73
     6
 40
0.001100
 49
0.000550
 49
-0.000110
 49
0.000110
 49
-0.000110
 49
0.000110
 49
-0.000110
  0
LTYPE
  2
DOT
 70
    64
  3
...............................................
 72
    65
 73
     2
 40
0.000110
 49
0.000000
 49
-0.000110
  0
LTYPE
  2
DASHDOT
 70
    64
  3
__ . __ . __ . __ . __ . __ . __ . __ . __ . __
 72
    65
 73
     4
 40
0.000440
 49
0.000220
 49
-0.000110
 49
0.000000
 49
-0.000110
  0
LTYPE
  2
BORDER
 70
    64
  3
__ __ . __ __ . __ __ . __ __ . __ __ . __ __
 72
    65
 73
     6
 40
0.000770
 49
0.000220
 49
-0.000110
 49
0.000220
 49
-0.000110
 49
0.000000
 49
-0.000110
  0
LTYPE
  2
DIVIDE
 70
    64
  3
__ . . __ . . __ . . __ . . __ . . __ . . __
 72
    65
 73
     6
 40
0.000550
 49
0.000220
 49
-0.000110
 49
0.000000
 49
-0.000110
 49
0.000000
 49
-0.000110
  0
LTYPE
  2
DOTDOT
 70
    64
  3
 . .  . .  . .  . .  . .  . . 
 72
    65
 73
     5
 40
0.000242
 49
-0.000110
 49
0.000000
 49
-0.000110
 49
0.000000
 49
-0.000110
  0
ENDTAB
  0
TABLE
  2
STYLE
 70
     2
  0
STYLE
 70
     0
  2
SN0
 40
0.000000
 41
0.000440
 50
0.000000
 71
     0
 42
0.000000
  3
ROMAND
  0
STYLE
 70
    68
  2
SV0
 40
0.000000
 41
0.000440
 50
0.000000
 71
     0
 42
0.000000
  3
ROMAND
  0
ENDTAB
  0
TABLE
  2
LAYER
 70
     3
  0
LAYER
  2
FOREGROUND
 70
    64
 62
     7
  6
CONTINUOUS
  0
LAYER
  2
BACKGROUND
 70
    65
 62
    -7
  6
CONTINUOUS
  0
LAYER
  2
0
 70
    64
 62
     7
  6
CONTINUOUS
  0
ENDTAB
  0
ENDSEC
  0
SECTION
  2
ENTITIES
  0
POLYLINE
  8
FOREGROUND
  6
CONTINUOUS
 66
     1
 40
0.000000
 41
0.000000
  0
VERTEX
  8
FOREGROUND
  6
CONTINUOUS
 10
0.000000
 20
6.275720
  0
VERTEX
  8
FOREGROUND
  6
CONTINUOUS
 10
8.499920
 20
6.275720
  0
VERTEX
  8
FOREGROUND
  6
CONTINUOUS
 10
8.499920
 20
-4.724280
  0
VERTEX
  8
FOREGROUND
  6
CONTINUOUS
 10
0.000000
 20
-4.724280
  0
VERTEX
  8
FOREGROUND
  6
CONTINUOUS
 10
0.000000
 20
6.275720
  0
SEQEND
  8
0
  0
POLYLINE
  8
FOREGROUND
  6
CONTINUOUS
 66
     1
 40
0.000000
 41
0.000000
  0
VERTEX
  8
FOREGROUND
  6
CONTINUOUS
 10
0.000000
 20
6.275720
  0
VERTEX
  8
FOREGROUND
  6
CONTINUOUS
 10
8.499920
 20
6.275720
  0
VERTEX
  8
FOREGROUND
  6
CONTINUOUS
 10
8.499920
 20
-4.724280
  0
VERTEX
  8
FOREGROUND
  6
CONTINUOUS
 10
0.000000
 20
-4.724280
  0
VERTEX
  8
FOREGROUND
  6
CONTINUOUS
 10
0.000000
 20
6.275720
  0
SEQEND
  8
0
  0
SOLID
  8
0
 62
    15
 10
5.679960
 20
3.050960
 11
6.309600
 21
3.423200
 12
5.786000
 22
2.929080
 13
6.415640
 23
3.301320
  0
POLYLINE
  8
0
  6
CONTINUOUS
 66
     1
 40
0.000000
 41
0.000000
  0
VERTEX
  8
0
  6
CONTINUOUS
 10
5.679960
 20
3.050960
  0
VERTEX
  8
0
  6
CONTINUOUS
 10
6.309600
 20
3.423200
  0
VERTEX
  8
0
  6
CONTINUOUS
 10
6.415640
 20
3.301320
  0
VERTEX
  8
0
  6
CONTINUOUS
 10
5.786000
 20
2.929080
  0
VERTEX
  8
0
  6
CONTINUOUS
 10
5.679960
 20
3.050960
  0
SEQEND
  8
0
  0
SOLID
  8
0
 62
    15
 10
5.027880
 20
4.105640
 11
5.657960
 21
4.478320
 12
5.064400
 22
4.100800
 13
5.694040
 23
4.473480
  0
POLYLINE
  8
0
  6
CONTINUOUS
 66
     1
 40
0.000000
 41
0.000000
  0
VERTEX
  8
0
  6
CONTINUOUS
 10
5.027880
 20
4.105640
  0
VERTEX
  8
0
  6
CONTINUOUS
 10
5.657960
 20
4.478320
  0
VERTEX
  8
0
  6
CONTINUOUS
 10
5.694040
 20
4.473480
  0
VERTEX
  8
0
  6
CONTINUOUS
 10
5.064400
 20
4.100800
  0
VERTEX
  8
0
  6
CONTINUOUS
 10
5.027880
 20
4.105640
  0
SEQEND
  8
0
  0
SOLID
  8
0
 62
    15
 10
5.064400
 20
4.100800
 11
5.694040
 21
4.473480
 12
5.102680
 22
4.086280
 13
5.732320
 23
4.458960
  0
POLYLINE
  8
0
  6
CONTINUOUS
 66
     1
 40
0.000000
 41
0.000000
  0
VERTEX
  8
0
  6
CONTINUOUS
 10
5.064400
 20
4.100800
  0
VERTEX
  8
0
  6
CONTINUOUS
 10
5.694040
 20
4.473480
  0
VERTEX
  8
0
  6
CONTINUOUS
 10
5.732320
 20
4.458960
  0
VERTEX
  8
0
  6
CONTINUOUS
 10
5.102680
 20
4.086280
  0
VERTEX
  8
0
  6
CONTINUOUS
 10
5.064400
 20
4.100800
  0
SEQEND
  8
0
  0
SOLID
  8
0
 62
    15
 10
5.102680
 20
4.086280
 11
5.732320
 21
4.458960
 12
5.181440
 22
4.032160
 13
5.811520
 23
4.404840
  0
POLYLINE
  8
0
  6
CONTINUOUS
 66
     1
 40
0.000000
 41
0.000000
  0
VERTEX
  8
0
  6
CONTINUOUS
 10
5.102680
 20
4.086280
  0
VERTEX
  8
0
  6
CONTINUOUS
 10
5.732320
 20
4.458960
  0
VERTEX
  8
0
  6
CONTINUOUS
 10
5.811520
 20
4.404840
  0
VERTEX
  8
0
  6
CONTINUOUS
 10
5.181440
 20
4.032160
  0
VERTEX
  8
0
  6
CONTINUOUS
 10
5.102680
 20
4.086280
  0
SEQEND
  8
0
  0
SOLID
  8
0
 62
    15
 10
5.181440
 20
4.032160
 11
5.811520
 21
4.404840
 12
5.253160
 22
3.952080
 13
5.882800
 23
4.324760
  0
POLYLINE
  8
0
  6
CONTINUOUS
 66
     1
 40
0.000000
 41
0.000000
  0
VERTEX
  8
0
  6
CONTINUOUS
 10
5.181440
 20
4.032160
  0
VERTEX
  8
0
  6
CONTINUOUS
 10
5.811520
 20
4.404840
  0
VERTEX
  8
0
  6
CONTINUOUS
 10
5.882800
 20
4.324760
  0
VERTEX
  8
0
  6
CONTINUOUS
 10
5.253160
 20
3.952080
  0
VERTEX
  8
0
  6
CONTINUOUS
 10
5.181440
 20
4.032160
  0
SEQEND
  8
0
  0
SOLID
  8
0
 62
    15
 10
5.253160
 20
3.952080
 11
5.882800
 21
4.324760
 12
5.305960
 22
3.853960
 13
5.935600
 23
4.226640
  0
POLYLINE
  8
0
  6
CONTINUOUS
 66
     1
 40
0.000000
 41
0.000000
  0
VERTEX
  8
0
  6
CONTINUOUS
 10
5.253160
 20
3.952080
  0
VERTEX
  8
0
  6
CONTINUOUS
 10
5.882800
 20
4.324760
  0
VERTEX
  8
0
  6
CONTINUOUS
 10
5.935600
 20
4.226640
  0
VERTEX
  8
0
  6
CONTINUOUS
 10
5.305960
 20
3.853960
  0
VERTEX
  8
0
  6
CONTINUOUS
 10
5.253160
 20
3.952080
  0
SEQEND
  8
0
  0
SOLID
  8
0
 62
    15
 10
5.305960
 20
3.853960
 11
5.935600
 21
4.226640
 12
5.328840
 22
3.746160
 13
5.958920
 23
4.118840
  0
POLYLINE
  8
0
  6
CONTINUOUS
 66
     1
 40
0.000000
 41
0.000000
  0
VERTEX
  8
0
  6
CONTINUOUS
 10
5.305960
 20
3.853960
  0
VERTEX
  8
0
  6
CONTINUOUS
 10
5.935600
 20
4.226640
  0
VERTEX
  8
0
  6
CONTINUOUS
 10
5.958920
 20
4.118840
  0
VERTEX
  8
0
  6
CONTINUOUS
 10
5.328840
 20
3.746160
  0
VERTEX
  8
0
  6
CONTINUOUS
 10
5.305960
 20
3.853960
  0
SEQEND
  8
0
  0
SOLID
  8
0
 62
    15
 10
5.328840
 20
3.746160
 11
5.958920
 21
4.118840
 12
5.325760
 22
3.691160
 13
5.955400
 23
4.063840
  0
POLYLINE
  8
0
  6
CONTINUOUS
 66
     1
 40
0.000000
 41
0.000000
  0
VERTEX
  8
0
  6
CONTINUOUS
 10
5.328840
 20
3.746160
  0
VERTEX
  8
0
  6
CONTINUOUS
 10
5.958920
 20
4.118840
  0
VERTEX
  8
0
  6
CONTINUOUS
 10
5.955400
 20
4.063840
  0
VERTEX
  8
0
  6
CONTINUOUS
 10
5.325760
 20
3.691160
  0
VERTEX
  8
0
  6
CONTINUOUS
 10
5.328840
 20
3.746160
  0
SEQEND
  8
0
  0
SOLID
  8
0
 62
    15
 10
5.325760
 20
3.691160
 11
5.955400
 21
4.063840
 12
5.310800
 22
3.636600
 13
5.940440
 23
4.009280
  0
POLYLINE
  8
0
  6
CONTINUOUS
 66
     1
 40
0.000000
 41
0.000000
  0
VERTEX
  8
0
  6
CONTINUOUS
 10
5.325760
 20
3.691160
  0
VERTEX
  8
0
  6
CONTINUOUS
 10
5.955400
 20
4.063840
  0
VERTEX
  8
0
  6
CONTINUOUS
 10
5.940440
 20
4.009280
  0
VERTEX
  8
0
  6
CONTINUOUS
 10
5.310800
 20
3.636600
  0
VERTEX
  8
0
  6
CONTINUOUS
 10
5.325760
 20
3.691160
  0
SEQEND
  8
0
  0
SOLID
  8
0
 62
    15
 10
5.310800
 20
3.636600
 11
5.940440
 21
4.009280
 12
5.282640
 22
3.584240
 13
5.912280
 23
3.956920
  0
POLYLINE
  8
0
  6
CONTINUOUS
 66
     1
 40
0.000000
 41
0.000000
  0
VERTEX
  8
0
  6
CONTINUOUS
 10
5.310800
 20
3.636600
  0
VERTEX
  8
0
  6
CONTINUOUS
 10
5.940440
 20
4.009280
  0
VERTEX
  8
0
  6
CONTINUOUS
 10
5.912280
 20
3.956920
  0
VERTEX
  8
0
  6
CONTINUOUS
 10
5.282640
 20
3.584240
  0
VERTEX
  8
0
  6
CONTINUOUS
 10
5.310800
 20
3.636600
  0
SEQEND
  8
0
  0
SOLID
  8
0
 62
    15
 10
5.282640
 20
3.584240
 11
5.912280
 21
3.956920
 12
5.239960
 22
3.534520
 13
5.869600
 23
3.906760
  0
POLYLINE
  8
0
  6
CONTINUOUS
 66
     1
 40
0.000000
 41
0.000000
  0
VERTEX
  8
0
  6
CONTINUOUS
 10
5.282640
 20
3.584240
  0
VERTEX
  8
0
  6
CONTINUOUS
 10
5.912280
 20
3.956920
  0
VERTEX
  8
0
  6
CONTINUOUS
 10
5.869600
 20
3.906760
  0
VERTEX
  8
0
  6
CONTINUOUS
 10
5.239960
 20
3.534520
  0
VERTEX
  8
0
  6
CONTINUOUS
 10
5.282640
 20
3.584240
  0
SEQEND
  8
0
  0
SOLID
  8
0
 62
    15
 10
5.104880
 20
3.446960
 11
5.734520
 21
3.819640
 12
5.107960
 22
3.351480
 13
5.737600
 23
3.724160
  0
POLYLINE
  8
0
  6
CONTINUOUS
 66
     1
 40
0.000000
 41
0.000000
  0
VERTEX
  8
0
  6
CONTINUOUS
 10
5.104880
 20
3.446960
  0
VERTEX
  8
0
  6
CONTINUOUS
 10
5.734520
 20
3.819640
  0
VERTEX
  8
0
  6
CONTINUOUS
 10
5.737600
 20
3.724160
  0
VERTEX
  8
0
  6
CONTINUOUS
 10
5.107960
 20
3.351480
  0
VERTEX
  8
0
  6
CONTINUOUS
 10
5.104880
 20
3.446960
  0
SEQEND
  8
0
  0
SOLID
  8
0
 62
    15
 10
5.239960
 20
3.534520
 11
5.869600
 21
3.906760
 12
5.181000
 22
3.488320
 13
5.810640
 23
3.861000
  0
POLYLINE
  8
0
  6
CONTINUOUS
 66
     1
 40
0.000000
 41
0.000000
  0
VERTEX
  8
0
  6
CONTINUOUS
 10
5.239960
 20
3.534520
  0
VERTEX
  8
0
  6
CONTINUOUS
 10
5.869600
 20
3.906760
  0
VERTEX
  8
0
  6
CONTINUOUS
 10
5.810640
 20
3.861000
  0
VERTEX
  8
0
  6
CONTINUOUS
 10
5.181000
 20
3.488320
  0
VERTEX
  8
0
  6
CONTINUOUS
 10
5.239960
 20
3.534520
  0
SEQEND
  8
0
  0
SOLID
  8
0
 62
    15
 10
5.107960
 20
3.351480
 11
5.737600
 21
3.724160
 12
5.190680
 22
3.343120
 13
5.820320
 23
3.715360
  0
POLYLINE
  8
0
  6
CONTINUOUS
 66
     1
 40
0.000000
 41
0.000000
  0
VERTEX
  8
0
  6
CONTINUOUS
 10
5.107960
 20
3.351480
  0
VERTEX
  8
0
  6
CONTINUOUS
 10
5.737600
 20
3.724160
  0
VERTEX
  8
0
  6
CONTINUOUS
 10
5.820320
 20
3.715360
  0
VERTEX
  8
0
  6
CONTINUOUS
 10
5.190680
 20
3.343120
  0
VERTEX
  8
0
  6
CONTINUOUS
 10
5.107960
 20
3.351480
  0
SEQEND
  8
0
  0
SOLID
  8
0
 62
    15
 10
5.190680
 20
3.343120
 11
5.820320
 21
3.715360
 12
5.270760
 22
3.323760
 13
5.900400
 23
3.696440
  0
POLYLINE
  8
0
  6
CONTINUOUS
 66
     1
 40
0.000000
 41
0.000000
  0
VERTEX
  8
0
  6
CONTINUOUS
 10
5.190680
 20
3.343120
  0
VERTEX
  8
0
  6
CONTINUOUS
 10
5.820320
 20
3.715360
  0
VERTEX
  8
0
  6
CONTINUOUS
 10
5.900400
 20
3.696440
  0
VERTEX
  8
0
  6
CONTINUOUS
 10
5.270760
 20
3.323760
  0
VERTEX
  8
0
  6
CONTINUOUS
 10
5.190680
 20
3.343120
  0
SEQEND
  8
0
  0
SOLID
  8
0
 62
    15
 10
5.270760
 20
3.323760
 11
5.900400
 21
3.696440
 12
5.420800
 22
3.257760
 13
6.050880
 23
3.630440
  0
POLYLINE
  8
0
  6
CONTINUOUS
 66
     1
 40
0.000000
 41
0.000000
  0
VERTEX
  8
0
  6
CONTINUOUS
 10
5.270760
 20
3.323760
  0
VERTEX
  8
0
  6
CONTINUOUS
 10
5.900400
 20
3.696440
  0
VERTEX
  8
0
  6
CONTINUOUS
 10
6.050880
 20
3.630440
  0
VERTEX
  8
0
  6
CONTINUOUS
 10
5.420800
 20
3.257760
  0
VERTEX
  8
0
  6
CONTINUOUS
 10
5.270760
 20
3.323760
  0
SEQEND
  8
0
  0
SOLID
  8
0
 62
    15
 10
5.420800
 20
3.257760
 11
6.050880
 21
3.630440
 12
5.557640
 22
3.163600
 13
6.187720
 23
3.536280
  0
POLYLINE
  8
0
  6
CONTINUOUS
 66
     1
 40
0.000000
 41
0.000000
  0
VERTEX
  8
0
  6
CONTINUOUS
 10
5.420800
 20
3.257760
  0
VERTEX
  8
0
  6
CONTINUOUS
 10
6.050880
 20
3.630440
  0
VERTEX
  8
0
  6
CONTINUOUS
 10
6.187720
 20
3.536280
  0
VERTEX
  8
0
  6
CONTINUOUS
 10
5.557640
 20
3.163600
  0
VERTEX
  8
0
  6
CONTINUOUS
 10
5.420800
 20
3.257760
  0
SEQEND
  8
0
  0
SOLID
  8
0
 62
    15
 10
5.557640
 20
3.163600
 11
6.187720
 21
3.536280
 12
5.679960
 22
3.050960
 13
6.309600
 23
3.423200
  0
POLYLINE
  8
0
  6
CONTINUOUS
 66
     1
 40
0.000000
 41
0.000000
  0
VERTEX
  8
0
  6
CONTINUOUS
 10
5.557640
 20
3.163600
  0
VERTEX
  8
0
  6
CONTINUOUS
 10
6.187720
 20
3.536280
  0
VERTEX
  8
0
  6
CONTINUOUS
 10
6.309600
 20
3.423200
  0
VERTEX
  8
0
  6
CONTINUOUS
 10
5.679960
 20
3.050960
  0
VERTEX
  8
0
  6
CONTINUOUS
 10
5.557640
 20
3.163600
  0
SEQEND
  8
0
  0
SOLID
  8
0
 62
    15
 10
4.234120
 20
4.057680
 11
4.863760
 21
4.429920
 12
5.027880
 22
4.105640
 13
5.657960
 23
4.478320
  0
POLYLINE
  8
0
  6
CONTINUOUS
 66
     1
 40
0.000000
 41
0.000000
  0
VERTEX
  8
0
  6
CONTINUOUS
 10
4.234120
 20
4.057680
  0
VERTEX
  8
0
  6
CONTINUOUS
 10
4.863760
 20
4.429920
  0
VERTEX
  8
0
  6
CONTINUOUS
 10
5.657960
 20
4.478320
  0
VERTEX
  8
0
  6
CONTINUOUS
 10
5.027880
 20
4.105640
  0
VERTEX
  8
0
  6
CONTINUOUS
 10
4.234120
 20
4.057680
  0
SEQEND
  8
0
  0
SOLID
  8
0
 62
    15
 10
5.786000
 20
2.929080
 11
6.415640
 21
3.301320
 12
5.874440
 22
2.807200
 13
6.504080
 23
3.179880
  0
POLYLINE
  8
0
  6
CONTINUOUS
 66
     1
 40
0.000000
 41
0.000000
  0
VERTEX
  8
0
  6
CONTINUOUS
 10
5.786000
 20
2.929080
  0
VERTEX
  8
0
  6
CONTINUOUS
 10
6.415640
 20
3.301320
  0
VERTEX
  8
0
  6
CONTINUOUS
 10
6.504080
 20
3.179880
  0
VERTEX
  8
0
  6
CONTINUOUS
 10
5.874440
 20
2.807200
  0
VERTEX
  8
0
  6
CONTINUOUS
 10
5.786000
 20
2.929080
  0
SEQEND
  8
0
  0
SOLID
  8
0
 62
    15
 10
5.874440
 20
2.807200
 11
6.504080
 21
3.179880
 12
5.944400
 22
2.695880
 13
6.574040
 23
3.068560
  0
POLYLINE
  8
0
  6
CONTINUOUS
 66
     1
 40
0.000000
 41
0.000000
  0
VERTEX
  8
0
  6
CONTINUOUS
 10
5.874440
 20
2.807200
  0
VERTEX
  8
0
  6
CONTINUOUS
 10
6.504080
 20
3.179880
  0
VERTEX
  8
0
  6
CONTINUOUS
 10
6.574040
 20
3.068560
  0
VERTEX
  8
0
  6
CONTINUOUS
 10
5.944400
 20
2.695880
  0
VERTEX
  8
0
  6
CONTINUOUS
 10
5.874440
 20
2.807200
  0
SEQEND
  8
0
  0
SOLID
  8
0
 62
    15
 10
5.944400
 20
2.695880
 11
6.574040
 21
3.068560
 12
5.995000
 22
2.604360
 13
6.624640
 23
2.977040
  0
POLYLINE
  8
0
  6
CONTINUOUS
 66
     1
 40
0.000000
 41
0.000000
  0
VERTEX
  8
0
  6
CONTINUOUS
 10
5.944400
 20
2.695880
  0
VERTEX
  8
0
  6
CONTINUOUS
 10
6.574040
 20
3.068560
  0
VERTEX
  8
0
  6
CONTINUOUS
 10
6.624640
 20
2.977040
  0
VERTEX
  8
0
  6
CONTINUOUS
 10
5.995000
 20
2.604360
  0
VERTEX
  8
0
  6
CONTINUOUS
 10
5.944400
 20
2.695880
  0
SEQEND
  8
0
  0
SOLID
  8
0
 62
    15
 10
5.995000
 20
2.604360
 11
6.624640
 21
2.977040
 12
6.017440
 22
2.559040
 13
6.647520
 23
2.931280
  0
POLYLINE
  8
0
  6
CONTINUOUS
 66
     1
 40
0.000000
 41
0.000000
  0
VERTEX
  8
0
  6
CONTINUOUS
 10
5.995000
 20
2.604360
  0
VERTEX
  8
0
  6
CONTINUOUS
 10
6.624640
 20
2.977040
  0
VERTEX
  8
0
  6
CONTINUOUS
 10
6.647520
 20
2.931280
  0
VERTEX
  8
0
  6
CONTINUOUS
 10
6.017440
 20
2.559040
  0
VERTEX
  8
0
  6
CONTINUOUS
 10
5.995000
 20
2.604360
  0
SEQEND
  8
0
  0
SOLID
  8
0
 62
    15
 10
6.017440
 20
2.559040
 11
6.647520
 21
2.931280
 12
6.045160
 22
2.501400
 13
6.674800
 23
2.873640
  0
POLYLINE
  8
0
  6
CONTINUOUS
 66
     1
 40
0.000000
 41
0.000000
  0
VERTEX
  8
0
  6
CONTINUOUS
 10
6.017440
 20
2.559040
  0
VERTEX
  8
0
  6
CONTINUOUS
 10
6.647520
 20
2.931280
  0
VERTEX
  8
0
  6
CONTINUOUS
 10
6.674800
 20
2.873640
  0
VERTEX
  8
0
  6
CONTINUOUS
 10
6.045160
 20
2.501400
  0
VERTEX
  8
0
  6
CONTINUOUS
 10
6.017440
 20
2.559040
  0
SEQEND
  8
0
  0
SOLID
  8
0
 62
    15
 10
6.045160
 20
2.501400
 11
6.674800
 21
2.873640
 12
6.106760
 22
2.356200
 13
6.736400
 23
2.728880
  0
POLYLINE
  8
0
  6
CONTINUOUS
 66
     1
 40
0.000000
 41
0.000000
  0
VERTEX
  8
0
  6
CONTINUOUS
 10
6.045160
 20
2.501400
  0
VERTEX
  8
0
  6
CONTINUOUS
 10
6.674800
 20
2.873640
  0
VERTEX
  8
0
  6
CONTINUOUS
 10
6.736400
 20
2.728880
  0
VERTEX
  8
0
  6
CONTINUOUS
 10
6.106760
 20
2.356200
  0
VERTEX
  8
0
  6
CONTINUOUS
 10
6.045160
 20
2.501400
  0
SEQEND
  8
0
  0
SOLID
  8
0
 62
    15
 10
6.106760
 20
2.356200
 11
6.736400
 21
2.728880
 12
6.164840
 22
2.180640
 13
6.794920
 23
2.552880
  0
POLYLINE
  8
0
  6
CONTINUOUS
 66
     1
 40
0.000000
 41
0.000000
  0
VERTEX
  8
0
  6
CONTINUOUS
 10
6.106760
 20
2.356200
  0
VERTEX
  8
0
  6
CONTINUOUS
 10
6.736400
 20
2.728880
  0
VERTEX
  8
0
  6
CONTINUOUS
 10
6.794920
 20
2.552880
  0
VERTEX
  8
0
  6
CONTINUOUS
 10
6.164840
 20
2.180640
  0
VERTEX
  8
0
  6
CONTINUOUS
 10
6.106760
 20
2.356200
  0
SEQEND
  8
0
  0
SOLID
  8
0
 62
    15
 10
6.164840
 20
2.180640
 11
6.794920
 21
2.552880
 12
6.205760
 22
1.985280
 13
6.835400
 23
2.357520
  0
POLYLINE
  8
0
  6
CONTINUOUS
 66
     1
 40
0.000000
 41
0.000000
  0
VERTEX
  8
0
  6
CONTINUOUS
 10
6.164840
 20
2.180640
  0
VERTEX
  8
0
  6
CONTINUOUS
 10
6.794920
 20
2.552880
  0
VERTEX
  8
0
  6
CONTINUOUS
 10
6.835400
 20
2.357520
  0
VERTEX
  8
0
  6
CONTINUOUS
 10
6.205760
 20
1.985280
  0
VERTEX
  8
0
  6
CONTINUOUS
 10
6.164840
 20
2.180640
  0
SEQEND
  8
0
  0
SOLID
  8
0
 62
    15
 10
6.205760
 20
1.985280
 11
6.835400
 21
2.357520
 12
6.215000
 22
1.883640
 13
6.844640
 23
2.256320
  0
POLYLINE
  8
0
  6
CONTINUOUS
 66
     1
 40
0.000000
 41
0.000000
  0
VERTEX
  8
0
  6
CONTINUOUS
 10
6.205760
 20
1.985280
  0
VERTEX
  8
0
  6
CONTINUOUS
 10
6.835400
 20
2.357520
  0
VERTEX
  8
0
  6
CONTINUOUS
 10
6.844640
 20
2.256320
  0
VERTEX
  8
0
  6
CONTINUOUS
 10
6.215000
 20
1.883640
  0
VERTEX
  8
0
  6
CONTINUOUS
 10
6.205760
 20
1.985280
  0
SEQEND
  8
0
  0
SOLID
  8
0
 62
    15
 10
6.215000
 20
1.883640
 11
6.844640
 21
2.256320
 12
6.214120
 22
1.781560
 13
6.843760
 23
2.154240
  0
POLYLINE
  8
0
  6
CONTINUOUS
 66
     1
 40
0.000000
 41
0.000000
  0
VERTEX
  8
0
  6
CONTINUOUS
 10
6.215000
 20
1.883640
  0
VERTEX
  8
0
  6
CONTINUOUS
 10
6.844640
 20
2.256320
  0
VERTEX
  8
0
  6
CONTINUOUS
 10
6.843760
 20
2.154240
  0
VERTEX
  8
0
  6
CONTINUOUS
 10
6.214120
 20
1.781560
  0
VERTEX
  8
0
  6
CONTINUOUS
 10
6.215000
 20
1.883640
  0
SEQEND
  8
0
  0
SOLID
  8
0
 62
    15
 10
6.214120
 20
1.781560
 11
6.843760
 21
2.154240
 12
6.201800
 22
1.680360
 13
6.831440
 23
2.053040
  0
POLYLINE
  8
0
  6
CONTINUOUS
 66
     1
 40
0.000000
 41
0.000000
  0
VERTEX
  8
0
  6
CONTINUOUS
 10
6.214120
 20
1.781560
  0
VERTEX
  8
0
  6
CONTINUOUS
 10
6.843760
 20
2.154240
  0
VERTEX
  8
0
  6
CONTINUOUS
 10
6.831440
 20
2.053040
  0
VERTEX
  8
0
  6
CONTINUOUS
 10
6.201800
 20
1.680360
  0
VERTEX
  8
0
  6
CONTINUOUS
 10
6.214120
 20
1.781560
  0
SEQEND
  8
0
  0
SOLID
  8
0
 62
    15
 10
6.201800
 20
1.680360
 11
6.831440
 21
2.053040
 12
6.175840
 22
1.580920
 13
6.805480
 23
1.953600
  0
POLYLINE
  8
0
  6
CONTINUOUS
 66
     1
 40
0.000000
 41
0.000000
  0
VERTEX
  8
0
  6
CONTINUOUS
 10
6.201800
 20
1.680360
  0
VERTEX
  8
0
  6
CONTINUOUS
 10
6.831440
 20
2.053040
  0
VERTEX
  8
0
  6
CONTINUOUS
 10
6.805480
 20
1.953600
  0
VERTEX
  8
0
  6
CONTINUOUS
 10
6.175840
 20
1.580920
  0
VERTEX
  8
0
  6
CONTINUOUS
 10
6.201800
 20
1.680360
  0
SEQEND
  8
0
  0
SOLID
  8
0
 62
    15
 10
6.175840
 20
1.580920
 11
6.805480
 21
1.953600
 12
6.134920
 22
1.485440
 13
6.764560
 23
1.857680
  0
POLYLINE
  8
0
  6
CONTINUOUS
 66
     1
 40
0.000000
 41
0.000000
  0
VERTEX
  8
0
  6
CONTINUOUS
 10
6.175840
 20
1.580920
  0
VERTEX
  8
0
  6
CONTINUOUS
 10
6.805480
 20
1.953600
  0
VERTEX
  8
0
  6
CONTINUOUS
 10
6.764560
 20
1.857680
  0
VERTEX
  8
0
  6
CONTINUOUS
 10
6.134920
 20
1.485440
  0
VERTEX
  8
0
  6
CONTINUOUS
 10
6.175840
 20
1.580920
  0
SEQEND
  8
0
  0
SOLID
  8
0
 62
    15
 10
6.134920
 20
1.485440
 11
6.764560
 21
1.857680
 12
6.076840
 22
1.394360
 13
6.706480
 23
1.767040
  0
POLYLINE
  8
0
  6
CONTINUOUS
 66
     1
 40
0.000000
 41
0.000000
  0
VERTEX
  8
0
  6
CONTINUOUS
 10
6.134920
 20
1.485440
  0
VERTEX
  8
0
  6
CONTINUOUS
 10
6.764560
 20
1.857680
  0
VERTEX
  8
0
  6
CONTINUOUS
 10
6.706480
 20
1.767040
  0
VERTEX
  8
0
  6
CONTINUOUS
 10
6.076840
 20
1.394360
  0
VERTEX
  8
0
  6
CONTINUOUS
 10
6.134920
 20
1.485440
  0
SEQEND
  8
0
  0
SOLID
  8
0
 62
    15
 10
5.901720
 20
1.232880
 11
6.531800
 21
1.605560
 12
5.877960
 22
1.001440
 13
6.507600
 23
1.374120
  0
POLYLINE
  8
0
  6
CONTINUOUS
 66
     1
 40
0.000000
 41
0.000000
  0
VERTEX
  8
0
  6
CONTINUOUS
 10
5.901720
 20
1.232880
  0
VERTEX
  8
0
  6
CONTINUOUS
 10
6.531800
 20
1.605560
  0
VERTEX
  8
0
  6
CONTINUOUS
 10
6.507600
 20
1.374120
  0
VERTEX
  8
0
  6
CONTINUOUS
 10
5.877960
 20
1.001440
  0
VERTEX
  8
0
  6
CONTINUOUS
 10
5.901720
 20
1.232880
  0
SEQEND
  8
0
  0
SOLID
  8
0
 62
    15
 10
5.999400
 20
1.309880
 11
6.629480
 21
1.682560
 12
5.901720
 22
1.232880
 13
6.531800
 23
1.605560
  0
POLYLINE
  8
0
  6
CONTINUOUS
 66
     1
 40
0.000000
 41
0.000000
  0
VERTEX
  8
0
  6
CONTINUOUS
 10
5.999400
 20
1.309880
  0
VERTEX
  8
0
  6
CONTINUOUS
 10
6.629480
 20
1.682560
  0
VERTEX
  8
0
  6
CONTINUOUS
 10
6.531800
 20
1.605560
  0
VERTEX
  8
0
  6
CONTINUOUS
 10
5.901720
 20
1.232880
  0
VERTEX
  8
0
  6
CONTINUOUS
 10
5.999400
 20
1.309880
  0
SEQEND
  8
0
  0
SOLID
  8
0
 62
    15
 10
6.076840
 20
1.394360
 11
6.706480
 21
1.767040
 12
5.999400
 22
1.309880
 13
6.629480
 23
1.682560
  0
POLYLINE
  8
0
  6
CONTINUOUS
 66
     1
 40
0.000000
 41
0.000000
  0
VERTEX
  8
0
  6
CONTINUOUS
 10
6.076840
 20
1.394360
  0
VERTEX
  8
0
  6
CONTINUOUS
 10
6.706480
 20
1.767040
  0
VERTEX
  8
0
  6
CONTINUOUS
 10
6.629480
 20
1.682560
  0
VERTEX
  8
0
  6
CONTINUOUS
 10
5.999400
 20
1.309880
  0
VERTEX
  8
0
  6
CONTINUOUS
 10
6.076840
 20
1.394360
  0
SEQEND
  8
0
  0
SOLID
  8
0
 62
    15
 10
4.233240
 20
4.059000
 11
4.862880
 21
4.431680
 12
4.234120
 22
4.057680
 13
4.863760
 23
4.429920
  0
POLYLINE
  8
0
  6
CONTINUOUS
 66
     1
 40
0.000000
 41
0.000000
  0
VERTEX
  8
0
  6
CONTINUOUS
 10
4.233240
 20
4.059000
  0
VERTEX
  8
0
  6
CONTINUOUS
 10
4.862880
 20
4.431680
  0
VERTEX
  8
0
  6
CONTINUOUS
 10
4.863760
 20
4.429920
  0
VERTEX
  8
0
  6
CONTINUOUS
 10
4.234120
 20
4.057680
  0
VERTEX
  8
0
  6
CONTINUOUS
 10
4.233240
 20
4.059000
  0
SEQEND
  8
0
  0
POLYLINE
  8
0
  6
CONTINUOUS
 66
     1
 40
0.000000
 41
0.000000
  0
VERTEX
  8
0
  6
CONTINUOUS
 10
4.234120
 20
4.057680
  0
VERTEX
  8
0
  6
CONTINUOUS
 10
5.027880
 20
4.105640
  0
VERTEX
  8
0
  6
CONTINUOUS
 10
5.064400
 20
4.100800
  0
VERTEX
  8
0
  6
CONTINUOUS
 10
5.102680
 20
4.086280
  0
VERTEX
  8
0
  6
CONTINUOUS
 10
5.181440
 20
4.032160
  0
VERTEX
  8
0
  6
CONTINUOUS
 10
5.253160
 20
3.952080
  0
VERTEX
  8
0
  6
CONTINUOUS
 10
5.305960
 20
3.853960
  0
VERTEX
  8
0
  6
CONTINUOUS
 10
5.328840
 20
3.746160
  0
VERTEX
  8
0
  6
CONTINUOUS
 10
5.325760
 20
3.691160
  0
VERTEX
  8
0
  6
CONTINUOUS
 10
5.310800
 20
3.636600
  0
VERTEX
  8
0
  6
CONTINUOUS
 10
5.282640
 20
3.584240
  0
VERTEX
  8
0
  6
CONTINUOUS
 10
5.239960
 20
3.534520
  0
VERTEX
  8
0
  6
CONTINUOUS
 10
5.181000
 20
3.488320
  0
VERTEX
  8
0
  6
CONTINUOUS
 10
5.104880
 20
3.446960
  0
VERTEX
  8
0
  6
CONTINUOUS
 10
5.107960
 20
3.351480
  0
VERTEX
  8
0
  6
CONTINUOUS
 10
5.190680
 20
3.343120
  0
VERTEX
  8
0
  6
CONTINUOUS
 10
5.270760
 20
3.323760
  0
VERTEX
  8
0
  6
CONTINUOUS
 10
5.420800
 20
3.257760
  0
VERTEX
  8
0
  6
CONTINUOUS
 10
5.557640
 20
3.163600
  0
VERTEX
  8
0
  6
CONTINUOUS
 10
5.679960
 20
3.050960
  0
VERTEX
  8
0
  6
CONTINUOUS
 10
5.786000
 20
2.929080
  0
VERTEX
  8
0
  6
CONTINUOUS
 10
5.874440
 20
2.807200
  0
VERTEX
  8
0
  6
CONTINUOUS
 10
5.944400
 20
2.695880
  0
VERTEX
  8
0
  6
CONTINUOUS
 10
5.995000
 20
2.604360
  0
VERTEX
  8
0
  6
CONTINUOUS
 10
6.017440
 20
2.559040
  0
VERTEX
  8
0
  6
CONTINUOUS
 10
6.045160
 20
2.501400
  0
VERTEX
  8
0
  6
CONTINUOUS
 10
6.106760
 20
2.356200
  0
VERTEX
  8
0
  6
CONTINUOUS
 10
6.164840
 20
2.180640
  0
VERTEX
  8
0
  6
CONTINUOUS
 10
6.205760
 20
1.985280
  0
VERTEX
  8
0
  6
CONTINUOUS
 10
6.215000
 20
1.883640
  0
VERTEX
  8
0
  6
CONTINUOUS
 10
6.214120
 20
1.781560
  0
VERTEX
  8
0
  6
CONTINUOUS
 10
6.201800
 20
1.680360
  0
VERTEX
  8
0
  6
CONTINUOUS
 10
6.175840
 20
1.580920
  0
VERTEX
  8
0
  6
CONTINUOUS
 10
6.134920
 20
1.485440
  0
VERTEX
  8
0
  6
CONTINUOUS
 10
6.076840
 20
1.394360
  0
VERTEX
  8
0
  6
CONTINUOUS
 10
5.999400
 20
1.309880
  0
VERTEX
  8
0
  6
CONTINUOUS
 10
5.901720
 20
1.232880
  0
VERTEX
  8
0
  6
CONTINUOUS
 10
5.877960
 20
1.001440
  0
VERTEX
  8
0
  6
CONTINUOUS
 10
5.601200
 20
1.001880
  0
VERTEX
  8
0
  6
CONTINUOUS
 10
4.232360
 20
3.544200
  0
VERTEX
  8
0
  6
CONTINUOUS
 10
4.233240
 20
4.059000
  0
VERTEX
  8
0
  6
CONTINUOUS
 10
4.234120
 20
4.057680
  0
SEQEND
  8
0
  0
TEXT
  8
0
 10
5.242600
 20
0.670560
 40
0.138271
  1
BA  876
 41
1.000000
  7
SN0
 71
     0
 72
     5
 11
5.833777
 21
0.670560
  0
TEXT
  8
0
 10
4.967160
 20
0.478720
 40
0.138271
  1
1-1/16" x 3-1/2"
 41
1.000000
  7
SN0
 71
     0
 72
     5
 11
6.109507
 21
0.478720
  0
POLYLINE
  8
0
  6
CONTINUOUS
 66
     1
 40
0.014080
 41
0.014080
  0
VERTEX
  8
0
  6
CONTINUOUS
 10
3.649360
 20
4.971560
  0
VERTEX
  8
0
  6
CONTINUOUS
 10
3.987720
 20
5.701080
  0
VERTEX
  8
0
  6
CONTINUOUS
 10
4.004880
 20
5.723080
  0
VERTEX
  8
0
  6
CONTINUOUS
 10
4.018960
 20
5.737160
  0
VERTEX
  8
0
  6
CONTINUOUS
 10
4.035680
 20
5.750360
  0
VERTEX
  8
0
  6
CONTINUOUS
 10
4.074840
 20
5.774120
  0
VERTEX
  8
0
  6
CONTINUOUS
 10
4.096840
 20
5.784680
  0
VERTEX
  8
0
  6
CONTINUOUS
 10
4.145240
 20
5.802280
  0
VERTEX
  8
0
  6
CONTINUOUS
 10
4.198040
 20
5.815040
  0
VERTEX
  8
0
  6
CONTINUOUS
 10
4.253040
 20
5.821640
  0
VERTEX
  8
0
  6
CONTINUOUS
 10
4.280760
 20
5.822520
  0
VERTEX
  8
0
  6
CONTINUOUS
 10
4.308920
 20
5.821640
  0
VERTEX
  8
0
  6
CONTINUOUS
 10
4.336640
 20
5.819000
  0
VERTEX
  8
0
  6
CONTINUOUS
 10
4.364360
 20
5.814600
  0
VERTEX
  8
0
  6
CONTINUOUS
 10
4.391200
 20
5.808000
  0
VERTEX
  8
0
  6
CONTINUOUS
 10
4.429920
 20
5.793920
  0
VERTEX
  8
0
  6
CONTINUOUS
 10
4.466880
 20
5.775000
  0
VERTEX
  8
0
  6
CONTINUOUS
 10
4.500320
 20
5.750360
  0
VERTEX
  8
0
  6
CONTINUOUS
 10
4.530240
 20
5.720000
  0
VERTEX
  8
0
  6
CONTINUOUS
 10
4.555760
 20
5.683920
  0
VERTEX
  8
0
  6
CONTINUOUS
 10
4.569840
 20
5.656200
  0
VERTEX
  8
0
  6
CONTINUOUS
 10
4.581720
 20
5.625400
  0
VERTEX
  8
0
  6
CONTINUOUS
 10
4.590960
 20
5.591960
  0
VERTEX
  8
0
  6
CONTINUOUS
 10
4.597120
 20
5.555000
  0
VERTEX
  8
0
  6
CONTINUOUS
 10
4.600640
 20
5.514960
  0
VERTEX
  8
0
  6
CONTINUOUS
 10
4.600640
 20
5.471840
  0
VERTEX
  8
0
  6
CONTINUOUS
 10
4.599320
 20
5.448960
  0
VERTEX
  8
0
  6
CONTINUOUS
 10
4.685120
 20
5.406280
  0
VERTEX
  8
0
  6
CONTINUOUS
 10
4.719440
 20
5.458640
  0
VERTEX
  8
0
  6
CONTINUOUS
 10
4.744960
 20
5.491200
  0
VERTEX
  8
0
  6
CONTINUOUS
 10
4.786760
 20
5.536520
  0
VERTEX
  8
0
  6
CONTINUOUS
 10
4.816680
 20
5.564240
  0
VERTEX
  8
0
  6
CONTINUOUS
 10
4.848360
 20
5.590200
  0
VERTEX
  8
0
  6
CONTINUOUS
 10
4.881800
 20
5.614840
  0
VERTEX
  8
0
  6
CONTINUOUS
 10
4.916120
 20
5.637720
  0
VERTEX
  8
0
  6
CONTINUOUS
 10
4.988280
 20
5.678640
  0
VERTEX
  8
0
  6
CONTINUOUS
 10
5.063960
 20
5.713400
  0
VERTEX
  8
0
  6
CONTINUOUS
 10
5.141840
 20
5.742880
  0
VERTEX
  8
0
  6
CONTINUOUS
 10
5.221040
 20
5.767520
  0
VERTEX
  8
0
  6
CONTINUOUS
 10
5.300240
 20
5.787320
  0
VERTEX
  8
0
  6
CONTINUOUS
 10
5.378560
 20
5.802720
  0
VERTEX
  8
0
  6
CONTINUOUS
 10
5.454680
 20
5.814600
  0
VERTEX
  8
0
  6
CONTINUOUS
 10
5.527720
 20
5.823400
  0
VERTEX
  8
0
  6
CONTINUOUS
 10
5.628480
 20
5.830880
  0
VERTEX
  8
0
  6
CONTINUOUS
 10
5.715160
 20
5.833520
  0
VERTEX
  8
0
  6
CONTINUOUS
 10
5.800520
 20
5.832200
  0
VERTEX
  8
0
  6
CONTINUOUS
 10
5.914040
 20
5.826040
  0
VERTEX
  8
0
  6
CONTINUOUS
 10
5.992800
 20
5.819000
  0
VERTEX
  8
0
  6
CONTINUOUS
 10
6.123920
 20
5.800520
  0
VERTEX
  8
0
  6
CONTINUOUS
 10
6.217640
 20
5.782040
  0
VERTEX
  8
0
  6
CONTINUOUS
 10
6.313120
 20
5.756960
  0
VERTEX
  8
0
  6
CONTINUOUS
 10
6.361080
 20
5.742000
  0
VERTEX
  8
0
  6
CONTINUOUS
 10
6.408600
 20
5.724840
  0
VERTEX
  8
0
  6
CONTINUOUS
 10
6.455680
 20
5.705920
  0
VERTEX
  8
0
  6
CONTINUOUS
 10
6.525200
 20
5.673800
  0
VERTEX
  8
0
  6
CONTINUOUS
 10
6.591640
 20
5.635960
  0
VERTEX
  8
0
  6
CONTINUOUS
 10
6.655000
 20
5.592840
  0
VERTEX
  8
0
  6
CONTINUOUS
 10
6.695040
 20
5.560720
  0
VERTEX
  8
0
  6
CONTINUOUS
 10
6.732440
 20
5.525960
  0
VERTEX
  8
0
  6
CONTINUOUS
 10
6.767640
 20
5.488120
  0
VERTEX
  8
0
  6
CONTINUOUS
 10
6.800200
 20
5.447200
  0
VERTEX
  8
0
  6
CONTINUOUS
 10
6.829680
 20
5.403200
  0
VERTEX
  8
0
  6
CONTINUOUS
 10
6.856080
 20
5.356120
  0
VERTEX
  8
0
  6
CONTINUOUS
 10
6.878520
 20
5.305520
  0
VERTEX
  8
0
  6
CONTINUOUS
 10
6.897440
 20
5.251840
  0
VERTEX
  8
0
  6
CONTINUOUS
 10
6.905800
 20
5.223240
  0
VERTEX
  8
0
  6
CONTINUOUS
 10
6.918560
 20
5.163840
  0
VERTEX
  8
0
  6
CONTINUOUS
 10
6.923400
 20
5.133040
  0
VERTEX
  8
0
  6
CONTINUOUS
 10
6.926920
 20
5.100920
  0
VERTEX
  8
0
  6
CONTINUOUS
 10
7.119200
 20
4.970240
  0
VERTEX
  8
0
  6
CONTINUOUS
 10
6.987640
 20
4.726480
  0
VERTEX
  8
0
  6
CONTINUOUS
 10
4.100360
 20
4.726480
  0
VERTEX
  8
0
  6
CONTINUOUS
 10
3.647600
 20
4.971560
  0
VERTEX
  8
0
  6
CONTINUOUS
 10
3.649360
 20
4.971560
  0
SEQEND
  8
0
  0
ENDSEC
  0
EOF
