  0
SECTION
  2
HEADER
  9
$ACADVER
  1
AC1006
  9
$EXTMIN
 10
1.822040
 20
0.714120
  9
$EXTMAX
 10
7.067280
 20
4.178240
  9
$LTSCALE
 40
0.044000
  9
$PDMODE
 70
    35
  9
$PDSIZE
 40
0.035200
  0
ENDSEC
  0
SECTION
  2
TABLES
  0
TABLE
  2
LTYPE
 70
     9
  0
LTYPE
  2
CONTINUOUS
 70
    64
  3
Solid line
 72
    65
 73
     0
 40
0.000000
  0
LTYPE
  2
DASHED
 70
    64
  3
__ __ __ __ __ __ __ __ __ __ __ __ __ __ __
 72
    65
 73
     2
 40
0.000330
 49
0.000220
 49
-0.000110
  0
LTYPE
  2
HIDDEN
 70
    64
  3
 _ _ _ _ _ _ _ _ _ _ _ _ _ _ _ _ _ _ _ _ _ _
 72
    65
 73
     2
 40
0.000165
 49
0.000110
 49
-0.000055
  0
LTYPE
  2
CENTER
 70
    64
  3
____ _ ____ _ ____ _ ____ _ ____ _ ____ _ ____
 72
    65
 73
     4
 40
0.000880
 49
0.000550
 49
-0.000110
 49
0.000110
 49
-0.000110
  0
LTYPE
  2
PHANTOM
 70
    64
  3
_____ _ _ _____ _ _ _____ _ _ _____ _ _ ____
 72
    65
 73
     6
 40
0.001100
 49
0.000550
 49
-0.000110
 49
0.000110
 49
-0.000110
 49
0.000110
 49
-0.000110
  0
LTYPE
  2
DOT
 70
    64
  3
...............................................
 72
    65
 73
     2
 40
0.000110
 49
0.000000
 49
-0.000110
  0
LTYPE
  2
DASHDOT
 70
    64
  3
__ . __ . __ . __ . __ . __ . __ . __ . __ . __
 72
    65
 73
     4
 40
0.000440
 49
0.000220
 49
-0.000110
 49
0.000000
 49
-0.000110
  0
LTYPE
  2
BORDER
 70
    64
  3
__ __ . __ __ . __ __ . __ __ . __ __ . __ __
 72
    65
 73
     6
 40
0.000770
 49
0.000220
 49
-0.000110
 49
0.000220
 49
-0.000110
 49
0.000000
 49
-0.000110
  0
LTYPE
  2
DIVIDE
 70
    64
  3
__ . . __ . . __ . . __ . . __ . . __ . . __
 72
    65
 73
     6
 40
0.000550
 49
0.000220
 49
-0.000110
 49
0.000000
 49
-0.000110
 49
0.000000
 49
-0.000110
  0
LTYPE
  2
DOTDOT
 70
    64
  3
 . .  . .  . .  . .  . .  . . 
 72
    65
 73
     5
 40
0.000242
 49
-0.000110
 49
0.000000
 49
-0.000110
 49
0.000000
 49
-0.000110
  0
ENDTAB
  0
TABLE
  2
STYLE
 70
     2
  0
STYLE
 70
     0
  2
SN0
 40
0.000000
 41
0.000440
 50
0.000000
 71
     0
 42
0.000000
  3
ROMAND
  0
STYLE
 70
    68
  2
SV0
 40
0.000000
 41
0.000440
 50
0.000000
 71
     0
 42
0.000000
  3
ROMAND
  0
ENDTAB
  0
TABLE
  2
LAYER
 70
     3
  0
LAYER
  2
FOREGROUND
 70
    64
 62
     7
  6
CONTINUOUS
  0
LAYER
  2
BACKGROUND
 70
    65
 62
    -7
  6
CONTINUOUS
  0
LAYER
  2
0
 70
    64
 62
     7
  6
CONTINUOUS
  0
ENDTAB
  0
ENDSEC
  0
SECTION
  2
ENTITIES
  0
POLYLINE
  8
FOREGROUND
  6
CONTINUOUS
 66
     1
 40
0.000000
 41
0.000000
  0
VERTEX
  8
FOREGROUND
  6
CONTINUOUS
 10
0.000000
 20
4.892360
  0
VERTEX
  8
FOREGROUND
  6
CONTINUOUS
 10
8.499920
 20
4.892360
  0
VERTEX
  8
FOREGROUND
  6
CONTINUOUS
 10
8.499920
 20
-6.107640
  0
VERTEX
  8
FOREGROUND
  6
CONTINUOUS
 10
0.000000
 20
-6.107640
  0
VERTEX
  8
FOREGROUND
  6
CONTINUOUS
 10
0.000000
 20
4.892360
  0
SEQEND
  8
0
  0
POLYLINE
  8
FOREGROUND
  6
CONTINUOUS
 66
     1
 40
0.000000
 41
0.000000
  0
VERTEX
  8
FOREGROUND
  6
CONTINUOUS
 10
0.000000
 20
4.892360
  0
VERTEX
  8
FOREGROUND
  6
CONTINUOUS
 10
8.499920
 20
4.892360
  0
VERTEX
  8
FOREGROUND
  6
CONTINUOUS
 10
8.499920
 20
-6.107640
  0
VERTEX
  8
FOREGROUND
  6
CONTINUOUS
 10
0.000000
 20
-6.107640
  0
VERTEX
  8
FOREGROUND
  6
CONTINUOUS
 10
0.000000
 20
4.892360
  0
SEQEND
  8
0
  0
SOLID
  8
0
 62
    15
 10
4.508680
 20
1.975160
 11
4.511760
 21
2.713920
 12
4.528040
 22
1.996720
 13
4.530680
 23
2.735480
  0
POLYLINE
  8
0
  6
CONTINUOUS
 66
     1
 40
0.000000
 41
0.000000
  0
VERTEX
  8
0
  6
CONTINUOUS
 10
4.508680
 20
1.975160
  0
VERTEX
  8
0
  6
CONTINUOUS
 10
4.511760
 20
2.713920
  0
VERTEX
  8
0
  6
CONTINUOUS
 10
4.530680
 20
2.735480
  0
VERTEX
  8
0
  6
CONTINUOUS
 10
4.528040
 20
1.996720
  0
VERTEX
  8
0
  6
CONTINUOUS
 10
4.508680
 20
1.975160
  0
SEQEND
  8
0
  0
SOLID
  8
0
 62
    15
 10
2.494360
 20
2.043360
 11
2.497440
 21
2.782120
 12
2.595120
 22
1.883640
 13
2.598200
 23
2.622400
  0
POLYLINE
  8
0
  6
CONTINUOUS
 66
     1
 40
0.000000
 41
0.000000
  0
VERTEX
  8
0
  6
CONTINUOUS
 10
2.494360
 20
2.043360
  0
VERTEX
  8
0
  6
CONTINUOUS
 10
2.497440
 20
2.782120
  0
VERTEX
  8
0
  6
CONTINUOUS
 10
2.598200
 20
2.622400
  0
VERTEX
  8
0
  6
CONTINUOUS
 10
2.595120
 20
1.883640
  0
VERTEX
  8
0
  6
CONTINUOUS
 10
2.494360
 20
2.043360
  0
SEQEND
  8
0
  0
SOLID
  8
0
 62
    15
 10
2.595120
 20
1.883640
 11
2.598200
 21
2.622400
 12
2.607000
 22
1.916200
 13
2.609640
 23
2.654960
  0
POLYLINE
  8
0
  6
CONTINUOUS
 66
     1
 40
0.000000
 41
0.000000
  0
VERTEX
  8
0
  6
CONTINUOUS
 10
2.595120
 20
1.883640
  0
VERTEX
  8
0
  6
CONTINUOUS
 10
2.598200
 20
2.622400
  0
VERTEX
  8
0
  6
CONTINUOUS
 10
2.609640
 20
2.654960
  0
VERTEX
  8
0
  6
CONTINUOUS
 10
2.607000
 20
1.916200
  0
VERTEX
  8
0
  6
CONTINUOUS
 10
2.595120
 20
1.883640
  0
SEQEND
  8
0
  0
SOLID
  8
0
 62
    15
 10
2.607000
 20
1.916200
 11
2.609640
 21
2.654960
 12
2.621960
 22
1.944360
 13
2.625040
 23
2.683560
  0
POLYLINE
  8
0
  6
CONTINUOUS
 66
     1
 40
0.000000
 41
0.000000
  0
VERTEX
  8
0
  6
CONTINUOUS
 10
2.607000
 20
1.916200
  0
VERTEX
  8
0
  6
CONTINUOUS
 10
2.609640
 20
2.654960
  0
VERTEX
  8
0
  6
CONTINUOUS
 10
2.625040
 20
2.683560
  0
VERTEX
  8
0
  6
CONTINUOUS
 10
2.621960
 20
1.944360
  0
VERTEX
  8
0
  6
CONTINUOUS
 10
2.607000
 20
1.916200
  0
SEQEND
  8
0
  0
SOLID
  8
0
 62
    15
 10
2.621960
 20
1.944360
 11
2.625040
 21
2.683560
 12
2.640000
 22
1.968560
 13
2.643080
 23
2.707320
  0
POLYLINE
  8
0
  6
CONTINUOUS
 66
     1
 40
0.000000
 41
0.000000
  0
VERTEX
  8
0
  6
CONTINUOUS
 10
2.621960
 20
1.944360
  0
VERTEX
  8
0
  6
CONTINUOUS
 10
2.625040
 20
2.683560
  0
VERTEX
  8
0
  6
CONTINUOUS
 10
2.643080
 20
2.707320
  0
VERTEX
  8
0
  6
CONTINUOUS
 10
2.640000
 20
1.968560
  0
VERTEX
  8
0
  6
CONTINUOUS
 10
2.621960
 20
1.944360
  0
SEQEND
  8
0
  0
SOLID
  8
0
 62
    15
 10
2.640000
 20
1.968560
 11
2.643080
 21
2.707320
 12
2.660680
 22
1.987920
 13
2.663760
 23
2.726680
  0
POLYLINE
  8
0
  6
CONTINUOUS
 66
     1
 40
0.000000
 41
0.000000
  0
VERTEX
  8
0
  6
CONTINUOUS
 10
2.640000
 20
1.968560
  0
VERTEX
  8
0
  6
CONTINUOUS
 10
2.643080
 20
2.707320
  0
VERTEX
  8
0
  6
CONTINUOUS
 10
2.663760
 20
2.726680
  0
VERTEX
  8
0
  6
CONTINUOUS
 10
2.660680
 20
1.987920
  0
VERTEX
  8
0
  6
CONTINUOUS
 10
2.640000
 20
1.968560
  0
SEQEND
  8
0
  0
SOLID
  8
0
 62
    15
 10
2.660680
 20
1.987920
 11
2.663760
 21
2.726680
 12
2.683120
 22
2.003320
 13
2.686200
 23
2.742080
  0
POLYLINE
  8
0
  6
CONTINUOUS
 66
     1
 40
0.000000
 41
0.000000
  0
VERTEX
  8
0
  6
CONTINUOUS
 10
2.660680
 20
1.987920
  0
VERTEX
  8
0
  6
CONTINUOUS
 10
2.663760
 20
2.726680
  0
VERTEX
  8
0
  6
CONTINUOUS
 10
2.686200
 20
2.742080
  0
VERTEX
  8
0
  6
CONTINUOUS
 10
2.683120
 20
2.003320
  0
VERTEX
  8
0
  6
CONTINUOUS
 10
2.660680
 20
1.987920
  0
SEQEND
  8
0
  0
SOLID
  8
0
 62
    15
 10
2.683120
 20
2.003320
 11
2.686200
 21
2.742080
 12
2.706880
 22
2.013880
 13
2.709960
 23
2.752640
  0
POLYLINE
  8
0
  6
CONTINUOUS
 66
     1
 40
0.000000
 41
0.000000
  0
VERTEX
  8
0
  6
CONTINUOUS
 10
2.683120
 20
2.003320
  0
VERTEX
  8
0
  6
CONTINUOUS
 10
2.686200
 20
2.742080
  0
VERTEX
  8
0
  6
CONTINUOUS
 10
2.709960
 20
2.752640
  0
VERTEX
  8
0
  6
CONTINUOUS
 10
2.706880
 20
2.013880
  0
VERTEX
  8
0
  6
CONTINUOUS
 10
2.683120
 20
2.003320
  0
SEQEND
  8
0
  0
SOLID
  8
0
 62
    15
 10
2.706880
 20
2.013880
 11
2.709960
 21
2.752640
 12
2.731520
 22
2.020040
 13
2.734160
 23
2.758800
  0
POLYLINE
  8
0
  6
CONTINUOUS
 66
     1
 40
0.000000
 41
0.000000
  0
VERTEX
  8
0
  6
CONTINUOUS
 10
2.706880
 20
2.013880
  0
VERTEX
  8
0
  6
CONTINUOUS
 10
2.709960
 20
2.752640
  0
VERTEX
  8
0
  6
CONTINUOUS
 10
2.734160
 20
2.758800
  0
VERTEX
  8
0
  6
CONTINUOUS
 10
2.731520
 20
2.020040
  0
VERTEX
  8
0
  6
CONTINUOUS
 10
2.706880
 20
2.013880
  0
SEQEND
  8
0
  0
SOLID
  8
0
 62
    15
 10
2.731520
 20
2.020040
 11
2.734160
 21
2.758800
 12
2.756160
 22
2.020920
 13
2.759240
 23
2.760120
  0
POLYLINE
  8
0
  6
CONTINUOUS
 66
     1
 40
0.000000
 41
0.000000
  0
VERTEX
  8
0
  6
CONTINUOUS
 10
2.731520
 20
2.020040
  0
VERTEX
  8
0
  6
CONTINUOUS
 10
2.734160
 20
2.758800
  0
VERTEX
  8
0
  6
CONTINUOUS
 10
2.759240
 20
2.760120
  0
VERTEX
  8
0
  6
CONTINUOUS
 10
2.756160
 20
2.020920
  0
VERTEX
  8
0
  6
CONTINUOUS
 10
2.731520
 20
2.020040
  0
SEQEND
  8
0
  0
SOLID
  8
0
 62
    15
 10
2.756160
 20
2.020920
 11
2.759240
 21
2.760120
 12
2.780360
 22
2.017840
 13
2.783440
 23
2.756600
  0
POLYLINE
  8
0
  6
CONTINUOUS
 66
     1
 40
0.000000
 41
0.000000
  0
VERTEX
  8
0
  6
CONTINUOUS
 10
2.756160
 20
2.020920
  0
VERTEX
  8
0
  6
CONTINUOUS
 10
2.759240
 20
2.760120
  0
VERTEX
  8
0
  6
CONTINUOUS
 10
2.783440
 20
2.756600
  0
VERTEX
  8
0
  6
CONTINUOUS
 10
2.780360
 20
2.017840
  0
VERTEX
  8
0
  6
CONTINUOUS
 10
2.756160
 20
2.020920
  0
SEQEND
  8
0
  0
SOLID
  8
0
 62
    15
 10
2.780360
 20
2.017840
 11
2.783440
 21
2.756600
 12
2.803680
 22
2.009040
 13
2.806760
 23
2.748240
  0
POLYLINE
  8
0
  6
CONTINUOUS
 66
     1
 40
0.000000
 41
0.000000
  0
VERTEX
  8
0
  6
CONTINUOUS
 10
2.780360
 20
2.017840
  0
VERTEX
  8
0
  6
CONTINUOUS
 10
2.783440
 20
2.756600
  0
VERTEX
  8
0
  6
CONTINUOUS
 10
2.806760
 20
2.748240
  0
VERTEX
  8
0
  6
CONTINUOUS
 10
2.803680
 20
2.009040
  0
VERTEX
  8
0
  6
CONTINUOUS
 10
2.780360
 20
2.017840
  0
SEQEND
  8
0
  0
SOLID
  8
0
 62
    15
 10
2.803680
 20
2.009040
 11
2.806760
 21
2.748240
 12
2.825240
 22
1.995840
 13
2.828320
 23
2.734600
  0
POLYLINE
  8
0
  6
CONTINUOUS
 66
     1
 40
0.000000
 41
0.000000
  0
VERTEX
  8
0
  6
CONTINUOUS
 10
2.803680
 20
2.009040
  0
VERTEX
  8
0
  6
CONTINUOUS
 10
2.806760
 20
2.748240
  0
VERTEX
  8
0
  6
CONTINUOUS
 10
2.828320
 20
2.734600
  0
VERTEX
  8
0
  6
CONTINUOUS
 10
2.825240
 20
1.995840
  0
VERTEX
  8
0
  6
CONTINUOUS
 10
2.803680
 20
2.009040
  0
SEQEND
  8
0
  0
SOLID
  8
0
 62
    15
 10
2.825240
 20
1.995840
 11
2.828320
 21
2.734600
 12
2.845040
 22
1.977360
 13
2.848120
 23
2.716120
  0
POLYLINE
  8
0
  6
CONTINUOUS
 66
     1
 40
0.000000
 41
0.000000
  0
VERTEX
  8
0
  6
CONTINUOUS
 10
2.825240
 20
1.995840
  0
VERTEX
  8
0
  6
CONTINUOUS
 10
2.828320
 20
2.734600
  0
VERTEX
  8
0
  6
CONTINUOUS
 10
2.848120
 20
2.716120
  0
VERTEX
  8
0
  6
CONTINUOUS
 10
2.845040
 20
1.977360
  0
VERTEX
  8
0
  6
CONTINUOUS
 10
2.825240
 20
1.995840
  0
SEQEND
  8
0
  0
SOLID
  8
0
 62
    15
 10
2.845040
 20
1.977360
 11
2.848120
 21
2.716120
 12
2.862200
 22
1.953600
 13
2.864840
 23
2.692360
  0
POLYLINE
  8
0
  6
CONTINUOUS
 66
     1
 40
0.000000
 41
0.000000
  0
VERTEX
  8
0
  6
CONTINUOUS
 10
2.845040
 20
1.977360
  0
VERTEX
  8
0
  6
CONTINUOUS
 10
2.848120
 20
2.716120
  0
VERTEX
  8
0
  6
CONTINUOUS
 10
2.864840
 20
2.692360
  0
VERTEX
  8
0
  6
CONTINUOUS
 10
2.862200
 20
1.953600
  0
VERTEX
  8
0
  6
CONTINUOUS
 10
2.845040
 20
1.977360
  0
SEQEND
  8
0
  0
SOLID
  8
0
 62
    15
 10
2.862200
 20
1.953600
 11
2.864840
 21
2.692360
 12
2.875840
 22
1.925000
 13
2.878480
 23
2.663760
  0
POLYLINE
  8
0
  6
CONTINUOUS
 66
     1
 40
0.000000
 41
0.000000
  0
VERTEX
  8
0
  6
CONTINUOUS
 10
2.862200
 20
1.953600
  0
VERTEX
  8
0
  6
CONTINUOUS
 10
2.864840
 20
2.692360
  0
VERTEX
  8
0
  6
CONTINUOUS
 10
2.878480
 20
2.663760
  0
VERTEX
  8
0
  6
CONTINUOUS
 10
2.875840
 20
1.925000
  0
VERTEX
  8
0
  6
CONTINUOUS
 10
2.862200
 20
1.953600
  0
SEQEND
  8
0
  0
SOLID
  8
0
 62
    15
 10
2.875840
 20
1.925000
 11
2.878480
 21
2.663760
 12
2.885520
 22
1.890680
 13
2.888600
 23
2.629440
  0
POLYLINE
  8
0
  6
CONTINUOUS
 66
     1
 40
0.000000
 41
0.000000
  0
VERTEX
  8
0
  6
CONTINUOUS
 10
2.875840
 20
1.925000
  0
VERTEX
  8
0
  6
CONTINUOUS
 10
2.878480
 20
2.663760
  0
VERTEX
  8
0
  6
CONTINUOUS
 10
2.888600
 20
2.629440
  0
VERTEX
  8
0
  6
CONTINUOUS
 10
2.885520
 20
1.890680
  0
VERTEX
  8
0
  6
CONTINUOUS
 10
2.875840
 20
1.925000
  0
SEQEND
  8
0
  0
SOLID
  8
0
 62
    15
 10
2.885520
 20
1.890680
 11
2.888600
 21
2.629440
 12
2.891240
 22
1.851080
 13
2.893880
 23
2.589840
  0
POLYLINE
  8
0
  6
CONTINUOUS
 66
     1
 40
0.000000
 41
0.000000
  0
VERTEX
  8
0
  6
CONTINUOUS
 10
2.885520
 20
1.890680
  0
VERTEX
  8
0
  6
CONTINUOUS
 10
2.888600
 20
2.629440
  0
VERTEX
  8
0
  6
CONTINUOUS
 10
2.893880
 20
2.589840
  0
VERTEX
  8
0
  6
CONTINUOUS
 10
2.891240
 20
1.851080
  0
VERTEX
  8
0
  6
CONTINUOUS
 10
2.885520
 20
1.890680
  0
SEQEND
  8
0
  0
SOLID
  8
0
 62
    15
 10
2.891240
 20
1.851080
 11
2.893880
 21
2.589840
 12
2.904440
 22
1.888920
 13
2.907520
 23
2.627680
  0
POLYLINE
  8
0
  6
CONTINUOUS
 66
     1
 40
0.000000
 41
0.000000
  0
VERTEX
  8
0
  6
CONTINUOUS
 10
2.891240
 20
1.851080
  0
VERTEX
  8
0
  6
CONTINUOUS
 10
2.893880
 20
2.589840
  0
VERTEX
  8
0
  6
CONTINUOUS
 10
2.907520
 20
2.627680
  0
VERTEX
  8
0
  6
CONTINUOUS
 10
2.904440
 20
1.888920
  0
VERTEX
  8
0
  6
CONTINUOUS
 10
2.891240
 20
1.851080
  0
SEQEND
  8
0
  0
SOLID
  8
0
 62
    15
 10
2.904440
 20
1.888920
 11
2.907520
 21
2.627680
 12
2.920720
 22
1.921480
 13
2.923360
 23
2.660240
  0
POLYLINE
  8
0
  6
CONTINUOUS
 66
     1
 40
0.000000
 41
0.000000
  0
VERTEX
  8
0
  6
CONTINUOUS
 10
2.904440
 20
1.888920
  0
VERTEX
  8
0
  6
CONTINUOUS
 10
2.907520
 20
2.627680
  0
VERTEX
  8
0
  6
CONTINUOUS
 10
2.923360
 20
2.660240
  0
VERTEX
  8
0
  6
CONTINUOUS
 10
2.920720
 20
1.921480
  0
VERTEX
  8
0
  6
CONTINUOUS
 10
2.904440
 20
1.888920
  0
SEQEND
  8
0
  0
SOLID
  8
0
 62
    15
 10
2.920720
 20
1.921480
 11
2.923360
 21
2.660240
 12
2.938760
 22
1.949640
 13
2.941840
 23
2.688400
  0
POLYLINE
  8
0
  6
CONTINUOUS
 66
     1
 40
0.000000
 41
0.000000
  0
VERTEX
  8
0
  6
CONTINUOUS
 10
2.920720
 20
1.921480
  0
VERTEX
  8
0
  6
CONTINUOUS
 10
2.923360
 20
2.660240
  0
VERTEX
  8
0
  6
CONTINUOUS
 10
2.941840
 20
2.688400
  0
VERTEX
  8
0
  6
CONTINUOUS
 10
2.938760
 20
1.949640
  0
VERTEX
  8
0
  6
CONTINUOUS
 10
2.920720
 20
1.921480
  0
SEQEND
  8
0
  0
SOLID
  8
0
 62
    15
 10
2.938760
 20
1.949640
 11
2.941840
 21
2.688400
 12
2.959000
 22
1.972520
 13
2.962080
 23
2.711280
  0
POLYLINE
  8
0
  6
CONTINUOUS
 66
     1
 40
0.000000
 41
0.000000
  0
VERTEX
  8
0
  6
CONTINUOUS
 10
2.938760
 20
1.949640
  0
VERTEX
  8
0
  6
CONTINUOUS
 10
2.941840
 20
2.688400
  0
VERTEX
  8
0
  6
CONTINUOUS
 10
2.962080
 20
2.711280
  0
VERTEX
  8
0
  6
CONTINUOUS
 10
2.959000
 20
1.972520
  0
VERTEX
  8
0
  6
CONTINUOUS
 10
2.938760
 20
1.949640
  0
SEQEND
  8
0
  0
SOLID
  8
0
 62
    15
 10
2.959000
 20
1.972520
 11
2.962080
 21
2.711280
 12
2.980560
 22
1.991000
 13
2.983640
 23
2.729760
  0
POLYLINE
  8
0
  6
CONTINUOUS
 66
     1
 40
0.000000
 41
0.000000
  0
VERTEX
  8
0
  6
CONTINUOUS
 10
2.959000
 20
1.972520
  0
VERTEX
  8
0
  6
CONTINUOUS
 10
2.962080
 20
2.711280
  0
VERTEX
  8
0
  6
CONTINUOUS
 10
2.983640
 20
2.729760
  0
VERTEX
  8
0
  6
CONTINUOUS
 10
2.980560
 20
1.991000
  0
VERTEX
  8
0
  6
CONTINUOUS
 10
2.959000
 20
1.972520
  0
SEQEND
  8
0
  0
SOLID
  8
0
 62
    15
 10
2.980560
 20
1.991000
 11
2.983640
 21
2.729760
 12
3.003440
 22
2.004200
 13
3.006080
 23
2.743400
  0
POLYLINE
  8
0
  6
CONTINUOUS
 66
     1
 40
0.000000
 41
0.000000
  0
VERTEX
  8
0
  6
CONTINUOUS
 10
2.980560
 20
1.991000
  0
VERTEX
  8
0
  6
CONTINUOUS
 10
2.983640
 20
2.729760
  0
VERTEX
  8
0
  6
CONTINUOUS
 10
3.006080
 20
2.743400
  0
VERTEX
  8
0
  6
CONTINUOUS
 10
3.003440
 20
2.004200
  0
VERTEX
  8
0
  6
CONTINUOUS
 10
2.980560
 20
1.991000
  0
SEQEND
  8
0
  0
SOLID
  8
0
 62
    15
 10
3.003440
 20
2.004200
 11
3.006080
 21
2.743400
 12
3.026760
 22
2.013440
 13
3.029400
 23
2.752200
  0
POLYLINE
  8
0
  6
CONTINUOUS
 66
     1
 40
0.000000
 41
0.000000
  0
VERTEX
  8
0
  6
CONTINUOUS
 10
3.003440
 20
2.004200
  0
VERTEX
  8
0
  6
CONTINUOUS
 10
3.006080
 20
2.743400
  0
VERTEX
  8
0
  6
CONTINUOUS
 10
3.029400
 20
2.752200
  0
VERTEX
  8
0
  6
CONTINUOUS
 10
3.026760
 20
2.013440
  0
VERTEX
  8
0
  6
CONTINUOUS
 10
3.003440
 20
2.004200
  0
SEQEND
  8
0
  0
SOLID
  8
0
 62
    15
 10
3.026760
 20
2.013440
 11
3.029400
 21
2.752200
 12
3.050080
 22
2.017400
 13
3.053160
 23
2.756160
  0
POLYLINE
  8
0
  6
CONTINUOUS
 66
     1
 40
0.000000
 41
0.000000
  0
VERTEX
  8
0
  6
CONTINUOUS
 10
3.026760
 20
2.013440
  0
VERTEX
  8
0
  6
CONTINUOUS
 10
3.029400
 20
2.752200
  0
VERTEX
  8
0
  6
CONTINUOUS
 10
3.053160
 20
2.756160
  0
VERTEX
  8
0
  6
CONTINUOUS
 10
3.050080
 20
2.017400
  0
VERTEX
  8
0
  6
CONTINUOUS
 10
3.026760
 20
2.013440
  0
SEQEND
  8
0
  0
SOLID
  8
0
 62
    15
 10
3.050080
 20
2.017400
 11
3.053160
 21
2.756160
 12
3.073840
 22
2.016520
 13
3.076480
 23
2.755720
  0
POLYLINE
  8
0
  6
CONTINUOUS
 66
     1
 40
0.000000
 41
0.000000
  0
VERTEX
  8
0
  6
CONTINUOUS
 10
3.050080
 20
2.017400
  0
VERTEX
  8
0
  6
CONTINUOUS
 10
3.053160
 20
2.756160
  0
VERTEX
  8
0
  6
CONTINUOUS
 10
3.076480
 20
2.755720
  0
VERTEX
  8
0
  6
CONTINUOUS
 10
3.073840
 20
2.016520
  0
VERTEX
  8
0
  6
CONTINUOUS
 10
3.050080
 20
2.017400
  0
SEQEND
  8
0
  0
SOLID
  8
0
 62
    15
 10
3.073840
 20
2.016520
 11
3.076480
 21
2.755720
 12
3.096720
 22
2.011240
 13
3.099800
 23
2.750440
  0
POLYLINE
  8
0
  6
CONTINUOUS
 66
     1
 40
0.000000
 41
0.000000
  0
VERTEX
  8
0
  6
CONTINUOUS
 10
3.073840
 20
2.016520
  0
VERTEX
  8
0
  6
CONTINUOUS
 10
3.076480
 20
2.755720
  0
VERTEX
  8
0
  6
CONTINUOUS
 10
3.099800
 20
2.750440
  0
VERTEX
  8
0
  6
CONTINUOUS
 10
3.096720
 20
2.011240
  0
VERTEX
  8
0
  6
CONTINUOUS
 10
3.073840
 20
2.016520
  0
SEQEND
  8
0
  0
SOLID
  8
0
 62
    15
 10
3.096720
 20
2.011240
 11
3.099800
 21
2.750440
 12
3.118720
 22
2.001560
 13
3.121800
 23
2.740320
  0
POLYLINE
  8
0
  6
CONTINUOUS
 66
     1
 40
0.000000
 41
0.000000
  0
VERTEX
  8
0
  6
CONTINUOUS
 10
3.096720
 20
2.011240
  0
VERTEX
  8
0
  6
CONTINUOUS
 10
3.099800
 20
2.750440
  0
VERTEX
  8
0
  6
CONTINUOUS
 10
3.121800
 20
2.740320
  0
VERTEX
  8
0
  6
CONTINUOUS
 10
3.118720
 20
2.001560
  0
VERTEX
  8
0
  6
CONTINUOUS
 10
3.096720
 20
2.011240
  0
SEQEND
  8
0
  0
SOLID
  8
0
 62
    15
 10
3.118720
 20
2.001560
 11
3.121800
 21
2.740320
 12
3.139840
 22
1.987040
 13
3.142480
 23
2.725800
  0
POLYLINE
  8
0
  6
CONTINUOUS
 66
     1
 40
0.000000
 41
0.000000
  0
VERTEX
  8
0
  6
CONTINUOUS
 10
3.118720
 20
2.001560
  0
VERTEX
  8
0
  6
CONTINUOUS
 10
3.121800
 20
2.740320
  0
VERTEX
  8
0
  6
CONTINUOUS
 10
3.142480
 20
2.725800
  0
VERTEX
  8
0
  6
CONTINUOUS
 10
3.139840
 20
1.987040
  0
VERTEX
  8
0
  6
CONTINUOUS
 10
3.118720
 20
2.001560
  0
SEQEND
  8
0
  0
SOLID
  8
0
 62
    15
 10
3.139840
 20
1.987040
 11
3.142480
 21
2.725800
 12
3.158760
 22
1.967680
 13
3.161840
 23
2.706440
  0
POLYLINE
  8
0
  6
CONTINUOUS
 66
     1
 40
0.000000
 41
0.000000
  0
VERTEX
  8
0
  6
CONTINUOUS
 10
3.139840
 20
1.987040
  0
VERTEX
  8
0
  6
CONTINUOUS
 10
3.142480
 20
2.725800
  0
VERTEX
  8
0
  6
CONTINUOUS
 10
3.161840
 20
2.706440
  0
VERTEX
  8
0
  6
CONTINUOUS
 10
3.158760
 20
1.967680
  0
VERTEX
  8
0
  6
CONTINUOUS
 10
3.139840
 20
1.987040
  0
SEQEND
  8
0
  0
SOLID
  8
0
 62
    15
 10
3.158760
 20
1.967680
 11
3.161840
 21
2.706440
 12
3.175920
 22
1.943920
 13
3.179000
 23
2.683120
  0
POLYLINE
  8
0
  6
CONTINUOUS
 66
     1
 40
0.000000
 41
0.000000
  0
VERTEX
  8
0
  6
CONTINUOUS
 10
3.158760
 20
1.967680
  0
VERTEX
  8
0
  6
CONTINUOUS
 10
3.161840
 20
2.706440
  0
VERTEX
  8
0
  6
CONTINUOUS
 10
3.179000
 20
2.683120
  0
VERTEX
  8
0
  6
CONTINUOUS
 10
3.175920
 20
1.943920
  0
VERTEX
  8
0
  6
CONTINUOUS
 10
3.158760
 20
1.967680
  0
SEQEND
  8
0
  0
SOLID
  8
0
 62
    15
 10
3.175920
 20
1.943920
 11
3.179000
 21
2.683120
 12
3.190440
 22
1.915760
 13
3.193520
 23
2.654520
  0
POLYLINE
  8
0
  6
CONTINUOUS
 66
     1
 40
0.000000
 41
0.000000
  0
VERTEX
  8
0
  6
CONTINUOUS
 10
3.175920
 20
1.943920
  0
VERTEX
  8
0
  6
CONTINUOUS
 10
3.179000
 20
2.683120
  0
VERTEX
  8
0
  6
CONTINUOUS
 10
3.193520
 20
2.654520
  0
VERTEX
  8
0
  6
CONTINUOUS
 10
3.190440
 20
1.915760
  0
VERTEX
  8
0
  6
CONTINUOUS
 10
3.175920
 20
1.943920
  0
SEQEND
  8
0
  0
SOLID
  8
0
 62
    15
 10
3.190440
 20
1.915760
 11
3.193520
 21
2.654520
 12
3.202320
 22
1.883200
 13
3.204960
 23
2.621960
  0
POLYLINE
  8
0
  6
CONTINUOUS
 66
     1
 40
0.000000
 41
0.000000
  0
VERTEX
  8
0
  6
CONTINUOUS
 10
3.190440
 20
1.915760
  0
VERTEX
  8
0
  6
CONTINUOUS
 10
3.193520
 20
2.654520
  0
VERTEX
  8
0
  6
CONTINUOUS
 10
3.204960
 20
2.621960
  0
VERTEX
  8
0
  6
CONTINUOUS
 10
3.202320
 20
1.883200
  0
VERTEX
  8
0
  6
CONTINUOUS
 10
3.190440
 20
1.915760
  0
SEQEND
  8
0
  0
SOLID
  8
0
 62
    15
 10
3.202320
 20
1.883200
 11
3.204960
 21
2.621960
 12
3.357640
 22
2.029720
 13
3.360280
 23
2.768480
  0
POLYLINE
  8
0
  6
CONTINUOUS
 66
     1
 40
0.000000
 41
0.000000
  0
VERTEX
  8
0
  6
CONTINUOUS
 10
3.202320
 20
1.883200
  0
VERTEX
  8
0
  6
CONTINUOUS
 10
3.204960
 20
2.621960
  0
VERTEX
  8
0
  6
CONTINUOUS
 10
3.360280
 20
2.768480
  0
VERTEX
  8
0
  6
CONTINUOUS
 10
3.357640
 20
2.029720
  0
VERTEX
  8
0
  6
CONTINUOUS
 10
3.202320
 20
1.883200
  0
SEQEND
  8
0
  0
SOLID
  8
0
 62
    15
 10
3.357640
 20
2.029720
 11
3.360280
 21
2.768480
 12
3.426280
 22
2.003760
 13
3.429360
 23
2.742520
  0
POLYLINE
  8
0
  6
CONTINUOUS
 66
     1
 40
0.000000
 41
0.000000
  0
VERTEX
  8
0
  6
CONTINUOUS
 10
3.357640
 20
2.029720
  0
VERTEX
  8
0
  6
CONTINUOUS
 10
3.360280
 20
2.768480
  0
VERTEX
  8
0
  6
CONTINUOUS
 10
3.429360
 20
2.742520
  0
VERTEX
  8
0
  6
CONTINUOUS
 10
3.426280
 20
2.003760
  0
VERTEX
  8
0
  6
CONTINUOUS
 10
3.357640
 20
2.029720
  0
SEQEND
  8
0
  0
SOLID
  8
0
 62
    15
 10
3.426280
 20
2.003760
 11
3.429360
 21
2.742520
 12
3.493160
 22
1.981320
 13
3.495800
 23
2.720080
  0
POLYLINE
  8
0
  6
CONTINUOUS
 66
     1
 40
0.000000
 41
0.000000
  0
VERTEX
  8
0
  6
CONTINUOUS
 10
3.426280
 20
2.003760
  0
VERTEX
  8
0
  6
CONTINUOUS
 10
3.429360
 20
2.742520
  0
VERTEX
  8
0
  6
CONTINUOUS
 10
3.495800
 20
2.720080
  0
VERTEX
  8
0
  6
CONTINUOUS
 10
3.493160
 20
1.981320
  0
VERTEX
  8
0
  6
CONTINUOUS
 10
3.426280
 20
2.003760
  0
SEQEND
  8
0
  0
SOLID
  8
0
 62
    15
 10
3.493160
 20
1.981320
 11
3.495800
 21
2.720080
 12
3.557840
 22
1.962400
 13
3.560480
 23
2.701160
  0
POLYLINE
  8
0
  6
CONTINUOUS
 66
     1
 40
0.000000
 41
0.000000
  0
VERTEX
  8
0
  6
CONTINUOUS
 10
3.493160
 20
1.981320
  0
VERTEX
  8
0
  6
CONTINUOUS
 10
3.495800
 20
2.720080
  0
VERTEX
  8
0
  6
CONTINUOUS
 10
3.560480
 20
2.701160
  0
VERTEX
  8
0
  6
CONTINUOUS
 10
3.557840
 20
1.962400
  0
VERTEX
  8
0
  6
CONTINUOUS
 10
3.493160
 20
1.981320
  0
SEQEND
  8
0
  0
SOLID
  8
0
 62
    15
 10
3.557840
 20
1.962400
 11
3.560480
 21
2.701160
 12
3.620760
 22
1.947440
 13
3.623400
 23
2.686200
  0
POLYLINE
  8
0
  6
CONTINUOUS
 66
     1
 40
0.000000
 41
0.000000
  0
VERTEX
  8
0
  6
CONTINUOUS
 10
3.557840
 20
1.962400
  0
VERTEX
  8
0
  6
CONTINUOUS
 10
3.560480
 20
2.701160
  0
VERTEX
  8
0
  6
CONTINUOUS
 10
3.623400
 20
2.686200
  0
VERTEX
  8
0
  6
CONTINUOUS
 10
3.620760
 20
1.947440
  0
VERTEX
  8
0
  6
CONTINUOUS
 10
3.557840
 20
1.962400
  0
SEQEND
  8
0
  0
SOLID
  8
0
 62
    15
 10
3.620760
 20
1.947440
 11
3.623400
 21
2.686200
 12
3.742640
 22
1.928080
 13
3.745720
 23
2.666840
  0
POLYLINE
  8
0
  6
CONTINUOUS
 66
     1
 40
0.000000
 41
0.000000
  0
VERTEX
  8
0
  6
CONTINUOUS
 10
3.620760
 20
1.947440
  0
VERTEX
  8
0
  6
CONTINUOUS
 10
3.623400
 20
2.686200
  0
VERTEX
  8
0
  6
CONTINUOUS
 10
3.745720
 20
2.666840
  0
VERTEX
  8
0
  6
CONTINUOUS
 10
3.742640
 20
1.928080
  0
VERTEX
  8
0
  6
CONTINUOUS
 10
3.620760
 20
1.947440
  0
SEQEND
  8
0
  0
SOLID
  8
0
 62
    15
 10
3.742640
 20
1.928080
 11
3.745720
 21
2.666840
 12
3.861440
 22
1.922800
 13
3.864080
 23
2.662000
  0
POLYLINE
  8
0
  6
CONTINUOUS
 66
     1
 40
0.000000
 41
0.000000
  0
VERTEX
  8
0
  6
CONTINUOUS
 10
3.742640
 20
1.928080
  0
VERTEX
  8
0
  6
CONTINUOUS
 10
3.745720
 20
2.666840
  0
VERTEX
  8
0
  6
CONTINUOUS
 10
3.864080
 20
2.662000
  0
VERTEX
  8
0
  6
CONTINUOUS
 10
3.861440
 20
1.922800
  0
VERTEX
  8
0
  6
CONTINUOUS
 10
3.742640
 20
1.928080
  0
SEQEND
  8
0
  0
SOLID
  8
0
 62
    15
 10
3.861440
 20
1.922800
 11
3.864080
 21
2.662000
 12
3.978920
 22
1.932040
 13
3.981560
 23
2.670800
  0
POLYLINE
  8
0
  6
CONTINUOUS
 66
     1
 40
0.000000
 41
0.000000
  0
VERTEX
  8
0
  6
CONTINUOUS
 10
3.861440
 20
1.922800
  0
VERTEX
  8
0
  6
CONTINUOUS
 10
3.864080
 20
2.662000
  0
VERTEX
  8
0
  6
CONTINUOUS
 10
3.981560
 20
2.670800
  0
VERTEX
  8
0
  6
CONTINUOUS
 10
3.978920
 20
1.932040
  0
VERTEX
  8
0
  6
CONTINUOUS
 10
3.861440
 20
1.922800
  0
SEQEND
  8
0
  0
SOLID
  8
0
 62
    15
 10
3.978920
 20
1.932040
 11
3.981560
 21
2.670800
 12
4.097280
 22
1.955360
 13
4.100360
 23
2.694120
  0
POLYLINE
  8
0
  6
CONTINUOUS
 66
     1
 40
0.000000
 41
0.000000
  0
VERTEX
  8
0
  6
CONTINUOUS
 10
3.978920
 20
1.932040
  0
VERTEX
  8
0
  6
CONTINUOUS
 10
3.981560
 20
2.670800
  0
VERTEX
  8
0
  6
CONTINUOUS
 10
4.100360
 20
2.694120
  0
VERTEX
  8
0
  6
CONTINUOUS
 10
4.097280
 20
1.955360
  0
VERTEX
  8
0
  6
CONTINUOUS
 10
3.978920
 20
1.932040
  0
SEQEND
  8
0
  0
SOLID
  8
0
 62
    15
 10
4.097280
 20
1.955360
 11
4.100360
 21
2.694120
 12
4.219160
 22
1.992760
 13
4.222240
 23
2.731520
  0
POLYLINE
  8
0
  6
CONTINUOUS
 66
     1
 40
0.000000
 41
0.000000
  0
VERTEX
  8
0
  6
CONTINUOUS
 10
4.097280
 20
1.955360
  0
VERTEX
  8
0
  6
CONTINUOUS
 10
4.100360
 20
2.694120
  0
VERTEX
  8
0
  6
CONTINUOUS
 10
4.222240
 20
2.731520
  0
VERTEX
  8
0
  6
CONTINUOUS
 10
4.219160
 20
1.992760
  0
VERTEX
  8
0
  6
CONTINUOUS
 10
4.097280
 20
1.955360
  0
SEQEND
  8
0
  0
SOLID
  8
0
 62
    15
 10
4.219160
 20
1.992760
 11
4.222240
 21
2.731520
 12
4.346760
 22
2.043800
 13
4.349400
 23
2.782560
  0
POLYLINE
  8
0
  6
CONTINUOUS
 66
     1
 40
0.000000
 41
0.000000
  0
VERTEX
  8
0
  6
CONTINUOUS
 10
4.219160
 20
1.992760
  0
VERTEX
  8
0
  6
CONTINUOUS
 10
4.222240
 20
2.731520
  0
VERTEX
  8
0
  6
CONTINUOUS
 10
4.349400
 20
2.782560
  0
VERTEX
  8
0
  6
CONTINUOUS
 10
4.346760
 20
2.043800
  0
VERTEX
  8
0
  6
CONTINUOUS
 10
4.219160
 20
1.992760
  0
SEQEND
  8
0
  0
SOLID
  8
0
 62
    15
 10
4.346760
 20
2.043800
 11
4.349400
 21
2.782560
 12
4.473040
 22
1.884960
 13
4.476120
 23
2.623720
  0
POLYLINE
  8
0
  6
CONTINUOUS
 66
     1
 40
0.000000
 41
0.000000
  0
VERTEX
  8
0
  6
CONTINUOUS
 10
4.346760
 20
2.043800
  0
VERTEX
  8
0
  6
CONTINUOUS
 10
4.349400
 20
2.782560
  0
VERTEX
  8
0
  6
CONTINUOUS
 10
4.476120
 20
2.623720
  0
VERTEX
  8
0
  6
CONTINUOUS
 10
4.473040
 20
1.884960
  0
VERTEX
  8
0
  6
CONTINUOUS
 10
4.346760
 20
2.043800
  0
SEQEND
  8
0
  0
SOLID
  8
0
 62
    15
 10
4.473040
 20
1.884960
 11
4.476120
 21
2.623720
 12
4.480960
 22
1.919280
 13
4.483600
 23
2.658040
  0
POLYLINE
  8
0
  6
CONTINUOUS
 66
     1
 40
0.000000
 41
0.000000
  0
VERTEX
  8
0
  6
CONTINUOUS
 10
4.473040
 20
1.884960
  0
VERTEX
  8
0
  6
CONTINUOUS
 10
4.476120
 20
2.623720
  0
VERTEX
  8
0
  6
CONTINUOUS
 10
4.483600
 20
2.658040
  0
VERTEX
  8
0
  6
CONTINUOUS
 10
4.480960
 20
1.919280
  0
VERTEX
  8
0
  6
CONTINUOUS
 10
4.473040
 20
1.884960
  0
SEQEND
  8
0
  0
SOLID
  8
0
 62
    15
 10
4.480960
 20
1.919280
 11
4.483600
 21
2.658040
 12
4.492840
 22
1.949200
 13
4.495920
 23
2.687960
  0
POLYLINE
  8
0
  6
CONTINUOUS
 66
     1
 40
0.000000
 41
0.000000
  0
VERTEX
  8
0
  6
CONTINUOUS
 10
4.480960
 20
1.919280
  0
VERTEX
  8
0
  6
CONTINUOUS
 10
4.483600
 20
2.658040
  0
VERTEX
  8
0
  6
CONTINUOUS
 10
4.495920
 20
2.687960
  0
VERTEX
  8
0
  6
CONTINUOUS
 10
4.492840
 20
1.949200
  0
VERTEX
  8
0
  6
CONTINUOUS
 10
4.480960
 20
1.919280
  0
SEQEND
  8
0
  0
SOLID
  8
0
 62
    15
 10
4.492840
 20
1.949200
 11
4.495920
 21
2.687960
 12
4.508680
 22
1.975160
 13
4.511760
 23
2.713920
  0
POLYLINE
  8
0
  6
CONTINUOUS
 66
     1
 40
0.000000
 41
0.000000
  0
VERTEX
  8
0
  6
CONTINUOUS
 10
4.492840
 20
1.949200
  0
VERTEX
  8
0
  6
CONTINUOUS
 10
4.495920
 20
2.687960
  0
VERTEX
  8
0
  6
CONTINUOUS
 10
4.511760
 20
2.713920
  0
VERTEX
  8
0
  6
CONTINUOUS
 10
4.508680
 20
1.975160
  0
VERTEX
  8
0
  6
CONTINUOUS
 10
4.492840
 20
1.949200
  0
SEQEND
  8
0
  0
SOLID
  8
0
 62
    15
 10
1.877920
 20
2.043360
 11
1.881000
 21
2.782120
 12
2.494360
 22
2.043360
 13
2.497440
 23
2.782120
  0
POLYLINE
  8
0
  6
CONTINUOUS
 66
     1
 40
0.000000
 41
0.000000
  0
VERTEX
  8
0
  6
CONTINUOUS
 10
1.877920
 20
2.043360
  0
VERTEX
  8
0
  6
CONTINUOUS
 10
1.881000
 20
2.782120
  0
VERTEX
  8
0
  6
CONTINUOUS
 10
2.497440
 20
2.782120
  0
VERTEX
  8
0
  6
CONTINUOUS
 10
2.494360
 20
2.043360
  0
VERTEX
  8
0
  6
CONTINUOUS
 10
1.877920
 20
2.043360
  0
SEQEND
  8
0
  0
SOLID
  8
0
 62
    15
 10
4.528040
 20
1.996720
 11
4.530680
 21
2.735480
 12
4.549600
 22
2.013880
 13
4.552680
 23
2.752640
  0
POLYLINE
  8
0
  6
CONTINUOUS
 66
     1
 40
0.000000
 41
0.000000
  0
VERTEX
  8
0
  6
CONTINUOUS
 10
4.528040
 20
1.996720
  0
VERTEX
  8
0
  6
CONTINUOUS
 10
4.530680
 20
2.735480
  0
VERTEX
  8
0
  6
CONTINUOUS
 10
4.552680
 20
2.752640
  0
VERTEX
  8
0
  6
CONTINUOUS
 10
4.549600
 20
2.013880
  0
VERTEX
  8
0
  6
CONTINUOUS
 10
4.528040
 20
1.996720
  0
SEQEND
  8
0
  0
SOLID
  8
0
 62
    15
 10
4.549600
 20
2.013880
 11
4.552680
 21
2.752640
 12
4.573360
 22
2.026640
 13
4.576440
 23
2.765400
  0
POLYLINE
  8
0
  6
CONTINUOUS
 66
     1
 40
0.000000
 41
0.000000
  0
VERTEX
  8
0
  6
CONTINUOUS
 10
4.549600
 20
2.013880
  0
VERTEX
  8
0
  6
CONTINUOUS
 10
4.552680
 20
2.752640
  0
VERTEX
  8
0
  6
CONTINUOUS
 10
4.576440
 20
2.765400
  0
VERTEX
  8
0
  6
CONTINUOUS
 10
4.573360
 20
2.026640
  0
VERTEX
  8
0
  6
CONTINUOUS
 10
4.549600
 20
2.013880
  0
SEQEND
  8
0
  0
SOLID
  8
0
 62
    15
 10
4.573360
 20
2.026640
 11
4.576440
 21
2.765400
 12
4.598440
 22
2.035000
 13
4.601520
 23
2.773760
  0
POLYLINE
  8
0
  6
CONTINUOUS
 66
     1
 40
0.000000
 41
0.000000
  0
VERTEX
  8
0
  6
CONTINUOUS
 10
4.573360
 20
2.026640
  0
VERTEX
  8
0
  6
CONTINUOUS
 10
4.576440
 20
2.765400
  0
VERTEX
  8
0
  6
CONTINUOUS
 10
4.601520
 20
2.773760
  0
VERTEX
  8
0
  6
CONTINUOUS
 10
4.598440
 20
2.035000
  0
VERTEX
  8
0
  6
CONTINUOUS
 10
4.573360
 20
2.026640
  0
SEQEND
  8
0
  0
SOLID
  8
0
 62
    15
 10
4.598440
 20
2.035000
 11
4.601520
 21
2.773760
 12
4.624400
 22
2.038520
 13
4.627040
 23
2.777280
  0
POLYLINE
  8
0
  6
CONTINUOUS
 66
     1
 40
0.000000
 41
0.000000
  0
VERTEX
  8
0
  6
CONTINUOUS
 10
4.598440
 20
2.035000
  0
VERTEX
  8
0
  6
CONTINUOUS
 10
4.601520
 20
2.773760
  0
VERTEX
  8
0
  6
CONTINUOUS
 10
4.627040
 20
2.777280
  0
VERTEX
  8
0
  6
CONTINUOUS
 10
4.624400
 20
2.038520
  0
VERTEX
  8
0
  6
CONTINUOUS
 10
4.598440
 20
2.035000
  0
SEQEND
  8
0
  0
SOLID
  8
0
 62
    15
 10
4.624400
 20
2.038520
 11
4.627040
 21
2.777280
 12
4.650360
 22
2.037200
 13
4.653000
 23
2.775960
  0
POLYLINE
  8
0
  6
CONTINUOUS
 66
     1
 40
0.000000
 41
0.000000
  0
VERTEX
  8
0
  6
CONTINUOUS
 10
4.624400
 20
2.038520
  0
VERTEX
  8
0
  6
CONTINUOUS
 10
4.627040
 20
2.777280
  0
VERTEX
  8
0
  6
CONTINUOUS
 10
4.653000
 20
2.775960
  0
VERTEX
  8
0
  6
CONTINUOUS
 10
4.650360
 20
2.037200
  0
VERTEX
  8
0
  6
CONTINUOUS
 10
4.624400
 20
2.038520
  0
SEQEND
  8
0
  0
SOLID
  8
0
 62
    15
 10
4.650360
 20
2.037200
 11
4.653000
 21
2.775960
 12
4.675440
 22
2.031040
 13
4.678520
 23
2.769800
  0
POLYLINE
  8
0
  6
CONTINUOUS
 66
     1
 40
0.000000
 41
0.000000
  0
VERTEX
  8
0
  6
CONTINUOUS
 10
4.650360
 20
2.037200
  0
VERTEX
  8
0
  6
CONTINUOUS
 10
4.653000
 20
2.775960
  0
VERTEX
  8
0
  6
CONTINUOUS
 10
4.678520
 20
2.769800
  0
VERTEX
  8
0
  6
CONTINUOUS
 10
4.675440
 20
2.031040
  0
VERTEX
  8
0
  6
CONTINUOUS
 10
4.650360
 20
2.037200
  0
SEQEND
  8
0
  0
SOLID
  8
0
 62
    15
 10
4.675440
 20
2.031040
 11
4.678520
 21
2.769800
 12
4.700080
 22
2.020040
 13
4.702720
 23
2.758800
  0
POLYLINE
  8
0
  6
CONTINUOUS
 66
     1
 40
0.000000
 41
0.000000
  0
VERTEX
  8
0
  6
CONTINUOUS
 10
4.675440
 20
2.031040
  0
VERTEX
  8
0
  6
CONTINUOUS
 10
4.678520
 20
2.769800
  0
VERTEX
  8
0
  6
CONTINUOUS
 10
4.702720
 20
2.758800
  0
VERTEX
  8
0
  6
CONTINUOUS
 10
4.700080
 20
2.020040
  0
VERTEX
  8
0
  6
CONTINUOUS
 10
4.675440
 20
2.031040
  0
SEQEND
  8
0
  0
SOLID
  8
0
 62
    15
 10
4.700080
 20
2.020040
 11
4.702720
 21
2.758800
 12
4.722520
 22
2.003760
 13
4.725600
 23
2.742520
  0
POLYLINE
  8
0
  6
CONTINUOUS
 66
     1
 40
0.000000
 41
0.000000
  0
VERTEX
  8
0
  6
CONTINUOUS
 10
4.700080
 20
2.020040
  0
VERTEX
  8
0
  6
CONTINUOUS
 10
4.702720
 20
2.758800
  0
VERTEX
  8
0
  6
CONTINUOUS
 10
4.725600
 20
2.742520
  0
VERTEX
  8
0
  6
CONTINUOUS
 10
4.722520
 20
2.003760
  0
VERTEX
  8
0
  6
CONTINUOUS
 10
4.700080
 20
2.020040
  0
SEQEND
  8
0
  0
SOLID
  8
0
 62
    15
 10
4.722520
 20
2.003760
 11
4.725600
 21
2.742520
 12
4.743200
 22
1.982640
 13
4.745840
 23
2.721400
  0
POLYLINE
  8
0
  6
CONTINUOUS
 66
     1
 40
0.000000
 41
0.000000
  0
VERTEX
  8
0
  6
CONTINUOUS
 10
4.722520
 20
2.003760
  0
VERTEX
  8
0
  6
CONTINUOUS
 10
4.725600
 20
2.742520
  0
VERTEX
  8
0
  6
CONTINUOUS
 10
4.745840
 20
2.721400
  0
VERTEX
  8
0
  6
CONTINUOUS
 10
4.743200
 20
1.982640
  0
VERTEX
  8
0
  6
CONTINUOUS
 10
4.722520
 20
2.003760
  0
SEQEND
  8
0
  0
SOLID
  8
0
 62
    15
 10
4.743200
 20
1.982640
 11
4.745840
 21
2.721400
 12
4.760360
 22
1.956240
 13
4.763440
 23
2.695000
  0
POLYLINE
  8
0
  6
CONTINUOUS
 66
     1
 40
0.000000
 41
0.000000
  0
VERTEX
  8
0
  6
CONTINUOUS
 10
4.743200
 20
1.982640
  0
VERTEX
  8
0
  6
CONTINUOUS
 10
4.745840
 20
2.721400
  0
VERTEX
  8
0
  6
CONTINUOUS
 10
4.763440
 20
2.695000
  0
VERTEX
  8
0
  6
CONTINUOUS
 10
4.760360
 20
1.956240
  0
VERTEX
  8
0
  6
CONTINUOUS
 10
4.743200
 20
1.982640
  0
SEQEND
  8
0
  0
SOLID
  8
0
 62
    15
 10
4.760360
 20
1.956240
 11
4.763440
 21
2.695000
 12
4.774440
 22
1.924560
 13
4.777520
 23
2.663320
  0
POLYLINE
  8
0
  6
CONTINUOUS
 66
     1
 40
0.000000
 41
0.000000
  0
VERTEX
  8
0
  6
CONTINUOUS
 10
4.760360
 20
1.956240
  0
VERTEX
  8
0
  6
CONTINUOUS
 10
4.763440
 20
2.695000
  0
VERTEX
  8
0
  6
CONTINUOUS
 10
4.777520
 20
2.663320
  0
VERTEX
  8
0
  6
CONTINUOUS
 10
4.774440
 20
1.924560
  0
VERTEX
  8
0
  6
CONTINUOUS
 10
4.760360
 20
1.956240
  0
SEQEND
  8
0
  0
SOLID
  8
0
 62
    15
 10
4.774440
 20
1.924560
 11
4.777520
 21
2.663320
 12
4.784120
 22
1.887160
 13
4.787200
 23
2.625920
  0
POLYLINE
  8
0
  6
CONTINUOUS
 66
     1
 40
0.000000
 41
0.000000
  0
VERTEX
  8
0
  6
CONTINUOUS
 10
4.774440
 20
1.924560
  0
VERTEX
  8
0
  6
CONTINUOUS
 10
4.777520
 20
2.663320
  0
VERTEX
  8
0
  6
CONTINUOUS
 10
4.787200
 20
2.625920
  0
VERTEX
  8
0
  6
CONTINUOUS
 10
4.784120
 20
1.887160
  0
VERTEX
  8
0
  6
CONTINUOUS
 10
4.774440
 20
1.924560
  0
SEQEND
  8
0
  0
SOLID
  8
0
 62
    15
 10
4.784120
 20
1.887160
 11
4.787200
 21
2.625920
 12
4.789840
 22
1.919720
 13
4.792480
 23
2.658480
  0
POLYLINE
  8
0
  6
CONTINUOUS
 66
     1
 40
0.000000
 41
0.000000
  0
VERTEX
  8
0
  6
CONTINUOUS
 10
4.784120
 20
1.887160
  0
VERTEX
  8
0
  6
CONTINUOUS
 10
4.787200
 20
2.625920
  0
VERTEX
  8
0
  6
CONTINUOUS
 10
4.792480
 20
2.658480
  0
VERTEX
  8
0
  6
CONTINUOUS
 10
4.789840
 20
1.919720
  0
VERTEX
  8
0
  6
CONTINUOUS
 10
4.784120
 20
1.887160
  0
SEQEND
  8
0
  0
SOLID
  8
0
 62
    15
 10
4.789840
 20
1.919720
 11
4.792480
 21
2.658480
 12
4.799520
 22
1.948760
 13
4.802600
 23
2.687960
  0
POLYLINE
  8
0
  6
CONTINUOUS
 66
     1
 40
0.000000
 41
0.000000
  0
VERTEX
  8
0
  6
CONTINUOUS
 10
4.789840
 20
1.919720
  0
VERTEX
  8
0
  6
CONTINUOUS
 10
4.792480
 20
2.658480
  0
VERTEX
  8
0
  6
CONTINUOUS
 10
4.802600
 20
2.687960
  0
VERTEX
  8
0
  6
CONTINUOUS
 10
4.799520
 20
1.948760
  0
VERTEX
  8
0
  6
CONTINUOUS
 10
4.789840
 20
1.919720
  0
SEQEND
  8
0
  0
SOLID
  8
0
 62
    15
 10
4.799520
 20
1.948760
 11
4.802600
 21
2.687960
 12
4.813600
 22
1.974720
 13
4.816680
 23
2.713480
  0
POLYLINE
  8
0
  6
CONTINUOUS
 66
     1
 40
0.000000
 41
0.000000
  0
VERTEX
  8
0
  6
CONTINUOUS
 10
4.799520
 20
1.948760
  0
VERTEX
  8
0
  6
CONTINUOUS
 10
4.802600
 20
2.687960
  0
VERTEX
  8
0
  6
CONTINUOUS
 10
4.816680
 20
2.713480
  0
VERTEX
  8
0
  6
CONTINUOUS
 10
4.813600
 20
1.974720
  0
VERTEX
  8
0
  6
CONTINUOUS
 10
4.799520
 20
1.948760
  0
SEQEND
  8
0
  0
SOLID
  8
0
 62
    15
 10
4.813600
 20
1.974720
 11
4.816680
 21
2.713480
 12
4.830760
 22
1.996720
 13
4.833840
 23
2.735480
  0
POLYLINE
  8
0
  6
CONTINUOUS
 66
     1
 40
0.000000
 41
0.000000
  0
VERTEX
  8
0
  6
CONTINUOUS
 10
4.813600
 20
1.974720
  0
VERTEX
  8
0
  6
CONTINUOUS
 10
4.816680
 20
2.713480
  0
VERTEX
  8
0
  6
CONTINUOUS
 10
4.833840
 20
2.735480
  0
VERTEX
  8
0
  6
CONTINUOUS
 10
4.830760
 20
1.996720
  0
VERTEX
  8
0
  6
CONTINUOUS
 10
4.813600
 20
1.974720
  0
SEQEND
  8
0
  0
SOLID
  8
0
 62
    15
 10
4.830760
 20
1.996720
 11
4.833840
 21
2.735480
 12
4.851000
 22
2.014760
 13
4.854080
 23
2.753520
  0
POLYLINE
  8
0
  6
CONTINUOUS
 66
     1
 40
0.000000
 41
0.000000
  0
VERTEX
  8
0
  6
CONTINUOUS
 10
4.830760
 20
1.996720
  0
VERTEX
  8
0
  6
CONTINUOUS
 10
4.833840
 20
2.735480
  0
VERTEX
  8
0
  6
CONTINUOUS
 10
4.854080
 20
2.753520
  0
VERTEX
  8
0
  6
CONTINUOUS
 10
4.851000
 20
2.014760
  0
VERTEX
  8
0
  6
CONTINUOUS
 10
4.830760
 20
1.996720
  0
SEQEND
  8
0
  0
SOLID
  8
0
 62
    15
 10
4.851000
 20
2.014760
 11
4.854080
 21
2.753520
 12
4.873440
 22
2.028400
 13
4.876080
 23
2.767160
  0
POLYLINE
  8
0
  6
CONTINUOUS
 66
     1
 40
0.000000
 41
0.000000
  0
VERTEX
  8
0
  6
CONTINUOUS
 10
4.851000
 20
2.014760
  0
VERTEX
  8
0
  6
CONTINUOUS
 10
4.854080
 20
2.753520
  0
VERTEX
  8
0
  6
CONTINUOUS
 10
4.876080
 20
2.767160
  0
VERTEX
  8
0
  6
CONTINUOUS
 10
4.873440
 20
2.028400
  0
VERTEX
  8
0
  6
CONTINUOUS
 10
4.851000
 20
2.014760
  0
SEQEND
  8
0
  0
SOLID
  8
0
 62
    15
 10
4.873440
 20
2.028400
 11
4.876080
 21
2.767160
 12
4.897200
 22
2.038080
 13
4.900280
 23
2.776840
  0
POLYLINE
  8
0
  6
CONTINUOUS
 66
     1
 40
0.000000
 41
0.000000
  0
VERTEX
  8
0
  6
CONTINUOUS
 10
4.873440
 20
2.028400
  0
VERTEX
  8
0
  6
CONTINUOUS
 10
4.876080
 20
2.767160
  0
VERTEX
  8
0
  6
CONTINUOUS
 10
4.900280
 20
2.776840
  0
VERTEX
  8
0
  6
CONTINUOUS
 10
4.897200
 20
2.038080
  0
VERTEX
  8
0
  6
CONTINUOUS
 10
4.873440
 20
2.028400
  0
SEQEND
  8
0
  0
SOLID
  8
0
 62
    15
 10
4.897200
 20
2.038080
 11
4.900280
 21
2.776840
 12
4.922280
 22
2.043360
 13
4.924920
 23
2.782120
  0
POLYLINE
  8
0
  6
CONTINUOUS
 66
     1
 40
0.000000
 41
0.000000
  0
VERTEX
  8
0
  6
CONTINUOUS
 10
4.897200
 20
2.038080
  0
VERTEX
  8
0
  6
CONTINUOUS
 10
4.900280
 20
2.776840
  0
VERTEX
  8
0
  6
CONTINUOUS
 10
4.924920
 20
2.782120
  0
VERTEX
  8
0
  6
CONTINUOUS
 10
4.922280
 20
2.043360
  0
VERTEX
  8
0
  6
CONTINUOUS
 10
4.897200
 20
2.038080
  0
SEQEND
  8
0
  0
SOLID
  8
0
 62
    15
 10
4.922280
 20
2.043360
 11
4.924920
 21
2.782120
 12
4.947360
 22
2.043800
 13
4.950440
 23
2.782560
  0
POLYLINE
  8
0
  6
CONTINUOUS
 66
     1
 40
0.000000
 41
0.000000
  0
VERTEX
  8
0
  6
CONTINUOUS
 10
4.922280
 20
2.043360
  0
VERTEX
  8
0
  6
CONTINUOUS
 10
4.924920
 20
2.782120
  0
VERTEX
  8
0
  6
CONTINUOUS
 10
4.950440
 20
2.782560
  0
VERTEX
  8
0
  6
CONTINUOUS
 10
4.947360
 20
2.043800
  0
VERTEX
  8
0
  6
CONTINUOUS
 10
4.922280
 20
2.043360
  0
SEQEND
  8
0
  0
SOLID
  8
0
 62
    15
 10
4.947360
 20
2.043800
 11
4.950440
 21
2.782560
 12
4.972440
 22
2.039400
 13
4.975520
 23
2.778160
  0
POLYLINE
  8
0
  6
CONTINUOUS
 66
     1
 40
0.000000
 41
0.000000
  0
VERTEX
  8
0
  6
CONTINUOUS
 10
4.947360
 20
2.043800
  0
VERTEX
  8
0
  6
CONTINUOUS
 10
4.950440
 20
2.782560
  0
VERTEX
  8
0
  6
CONTINUOUS
 10
4.975520
 20
2.778160
  0
VERTEX
  8
0
  6
CONTINUOUS
 10
4.972440
 20
2.039400
  0
VERTEX
  8
0
  6
CONTINUOUS
 10
4.947360
 20
2.043800
  0
SEQEND
  8
0
  0
SOLID
  8
0
 62
    15
 10
4.972440
 20
2.039400
 11
4.975520
 21
2.778160
 12
4.997080
 22
2.029720
 13
5.000160
 23
2.768480
  0
POLYLINE
  8
0
  6
CONTINUOUS
 66
     1
 40
0.000000
 41
0.000000
  0
VERTEX
  8
0
  6
CONTINUOUS
 10
4.972440
 20
2.039400
  0
VERTEX
  8
0
  6
CONTINUOUS
 10
4.975520
 20
2.778160
  0
VERTEX
  8
0
  6
CONTINUOUS
 10
5.000160
 20
2.768480
  0
VERTEX
  8
0
  6
CONTINUOUS
 10
4.997080
 20
2.029720
  0
VERTEX
  8
0
  6
CONTINUOUS
 10
4.972440
 20
2.039400
  0
SEQEND
  8
0
  0
SOLID
  8
0
 62
    15
 10
4.997080
 20
2.029720
 11
5.000160
 21
2.768480
 12
5.019960
 22
2.015200
 13
5.023040
 23
2.753960
  0
POLYLINE
  8
0
  6
CONTINUOUS
 66
     1
 40
0.000000
 41
0.000000
  0
VERTEX
  8
0
  6
CONTINUOUS
 10
4.997080
 20
2.029720
  0
VERTEX
  8
0
  6
CONTINUOUS
 10
5.000160
 20
2.768480
  0
VERTEX
  8
0
  6
CONTINUOUS
 10
5.023040
 20
2.753960
  0
VERTEX
  8
0
  6
CONTINUOUS
 10
5.019960
 20
2.015200
  0
VERTEX
  8
0
  6
CONTINUOUS
 10
4.997080
 20
2.029720
  0
SEQEND
  8
0
  0
SOLID
  8
0
 62
    15
 10
5.019960
 20
2.015200
 11
5.023040
 21
2.753960
 12
5.041080
 22
1.995400
 13
5.044160
 23
2.734160
  0
POLYLINE
  8
0
  6
CONTINUOUS
 66
     1
 40
0.000000
 41
0.000000
  0
VERTEX
  8
0
  6
CONTINUOUS
 10
5.019960
 20
2.015200
  0
VERTEX
  8
0
  6
CONTINUOUS
 10
5.023040
 20
2.753960
  0
VERTEX
  8
0
  6
CONTINUOUS
 10
5.044160
 20
2.734160
  0
VERTEX
  8
0
  6
CONTINUOUS
 10
5.041080
 20
1.995400
  0
VERTEX
  8
0
  6
CONTINUOUS
 10
5.019960
 20
2.015200
  0
SEQEND
  8
0
  0
SOLID
  8
0
 62
    15
 10
5.041080
 20
1.995400
 11
5.044160
 21
2.734160
 12
5.060000
 22
1.969880
 13
5.062640
 23
2.708640
  0
POLYLINE
  8
0
  6
CONTINUOUS
 66
     1
 40
0.000000
 41
0.000000
  0
VERTEX
  8
0
  6
CONTINUOUS
 10
5.041080
 20
1.995400
  0
VERTEX
  8
0
  6
CONTINUOUS
 10
5.044160
 20
2.734160
  0
VERTEX
  8
0
  6
CONTINUOUS
 10
5.062640
 20
2.708640
  0
VERTEX
  8
0
  6
CONTINUOUS
 10
5.060000
 20
1.969880
  0
VERTEX
  8
0
  6
CONTINUOUS
 10
5.041080
 20
1.995400
  0
SEQEND
  8
0
  0
SOLID
  8
0
 62
    15
 10
5.060000
 20
1.969880
 11
5.062640
 21
2.708640
 12
5.075400
 22
1.938640
 13
5.078480
 23
2.677400
  0
POLYLINE
  8
0
  6
CONTINUOUS
 66
     1
 40
0.000000
 41
0.000000
  0
VERTEX
  8
0
  6
CONTINUOUS
 10
5.060000
 20
1.969880
  0
VERTEX
  8
0
  6
CONTINUOUS
 10
5.062640
 20
2.708640
  0
VERTEX
  8
0
  6
CONTINUOUS
 10
5.078480
 20
2.677400
  0
VERTEX
  8
0
  6
CONTINUOUS
 10
5.075400
 20
1.938640
  0
VERTEX
  8
0
  6
CONTINUOUS
 10
5.060000
 20
1.969880
  0
SEQEND
  8
0
  0
SOLID
  8
0
 62
    15
 10
5.075400
 20
1.938640
 11
5.078480
 21
2.677400
 12
5.087280
 22
1.901240
 13
5.090360
 23
2.640000
  0
POLYLINE
  8
0
  6
CONTINUOUS
 66
     1
 40
0.000000
 41
0.000000
  0
VERTEX
  8
0
  6
CONTINUOUS
 10
5.075400
 20
1.938640
  0
VERTEX
  8
0
  6
CONTINUOUS
 10
5.078480
 20
2.677400
  0
VERTEX
  8
0
  6
CONTINUOUS
 10
5.090360
 20
2.640000
  0
VERTEX
  8
0
  6
CONTINUOUS
 10
5.087280
 20
1.901240
  0
VERTEX
  8
0
  6
CONTINUOUS
 10
5.075400
 20
1.938640
  0
SEQEND
  8
0
  0
SOLID
  8
0
 62
    15
 10
5.087280
 20
1.901240
 11
5.090360
 21
2.640000
 12
5.196840
 22
2.045560
 13
5.199920
 23
2.784320
  0
POLYLINE
  8
0
  6
CONTINUOUS
 66
     1
 40
0.000000
 41
0.000000
  0
VERTEX
  8
0
  6
CONTINUOUS
 10
5.087280
 20
1.901240
  0
VERTEX
  8
0
  6
CONTINUOUS
 10
5.090360
 20
2.640000
  0
VERTEX
  8
0
  6
CONTINUOUS
 10
5.199920
 20
2.784320
  0
VERTEX
  8
0
  6
CONTINUOUS
 10
5.196840
 20
2.045560
  0
VERTEX
  8
0
  6
CONTINUOUS
 10
5.087280
 20
1.901240
  0
SEQEND
  8
0
  0
SOLID
  8
0
 62
    15
 10
6.143720
 20
1.983520
 11
6.146800
 21
2.722280
 12
6.295520
 22
1.980000
 13
6.298600
 23
2.718760
  0
POLYLINE
  8
0
  6
CONTINUOUS
 66
     1
 40
0.000000
 41
0.000000
  0
VERTEX
  8
0
  6
CONTINUOUS
 10
6.143720
 20
1.983520
  0
VERTEX
  8
0
  6
CONTINUOUS
 10
6.146800
 20
2.722280
  0
VERTEX
  8
0
  6
CONTINUOUS
 10
6.298600
 20
2.718760
  0
VERTEX
  8
0
  6
CONTINUOUS
 10
6.295520
 20
1.980000
  0
VERTEX
  8
0
  6
CONTINUOUS
 10
6.143720
 20
1.983520
  0
SEQEND
  8
0
  0
SOLID
  8
0
 62
    15
 10
6.121720
 20
2.045560
 11
6.124800
 21
2.784320
 12
6.143720
 22
1.983520
 13
6.146800
 23
2.722280
  0
POLYLINE
  8
0
  6
CONTINUOUS
 66
     1
 40
0.000000
 41
0.000000
  0
VERTEX
  8
0
  6
CONTINUOUS
 10
6.121720
 20
2.045560
  0
VERTEX
  8
0
  6
CONTINUOUS
 10
6.124800
 20
2.784320
  0
VERTEX
  8
0
  6
CONTINUOUS
 10
6.146800
 20
2.722280
  0
VERTEX
  8
0
  6
CONTINUOUS
 10
6.143720
 20
1.983520
  0
VERTEX
  8
0
  6
CONTINUOUS
 10
6.121720
 20
2.045560
  0
SEQEND
  8
0
  0
SOLID
  8
0
 62
    15
 10
5.196840
 20
2.045560
 11
5.199920
 21
2.784320
 12
6.121720
 22
2.045560
 13
6.124800
 23
2.784320
  0
POLYLINE
  8
0
  6
CONTINUOUS
 66
     1
 40
0.000000
 41
0.000000
  0
VERTEX
  8
0
  6
CONTINUOUS
 10
5.196840
 20
2.045560
  0
VERTEX
  8
0
  6
CONTINUOUS
 10
5.199920
 20
2.784320
  0
VERTEX
  8
0
  6
CONTINUOUS
 10
6.124800
 20
2.784320
  0
VERTEX
  8
0
  6
CONTINUOUS
 10
6.121720
 20
2.045560
  0
VERTEX
  8
0
  6
CONTINUOUS
 10
5.196840
 20
2.045560
  0
SEQEND
  8
0
  0
SOLID
  8
0
 62
    15
 10
6.295520
 20
1.980000
 11
6.298600
 21
2.718760
 12
6.448200
 22
1.965040
 13
6.451280
 23
2.703800
  0
POLYLINE
  8
0
  6
CONTINUOUS
 66
     1
 40
0.000000
 41
0.000000
  0
VERTEX
  8
0
  6
CONTINUOUS
 10
6.295520
 20
1.980000
  0
VERTEX
  8
0
  6
CONTINUOUS
 10
6.298600
 20
2.718760
  0
VERTEX
  8
0
  6
CONTINUOUS
 10
6.451280
 20
2.703800
  0
VERTEX
  8
0
  6
CONTINUOUS
 10
6.448200
 20
1.965040
  0
VERTEX
  8
0
  6
CONTINUOUS
 10
6.295520
 20
1.980000
  0
SEQEND
  8
0
  0
SOLID
  8
0
 62
    15
 10
6.448200
 20
1.965040
 11
6.451280
 21
2.703800
 12
6.523000
 22
1.951400
 13
6.526080
 23
2.690160
  0
POLYLINE
  8
0
  6
CONTINUOUS
 66
     1
 40
0.000000
 41
0.000000
  0
VERTEX
  8
0
  6
CONTINUOUS
 10
6.448200
 20
1.965040
  0
VERTEX
  8
0
  6
CONTINUOUS
 10
6.451280
 20
2.703800
  0
VERTEX
  8
0
  6
CONTINUOUS
 10
6.526080
 20
2.690160
  0
VERTEX
  8
0
  6
CONTINUOUS
 10
6.523000
 20
1.951400
  0
VERTEX
  8
0
  6
CONTINUOUS
 10
6.448200
 20
1.965040
  0
SEQEND
  8
0
  0
SOLID
  8
0
 62
    15
 10
6.523000
 20
1.951400
 11
6.526080
 21
2.690160
 12
6.596040
 22
1.931600
 13
6.599120
 23
2.670360
  0
POLYLINE
  8
0
  6
CONTINUOUS
 66
     1
 40
0.000000
 41
0.000000
  0
VERTEX
  8
0
  6
CONTINUOUS
 10
6.523000
 20
1.951400
  0
VERTEX
  8
0
  6
CONTINUOUS
 10
6.526080
 20
2.690160
  0
VERTEX
  8
0
  6
CONTINUOUS
 10
6.599120
 20
2.670360
  0
VERTEX
  8
0
  6
CONTINUOUS
 10
6.596040
 20
1.931600
  0
VERTEX
  8
0
  6
CONTINUOUS
 10
6.523000
 20
1.951400
  0
SEQEND
  8
0
  0
SOLID
  8
0
 62
    15
 10
6.596040
 20
1.931600
 11
6.599120
 21
2.670360
 12
6.666440
 22
1.905200
 13
6.669520
 23
2.643960
  0
POLYLINE
  8
0
  6
CONTINUOUS
 66
     1
 40
0.000000
 41
0.000000
  0
VERTEX
  8
0
  6
CONTINUOUS
 10
6.596040
 20
1.931600
  0
VERTEX
  8
0
  6
CONTINUOUS
 10
6.599120
 20
2.670360
  0
VERTEX
  8
0
  6
CONTINUOUS
 10
6.669520
 20
2.643960
  0
VERTEX
  8
0
  6
CONTINUOUS
 10
6.666440
 20
1.905200
  0
VERTEX
  8
0
  6
CONTINUOUS
 10
6.596040
 20
1.931600
  0
SEQEND
  8
0
  0
SOLID
  8
0
 62
    15
 10
6.666440
 20
1.905200
 11
6.669520
 21
2.643960
 12
6.733760
 22
1.871320
 13
6.736400
 23
2.610080
  0
POLYLINE
  8
0
  6
CONTINUOUS
 66
     1
 40
0.000000
 41
0.000000
  0
VERTEX
  8
0
  6
CONTINUOUS
 10
6.666440
 20
1.905200
  0
VERTEX
  8
0
  6
CONTINUOUS
 10
6.669520
 20
2.643960
  0
VERTEX
  8
0
  6
CONTINUOUS
 10
6.736400
 20
2.610080
  0
VERTEX
  8
0
  6
CONTINUOUS
 10
6.733760
 20
1.871320
  0
VERTEX
  8
0
  6
CONTINUOUS
 10
6.666440
 20
1.905200
  0
SEQEND
  8
0
  0
SOLID
  8
0
 62
    15
 10
6.733760
 20
1.871320
 11
6.736400
 21
2.610080
 12
6.796680
 22
1.828640
 13
6.799760
 23
2.567840
  0
POLYLINE
  8
0
  6
CONTINUOUS
 66
     1
 40
0.000000
 41
0.000000
  0
VERTEX
  8
0
  6
CONTINUOUS
 10
6.733760
 20
1.871320
  0
VERTEX
  8
0
  6
CONTINUOUS
 10
6.736400
 20
2.610080
  0
VERTEX
  8
0
  6
CONTINUOUS
 10
6.799760
 20
2.567840
  0
VERTEX
  8
0
  6
CONTINUOUS
 10
6.796680
 20
1.828640
  0
VERTEX
  8
0
  6
CONTINUOUS
 10
6.733760
 20
1.871320
  0
SEQEND
  8
0
  0
SOLID
  8
0
 62
    15
 10
6.796680
 20
1.828640
 11
6.799760
 21
2.567840
 12
6.854760
 22
1.776720
 13
6.857840
 23
2.515480
  0
POLYLINE
  8
0
  6
CONTINUOUS
 66
     1
 40
0.000000
 41
0.000000
  0
VERTEX
  8
0
  6
CONTINUOUS
 10
6.796680
 20
1.828640
  0
VERTEX
  8
0
  6
CONTINUOUS
 10
6.799760
 20
2.567840
  0
VERTEX
  8
0
  6
CONTINUOUS
 10
6.857840
 20
2.515480
  0
VERTEX
  8
0
  6
CONTINUOUS
 10
6.854760
 20
1.776720
  0
VERTEX
  8
0
  6
CONTINUOUS
 10
6.796680
 20
1.828640
  0
SEQEND
  8
0
  0
SOLID
  8
0
 62
    15
 10
6.854760
 20
1.776720
 11
6.857840
 21
2.515480
 12
6.907560
 22
1.713800
 13
6.910640
 23
2.452560
  0
POLYLINE
  8
0
  6
CONTINUOUS
 66
     1
 40
0.000000
 41
0.000000
  0
VERTEX
  8
0
  6
CONTINUOUS
 10
6.854760
 20
1.776720
  0
VERTEX
  8
0
  6
CONTINUOUS
 10
6.857840
 20
2.515480
  0
VERTEX
  8
0
  6
CONTINUOUS
 10
6.910640
 20
2.452560
  0
VERTEX
  8
0
  6
CONTINUOUS
 10
6.907560
 20
1.713800
  0
VERTEX
  8
0
  6
CONTINUOUS
 10
6.854760
 20
1.776720
  0
SEQEND
  8
0
  0
SOLID
  8
0
 62
    15
 10
6.954200
 20
1.639440
 11
6.957280
 21
2.378200
 12
6.993800
 22
1.552760
 13
6.996880
 23
2.291520
  0
POLYLINE
  8
0
  6
CONTINUOUS
 66
     1
 40
0.000000
 41
0.000000
  0
VERTEX
  8
0
  6
CONTINUOUS
 10
6.954200
 20
1.639440
  0
VERTEX
  8
0
  6
CONTINUOUS
 10
6.957280
 20
2.378200
  0
VERTEX
  8
0
  6
CONTINUOUS
 10
6.996880
 20
2.291520
  0
VERTEX
  8
0
  6
CONTINUOUS
 10
6.993800
 20
1.552760
  0
VERTEX
  8
0
  6
CONTINUOUS
 10
6.954200
 20
1.639440
  0
SEQEND
  8
0
  0
SOLID
  8
0
 62
    15
 10
6.907560
 20
1.713800
 11
6.910640
 21
2.452560
 12
6.954200
 22
1.639440
 13
6.957280
 23
2.378200
  0
POLYLINE
  8
0
  6
CONTINUOUS
 66
     1
 40
0.000000
 41
0.000000
  0
VERTEX
  8
0
  6
CONTINUOUS
 10
6.907560
 20
1.713800
  0
VERTEX
  8
0
  6
CONTINUOUS
 10
6.910640
 20
2.452560
  0
VERTEX
  8
0
  6
CONTINUOUS
 10
6.957280
 20
2.378200
  0
VERTEX
  8
0
  6
CONTINUOUS
 10
6.954200
 20
1.639440
  0
VERTEX
  8
0
  6
CONTINUOUS
 10
6.907560
 20
1.713800
  0
SEQEND
  8
0
  0
SOLID
  8
0
 62
    15
 10
6.993800
 20
1.552760
 11
6.996880
 21
2.291520
 12
7.010960
 22
1.503920
 13
7.013600
 23
2.243120
  0
POLYLINE
  8
0
  6
CONTINUOUS
 66
     1
 40
0.000000
 41
0.000000
  0
VERTEX
  8
0
  6
CONTINUOUS
 10
6.993800
 20
1.552760
  0
VERTEX
  8
0
  6
CONTINUOUS
 10
6.996880
 20
2.291520
  0
VERTEX
  8
0
  6
CONTINUOUS
 10
7.013600
 20
2.243120
  0
VERTEX
  8
0
  6
CONTINUOUS
 10
7.010960
 20
1.503920
  0
VERTEX
  8
0
  6
CONTINUOUS
 10
6.993800
 20
1.552760
  0
SEQEND
  8
0
  0
SOLID
  8
0
 62
    15
 10
7.010960
 20
1.503920
 11
7.013600
 21
2.243120
 12
7.025920
 22
1.452000
 13
7.028560
 23
2.191200
  0
POLYLINE
  8
0
  6
CONTINUOUS
 66
     1
 40
0.000000
 41
0.000000
  0
VERTEX
  8
0
  6
CONTINUOUS
 10
7.010960
 20
1.503920
  0
VERTEX
  8
0
  6
CONTINUOUS
 10
7.013600
 20
2.243120
  0
VERTEX
  8
0
  6
CONTINUOUS
 10
7.028560
 20
2.191200
  0
VERTEX
  8
0
  6
CONTINUOUS
 10
7.025920
 20
1.452000
  0
VERTEX
  8
0
  6
CONTINUOUS
 10
7.010960
 20
1.503920
  0
SEQEND
  8
0
  0
SOLID
  8
0
 62
    15
 10
7.025920
 20
1.452000
 11
7.028560
 21
2.191200
 12
7.038680
 22
1.396560
 13
7.041760
 23
2.135320
  0
POLYLINE
  8
0
  6
CONTINUOUS
 66
     1
 40
0.000000
 41
0.000000
  0
VERTEX
  8
0
  6
CONTINUOUS
 10
7.025920
 20
1.452000
  0
VERTEX
  8
0
  6
CONTINUOUS
 10
7.028560
 20
2.191200
  0
VERTEX
  8
0
  6
CONTINUOUS
 10
7.041760
 20
2.135320
  0
VERTEX
  8
0
  6
CONTINUOUS
 10
7.038680
 20
1.396560
  0
VERTEX
  8
0
  6
CONTINUOUS
 10
7.025920
 20
1.452000
  0
SEQEND
  8
0
  0
SOLID
  8
0
 62
    15
 10
7.038680
 20
1.396560
 11
7.041760
 21
2.135320
 12
7.049240
 22
1.337160
 13
7.052320
 23
2.075920
  0
POLYLINE
  8
0
  6
CONTINUOUS
 66
     1
 40
0.000000
 41
0.000000
  0
VERTEX
  8
0
  6
CONTINUOUS
 10
7.038680
 20
1.396560
  0
VERTEX
  8
0
  6
CONTINUOUS
 10
7.041760
 20
2.135320
  0
VERTEX
  8
0
  6
CONTINUOUS
 10
7.052320
 20
2.075920
  0
VERTEX
  8
0
  6
CONTINUOUS
 10
7.049240
 20
1.337160
  0
VERTEX
  8
0
  6
CONTINUOUS
 10
7.038680
 20
1.396560
  0
SEQEND
  8
0
  0
SOLID
  8
0
 62
    15
 10
7.049240
 20
1.337160
 11
7.052320
 21
2.075920
 12
7.058040
 22
1.273800
 13
7.060680
 23
2.013000
  0
POLYLINE
  8
0
  6
CONTINUOUS
 66
     1
 40
0.000000
 41
0.000000
  0
VERTEX
  8
0
  6
CONTINUOUS
 10
7.049240
 20
1.337160
  0
VERTEX
  8
0
  6
CONTINUOUS
 10
7.052320
 20
2.075920
  0
VERTEX
  8
0
  6
CONTINUOUS
 10
7.060680
 20
2.013000
  0
VERTEX
  8
0
  6
CONTINUOUS
 10
7.058040
 20
1.273800
  0
VERTEX
  8
0
  6
CONTINUOUS
 10
7.049240
 20
1.337160
  0
SEQEND
  8
0
  0
SOLID
  8
0
 62
    15
 10
7.058040
 20
1.273800
 11
7.060680
 21
2.013000
 12
7.064200
 22
1.206920
 13
7.066840
 23
1.945680
  0
POLYLINE
  8
0
  6
CONTINUOUS
 66
     1
 40
0.000000
 41
0.000000
  0
VERTEX
  8
0
  6
CONTINUOUS
 10
7.058040
 20
1.273800
  0
VERTEX
  8
0
  6
CONTINUOUS
 10
7.060680
 20
2.013000
  0
VERTEX
  8
0
  6
CONTINUOUS
 10
7.066840
 20
1.945680
  0
VERTEX
  8
0
  6
CONTINUOUS
 10
7.064200
 20
1.206920
  0
VERTEX
  8
0
  6
CONTINUOUS
 10
7.058040
 20
1.273800
  0
SEQEND
  8
0
  0
SOLID
  8
0
 62
    15
 10
1.874400
 20
2.042040
 11
1.877480
 21
2.780800
 12
1.877920
 22
2.043360
 13
1.881000
 23
2.782120
  0
POLYLINE
  8
0
  6
CONTINUOUS
 66
     1
 40
0.000000
 41
0.000000
  0
VERTEX
  8
0
  6
CONTINUOUS
 10
1.874400
 20
2.042040
  0
VERTEX
  8
0
  6
CONTINUOUS
 10
1.877480
 20
2.780800
  0
VERTEX
  8
0
  6
CONTINUOUS
 10
1.881000
 20
2.782120
  0
VERTEX
  8
0
  6
CONTINUOUS
 10
1.877920
 20
2.043360
  0
VERTEX
  8
0
  6
CONTINUOUS
 10
1.874400
 20
2.042040
  0
SEQEND
  8
0
  0
POLYLINE
  8
0
  6
CONTINUOUS
 66
     1
 40
0.000000
 41
0.000000
  0
VERTEX
  8
0
  6
CONTINUOUS
 10
1.877920
 20
2.043360
  0
VERTEX
  8
0
  6
CONTINUOUS
 10
2.494360
 20
2.043360
  0
VERTEX
  8
0
  6
CONTINUOUS
 10
2.595120
 20
1.883640
  0
VERTEX
  8
0
  6
CONTINUOUS
 10
2.607000
 20
1.916200
  0
VERTEX
  8
0
  6
CONTINUOUS
 10
2.621960
 20
1.944360
  0
VERTEX
  8
0
  6
CONTINUOUS
 10
2.640000
 20
1.968560
  0
VERTEX
  8
0
  6
CONTINUOUS
 10
2.660680
 20
1.987920
  0
VERTEX
  8
0
  6
CONTINUOUS
 10
2.683120
 20
2.003320
  0
VERTEX
  8
0
  6
CONTINUOUS
 10
2.706880
 20
2.013880
  0
VERTEX
  8
0
  6
CONTINUOUS
 10
2.731520
 20
2.020040
  0
VERTEX
  8
0
  6
CONTINUOUS
 10
2.756160
 20
2.020920
  0
VERTEX
  8
0
  6
CONTINUOUS
 10
2.780360
 20
2.017840
  0
VERTEX
  8
0
  6
CONTINUOUS
 10
2.803680
 20
2.009040
  0
VERTEX
  8
0
  6
CONTINUOUS
 10
2.825240
 20
1.995840
  0
VERTEX
  8
0
  6
CONTINUOUS
 10
2.845040
 20
1.977360
  0
VERTEX
  8
0
  6
CONTINUOUS
 10
2.862200
 20
1.953600
  0
VERTEX
  8
0
  6
CONTINUOUS
 10
2.875840
 20
1.925000
  0
VERTEX
  8
0
  6
CONTINUOUS
 10
2.885520
 20
1.890680
  0
VERTEX
  8
0
  6
CONTINUOUS
 10
2.891240
 20
1.851080
  0
VERTEX
  8
0
  6
CONTINUOUS
 10
2.904440
 20
1.888920
  0
VERTEX
  8
0
  6
CONTINUOUS
 10
2.920720
 20
1.921480
  0
VERTEX
  8
0
  6
CONTINUOUS
 10
2.938760
 20
1.949640
  0
VERTEX
  8
0
  6
CONTINUOUS
 10
2.959000
 20
1.972520
  0
VERTEX
  8
0
  6
CONTINUOUS
 10
2.980560
 20
1.991000
  0
VERTEX
  8
0
  6
CONTINUOUS
 10
3.003440
 20
2.004200
  0
VERTEX
  8
0
  6
CONTINUOUS
 10
3.026760
 20
2.013440
  0
VERTEX
  8
0
  6
CONTINUOUS
 10
3.050080
 20
2.017400
  0
VERTEX
  8
0
  6
CONTINUOUS
 10
3.073840
 20
2.016520
  0
VERTEX
  8
0
  6
CONTINUOUS
 10
3.096720
 20
2.011240
  0
VERTEX
  8
0
  6
CONTINUOUS
 10
3.118720
 20
2.001560
  0
VERTEX
  8
0
  6
CONTINUOUS
 10
3.139840
 20
1.987040
  0
VERTEX
  8
0
  6
CONTINUOUS
 10
3.158760
 20
1.967680
  0
VERTEX
  8
0
  6
CONTINUOUS
 10
3.175920
 20
1.943920
  0
VERTEX
  8
0
  6
CONTINUOUS
 10
3.190440
 20
1.915760
  0
VERTEX
  8
0
  6
CONTINUOUS
 10
3.202320
 20
1.883200
  0
VERTEX
  8
0
  6
CONTINUOUS
 10
3.357640
 20
2.029720
  0
VERTEX
  8
0
  6
CONTINUOUS
 10
3.426280
 20
2.003760
  0
VERTEX
  8
0
  6
CONTINUOUS
 10
3.493160
 20
1.981320
  0
VERTEX
  8
0
  6
CONTINUOUS
 10
3.557840
 20
1.962400
  0
VERTEX
  8
0
  6
CONTINUOUS
 10
3.620760
 20
1.947440
  0
VERTEX
  8
0
  6
CONTINUOUS
 10
3.742640
 20
1.928080
  0
VERTEX
  8
0
  6
CONTINUOUS
 10
3.861440
 20
1.922800
  0
VERTEX
  8
0
  6
CONTINUOUS
 10
3.978920
 20
1.932040
  0
VERTEX
  8
0
  6
CONTINUOUS
 10
4.097280
 20
1.955360
  0
VERTEX
  8
0
  6
CONTINUOUS
 10
4.219160
 20
1.992760
  0
VERTEX
  8
0
  6
CONTINUOUS
 10
4.346760
 20
2.043800
  0
VERTEX
  8
0
  6
CONTINUOUS
 10
4.473040
 20
1.884960
  0
VERTEX
  8
0
  6
CONTINUOUS
 10
4.480960
 20
1.919280
  0
VERTEX
  8
0
  6
CONTINUOUS
 10
4.492840
 20
1.949200
  0
VERTEX
  8
0
  6
CONTINUOUS
 10
4.508680
 20
1.975160
  0
VERTEX
  8
0
  6
CONTINUOUS
 10
4.528040
 20
1.996720
  0
VERTEX
  8
0
  6
CONTINUOUS
 10
4.549600
 20
2.013880
  0
VERTEX
  8
0
  6
CONTINUOUS
 10
4.573360
 20
2.026640
  0
VERTEX
  8
0
  6
CONTINUOUS
 10
4.598440
 20
2.035000
  0
VERTEX
  8
0
  6
CONTINUOUS
 10
4.624400
 20
2.038520
  0
VERTEX
  8
0
  6
CONTINUOUS
 10
4.650360
 20
2.037200
  0
VERTEX
  8
0
  6
CONTINUOUS
 10
4.675440
 20
2.031040
  0
VERTEX
  8
0
  6
CONTINUOUS
 10
4.700080
 20
2.020040
  0
VERTEX
  8
0
  6
CONTINUOUS
 10
4.722520
 20
2.003760
  0
VERTEX
  8
0
  6
CONTINUOUS
 10
4.743200
 20
1.982640
  0
VERTEX
  8
0
  6
CONTINUOUS
 10
4.760360
 20
1.956240
  0
VERTEX
  8
0
  6
CONTINUOUS
 10
4.774440
 20
1.924560
  0
VERTEX
  8
0
  6
CONTINUOUS
 10
4.784120
 20
1.887160
  0
VERTEX
  8
0
  6
CONTINUOUS
 10
4.789840
 20
1.919720
  0
VERTEX
  8
0
  6
CONTINUOUS
 10
4.799520
 20
1.948760
  0
VERTEX
  8
0
  6
CONTINUOUS
 10
4.813600
 20
1.974720
  0
VERTEX
  8
0
  6
CONTINUOUS
 10
4.830760
 20
1.996720
  0
VERTEX
  8
0
  6
CONTINUOUS
 10
4.851000
 20
2.014760
  0
VERTEX
  8
0
  6
CONTINUOUS
 10
4.873440
 20
2.028400
  0
VERTEX
  8
0
  6
CONTINUOUS
 10
4.897200
 20
2.038080
  0
VERTEX
  8
0
  6
CONTINUOUS
 10
4.922280
 20
2.043360
  0
VERTEX
  8
0
  6
CONTINUOUS
 10
4.947360
 20
2.043800
  0
VERTEX
  8
0
  6
CONTINUOUS
 10
4.972440
 20
2.039400
  0
VERTEX
  8
0
  6
CONTINUOUS
 10
4.997080
 20
2.029720
  0
VERTEX
  8
0
  6
CONTINUOUS
 10
5.019960
 20
2.015200
  0
VERTEX
  8
0
  6
CONTINUOUS
 10
5.041080
 20
1.995400
  0
VERTEX
  8
0
  6
CONTINUOUS
 10
5.060000
 20
1.969880
  0
VERTEX
  8
0
  6
CONTINUOUS
 10
5.075400
 20
1.938640
  0
VERTEX
  8
0
  6
CONTINUOUS
 10
5.087280
 20
1.901240
  0
VERTEX
  8
0
  6
CONTINUOUS
 10
5.196840
 20
2.045560
  0
VERTEX
  8
0
  6
CONTINUOUS
 10
6.121720
 20
2.045560
  0
VERTEX
  8
0
  6
CONTINUOUS
 10
6.143720
 20
1.983520
  0
VERTEX
  8
0
  6
CONTINUOUS
 10
6.295520
 20
1.980000
  0
VERTEX
  8
0
  6
CONTINUOUS
 10
6.448200
 20
1.965040
  0
VERTEX
  8
0
  6
CONTINUOUS
 10
6.523000
 20
1.951400
  0
VERTEX
  8
0
  6
CONTINUOUS
 10
6.596040
 20
1.931600
  0
VERTEX
  8
0
  6
CONTINUOUS
 10
6.666440
 20
1.905200
  0
VERTEX
  8
0
  6
CONTINUOUS
 10
6.733760
 20
1.871320
  0
VERTEX
  8
0
  6
CONTINUOUS
 10
6.796680
 20
1.828640
  0
VERTEX
  8
0
  6
CONTINUOUS
 10
6.854760
 20
1.776720
  0
VERTEX
  8
0
  6
CONTINUOUS
 10
6.907560
 20
1.713800
  0
VERTEX
  8
0
  6
CONTINUOUS
 10
6.954200
 20
1.639440
  0
VERTEX
  8
0
  6
CONTINUOUS
 10
6.993800
 20
1.552760
  0
VERTEX
  8
0
  6
CONTINUOUS
 10
7.010960
 20
1.503920
  0
VERTEX
  8
0
  6
CONTINUOUS
 10
7.025920
 20
1.452000
  0
VERTEX
  8
0
  6
CONTINUOUS
 10
7.038680
 20
1.396560
  0
VERTEX
  8
0
  6
CONTINUOUS
 10
7.049240
 20
1.337160
  0
VERTEX
  8
0
  6
CONTINUOUS
 10
7.058040
 20
1.273800
  0
VERTEX
  8
0
  6
CONTINUOUS
 10
7.064200
 20
1.206920
  0
VERTEX
  8
0
  6
CONTINUOUS
 10
1.874400
 20
1.206920
  0
VERTEX
  8
0
  6
CONTINUOUS
 10
1.874400
 20
2.042040
  0
VERTEX
  8
0
  6
CONTINUOUS
 10
1.877920
 20
2.043360
  0
SEQEND
  8
0
  0
TEXT
  8
0
 10
4.175600
 20
0.949960
 40
0.138239
  1
BA  875
 41
1.000000
  7
SN0
 71
     0
 72
     5
 11
4.766476
 21
0.949960
  0
TEXT
  8
0
 10
3.927440
 20
0.758560
 40
0.138239
  1
13/16" x 5-1/4"
 41
1.000000
  7
SN0
 71
     0
 72
     5
 11
5.013205
 21
0.758560
  0
POLYLINE
  8
0
  6
CONTINUOUS
 66
     1
 40
0.014080
 41
0.014080
  0
VERTEX
  8
0
  6
CONTINUOUS
 10
1.833040
 20
4.168120
  0
VERTEX
  8
0
  6
CONTINUOUS
 10
2.449480
 20
4.168120
  0
VERTEX
  8
0
  6
CONTINUOUS
 10
2.550680
 20
4.008840
  0
VERTEX
  8
0
  6
CONTINUOUS
 10
2.562120
 20
4.041400
  0
VERTEX
  8
0
  6
CONTINUOUS
 10
2.577520
 20
4.069560
  0
VERTEX
  8
0
  6
CONTINUOUS
 10
2.595560
 20
4.093320
  0
VERTEX
  8
0
  6
CONTINUOUS
 10
2.616240
 20
4.113120
  0
VERTEX
  8
0
  6
CONTINUOUS
 10
2.638680
 20
4.128080
  0
VERTEX
  8
0
  6
CONTINUOUS
 10
2.662440
 20
4.139080
  0
VERTEX
  8
0
  6
CONTINUOUS
 10
2.687080
 20
4.144800
  0
VERTEX
  8
0
  6
CONTINUOUS
 10
2.711720
 20
4.146120
  0
VERTEX
  8
0
  6
CONTINUOUS
 10
2.723600
 20
4.145240
  0
VERTEX
  8
0
  6
CONTINUOUS
 10
2.747800
 20
4.139080
  0
VERTEX
  8
0
  6
CONTINUOUS
 10
2.770240
 20
4.128080
  0
VERTEX
  8
0
  6
CONTINUOUS
 10
2.790920
 20
4.112240
  0
VERTEX
  8
0
  6
CONTINUOUS
 10
2.809400
 20
4.091120
  0
VERTEX
  8
0
  6
CONTINUOUS
 10
2.824800
 20
4.065160
  0
VERTEX
  8
0
  6
CONTINUOUS
 10
2.836680
 20
4.033480
  0
VERTEX
  8
0
  6
CONTINUOUS
 10
2.841080
 20
4.015880
  0
VERTEX
  8
0
  6
CONTINUOUS
 10
2.846360
 20
3.976280
  0
VERTEX
  8
0
  6
CONTINUOUS
 10
2.859560
 20
4.014120
  0
VERTEX
  8
0
  6
CONTINUOUS
 10
2.875840
 20
4.046680
  0
VERTEX
  8
0
  6
CONTINUOUS
 10
2.894320
 20
4.074840
  0
VERTEX
  8
0
  6
CONTINUOUS
 10
2.914120
 20
4.097720
  0
VERTEX
  8
0
  6
CONTINUOUS
 10
2.935680
 20
4.116200
  0
VERTEX
  8
0
  6
CONTINUOUS
 10
2.970000
 20
4.134680
  0
VERTEX
  8
0
  6
CONTINUOUS
 10
2.993760
 20
4.140840
  0
VERTEX
  8
0
  6
CONTINUOUS
 10
3.005640
 20
4.142600
  0
VERTEX
  8
0
  6
CONTINUOUS
 10
3.028960
 20
4.141720
  0
VERTEX
  8
0
  6
CONTINUOUS
 10
3.040840
 20
4.139960
  0
VERTEX
  8
0
  6
CONTINUOUS
 10
3.063280
 20
4.132040
  0
VERTEX
  8
0
  6
CONTINUOUS
 10
3.084840
 20
4.120160
  0
VERTEX
  8
0
  6
CONTINUOUS
 10
3.104640
 20
4.103000
  0
VERTEX
  8
0
  6
CONTINUOUS
 10
3.123120
 20
4.081880
  0
VERTEX
  8
0
  6
CONTINUOUS
 10
3.138960
 20
4.055920
  0
VERTEX
  8
0
  6
CONTINUOUS
 10
3.152160
 20
4.025120
  0
VERTEX
  8
0
  6
CONTINUOUS
 10
3.157440
 20
4.008400
  0
VERTEX
  8
0
  6
CONTINUOUS
 10
3.312760
 20
4.154920
  0
VERTEX
  8
0
  6
CONTINUOUS
 10
3.415280
 20
4.117080
  0
VERTEX
  8
0
  6
CONTINUOUS
 10
3.512960
 20
4.087600
  0
VERTEX
  8
0
  6
CONTINUOUS
 10
3.575880
 20
4.072640
  0
VERTEX
  8
0
  6
CONTINUOUS
 10
3.637480
 20
4.061200
  0
VERTEX
  8
0
  6
CONTINUOUS
 10
3.697760
 20
4.053280
  0
VERTEX
  8
0
  6
CONTINUOUS
 10
3.757600
 20
4.048880
  0
VERTEX
  8
0
  6
CONTINUOUS
 10
3.816560
 20
4.048000
  0
VERTEX
  8
0
  6
CONTINUOUS
 10
3.875080
 20
4.050640
  0
VERTEX
  8
0
  6
CONTINUOUS
 10
3.963520
 20
4.061640
  0
VERTEX
  8
0
  6
CONTINUOUS
 10
4.022480
 20
4.073080
  0
VERTEX
  8
0
  6
CONTINUOUS
 10
4.113120
 20
4.097280
  0
VERTEX
  8
0
  6
CONTINUOUS
 10
4.205520
 20
4.128960
  0
VERTEX
  8
0
  6
CONTINUOUS
 10
4.301880
 20
4.168560
  0
VERTEX
  8
0
  6
CONTINUOUS
 10
4.428160
 20
4.010160
  0
VERTEX
  8
0
  6
CONTINUOUS
 10
4.435640
 20
4.044480
  0
VERTEX
  8
0
  6
CONTINUOUS
 10
4.447960
 20
4.074400
  0
VERTEX
  8
0
  6
CONTINUOUS
 10
4.463800
 20
4.100360
  0
VERTEX
  8
0
  6
CONTINUOUS
 10
4.483160
 20
4.121920
  0
VERTEX
  8
0
  6
CONTINUOUS
 10
4.504720
 20
4.139080
  0
VERTEX
  8
0
  6
CONTINUOUS
 10
4.528480
 20
4.151840
  0
VERTEX
  8
0
  6
CONTINUOUS
 10
4.553560
 20
4.159760
  0
VERTEX
  8
0
  6
CONTINUOUS
 10
4.566320
 20
4.162400
  0
VERTEX
  8
0
  6
CONTINUOUS
 10
4.592280
 20
4.163280
  0
VERTEX
  8
0
  6
CONTINUOUS
 10
4.618240
 20
4.159760
  0
VERTEX
  8
0
  6
CONTINUOUS
 10
4.631000
 20
4.156240
  0
VERTEX
  8
0
  6
CONTINUOUS
 10
4.655200
 20
4.145240
  0
VERTEX
  8
0
  6
CONTINUOUS
 10
4.678080
 20
4.128960
  0
VERTEX
  8
0
  6
CONTINUOUS
 10
4.698320
 20
4.107840
  0
VERTEX
  8
0
  6
CONTINUOUS
 10
4.715480
 20
4.081440
  0
VERTEX
  8
0
  6
CONTINUOUS
 10
4.729560
 20
4.049760
  0
VERTEX
  8
0
  6
CONTINUOUS
 10
4.739240
 20
4.012360
  0
VERTEX
  8
0
  6
CONTINUOUS
 10
4.744960
 20
4.044920
  0
VERTEX
  8
0
  6
CONTINUOUS
 10
4.754640
 20
4.074400
  0
VERTEX
  8
0
  6
CONTINUOUS
 10
4.768720
 20
4.099920
  0
VERTEX
  8
0
  6
CONTINUOUS
 10
4.786320
 20
4.121920
  0
VERTEX
  8
0
  6
CONTINUOUS
 10
4.806120
 20
4.139960
  0
VERTEX
  8
0
  6
CONTINUOUS
 10
4.828560
 20
4.153600
  0
VERTEX
  8
0
  6
CONTINUOUS
 10
4.852320
 20
4.163280
  0
VERTEX
  8
0
  6
CONTINUOUS
 10
4.877400
 20
4.168560
  0
VERTEX
  8
0
  6
CONTINUOUS
 10
4.902480
 20
4.169000
  0
VERTEX
  8
0
  6
CONTINUOUS
 10
4.927560
 20
4.164600
  0
VERTEX
  8
0
  6
CONTINUOUS
 10
4.952200
 20
4.154920
  0
VERTEX
  8
0
  6
CONTINUOUS
 10
4.975080
 20
4.140400
  0
VERTEX
  8
0
  6
CONTINUOUS
 10
4.996200
 20
4.120600
  0
VERTEX
  8
0
  6
CONTINUOUS
 10
5.015120
 20
4.095080
  0
VERTEX
  8
0
  6
CONTINUOUS
 10
5.030520
 20
4.063840
  0
VERTEX
  8
0
  6
CONTINUOUS
 10
5.037120
 20
4.045800
  0
VERTEX
  8
0
  6
CONTINUOUS
 10
5.042400
 20
4.026440
  0
VERTEX
  8
0
  6
CONTINUOUS
 10
5.151960
 20
4.170760
  0
VERTEX
  8
0
  6
CONTINUOUS
 10
6.076840
 20
4.170760
  0
VERTEX
  8
0
  6
CONTINUOUS
 10
6.098840
 20
4.108720
  0
VERTEX
  8
0
  6
CONTINUOUS
 10
6.174080
 20
4.107840
  0
VERTEX
  8
0
  6
CONTINUOUS
 10
6.250640
 20
4.105200
  0
VERTEX
  8
0
  6
CONTINUOUS
 10
6.327200
 20
4.099480
  0
VERTEX
  8
0
  6
CONTINUOUS
 10
6.403320
 20
4.090240
  0
VERTEX
  8
0
  6
CONTINUOUS
 10
6.441160
 20
4.084080
  0
VERTEX
  8
0
  6
CONTINUOUS
 10
6.515080
 20
4.067360
  0
VERTEX
  8
0
  6
CONTINUOUS
 10
6.551600
 20
4.056800
  0
VERTEX
  8
0
  6
CONTINUOUS
 10
6.587240
 20
4.044480
  0
VERTEX
  8
0
  6
CONTINUOUS
 10
6.622000
 20
4.030400
  0
VERTEX
  8
0
  6
CONTINUOUS
 10
6.655880
 20
4.014560
  0
VERTEX
  8
0
  6
CONTINUOUS
 10
6.705160
 20
3.986400
  0
VERTEX
  8
0
  6
CONTINUOUS
 10
6.751800
 20
3.953840
  0
VERTEX
  8
0
  6
CONTINUOUS
 10
6.796240
 20
3.915560
  0
VERTEX
  8
0
  6
CONTINUOUS
 10
6.837160
 20
3.871560
  0
VERTEX
  8
0
  6
CONTINUOUS
 10
6.863120
 20
3.839000
  0
VERTEX
  8
0
  6
CONTINUOUS
 10
6.898320
 20
3.784000
  0
VERTEX
  8
0
  6
CONTINUOUS
 10
6.919880
 20
3.743960
  0
VERTEX
  8
0
  6
CONTINUOUS
 10
6.948920
 20
3.677520
  0
VERTEX
  8
0
  6
CONTINUOUS
 10
6.974000
 20
3.603600
  0
VERTEX
  8
0
  6
CONTINUOUS
 10
6.993800
 20
3.521320
  0
VERTEX
  8
0
  6
CONTINUOUS
 10
7.004800
 20
3.461920
  0
VERTEX
  8
0
  6
CONTINUOUS
 10
7.016680
 20
3.366000
  0
VERTEX
  8
0
  6
CONTINUOUS
 10
7.019320
 20
3.331680
  0
VERTEX
  8
0
  6
CONTINUOUS
 10
1.829520
 20
3.331680
  0
VERTEX
  8
0
  6
CONTINUOUS
 10
1.829520
 20
4.167240
  0
VERTEX
  8
0
  6
CONTINUOUS
 10
1.833040
 20
4.168120
  0
SEQEND
  8
0
  0
ENDSEC
  0
EOF
