  0
SECTION
  2
HEADER
  9
$ACADVER
  1
AC1006
  9
$EXTMIN
 10
2.136200
 20
0.572440
  9
$EXTMAX
 10
7.137680
 20
4.068240
  9
$LTSCALE
 40
0.044000
  9
$PDMODE
 70
    35
  9
$PDSIZE
 40
0.035200
  0
ENDSEC
  0
SECTION
  2
TABLES
  0
TABLE
  2
LTYPE
 70
     9
  0
LTYPE
  2
CONTINUOUS
 70
    64
  3
Solid line
 72
    65
 73
     0
 40
0.000000
  0
LTYPE
  2
DASHED
 70
    64
  3
__ __ __ __ __ __ __ __ __ __ __ __ __ __ __
 72
    65
 73
     2
 40
0.000330
 49
0.000220
 49
-0.000110
  0
LTYPE
  2
HIDDEN
 70
    64
  3
 _ _ _ _ _ _ _ _ _ _ _ _ _ _ _ _ _ _ _ _ _ _
 72
    65
 73
     2
 40
0.000165
 49
0.000110
 49
-0.000055
  0
LTYPE
  2
CENTER
 70
    64
  3
____ _ ____ _ ____ _ ____ _ ____ _ ____ _ ____
 72
    65
 73
     4
 40
0.000880
 49
0.000550
 49
-0.000110
 49
0.000110
 49
-0.000110
  0
LTYPE
  2
PHANTOM
 70
    64
  3
_____ _ _ _____ _ _ _____ _ _ _____ _ _ ____
 72
    65
 73
     6
 40
0.001100
 49
0.000550
 49
-0.000110
 49
0.000110
 49
-0.000110
 49
0.000110
 49
-0.000110
  0
LTYPE
  2
DOT
 70
    64
  3
...............................................
 72
    65
 73
     2
 40
0.000110
 49
0.000000
 49
-0.000110
  0
LTYPE
  2
DASHDOT
 70
    64
  3
__ . __ . __ . __ . __ . __ . __ . __ . __ . __
 72
    65
 73
     4
 40
0.000440
 49
0.000220
 49
-0.000110
 49
0.000000
 49
-0.000110
  0
LTYPE
  2
BORDER
 70
    64
  3
__ __ . __ __ . __ __ . __ __ . __ __ . __ __
 72
    65
 73
     6
 40
0.000770
 49
0.000220
 49
-0.000110
 49
0.000220
 49
-0.000110
 49
0.000000
 49
-0.000110
  0
LTYPE
  2
DIVIDE
 70
    64
  3
__ . . __ . . __ . . __ . . __ . . __ . . __
 72
    65
 73
     6
 40
0.000550
 49
0.000220
 49
-0.000110
 49
0.000000
 49
-0.000110
 49
0.000000
 49
-0.000110
  0
LTYPE
  2
DOTDOT
 70
    64
  3
 . .  . .  . .  . .  . .  . . 
 72
    65
 73
     5
 40
0.000242
 49
-0.000110
 49
0.000000
 49
-0.000110
 49
0.000000
 49
-0.000110
  0
ENDTAB
  0
TABLE
  2
STYLE
 70
     2
  0
STYLE
 70
     0
  2
SN0
 40
0.000000
 41
0.000440
 50
0.000000
 71
     0
 42
0.000000
  3
ROMAND
  0
STYLE
 70
    68
  2
SV0
 40
0.000000
 41
0.000440
 50
0.000000
 71
     0
 42
0.000000
  3
ROMAND
  0
ENDTAB
  0
TABLE
  2
LAYER
 70
     3
  0
LAYER
  2
FOREGROUND
 70
    64
 62
     7
  6
CONTINUOUS
  0
LAYER
  2
BACKGROUND
 70
    65
 62
    -7
  6
CONTINUOUS
  0
LAYER
  2
0
 70
    64
 62
     7
  6
CONTINUOUS
  0
ENDTAB
  0
ENDSEC
  0
SECTION
  2
ENTITIES
  0
POLYLINE
  8
FOREGROUND
  6
CONTINUOUS
 66
     1
 40
0.000000
 41
0.000000
  0
VERTEX
  8
FOREGROUND
  6
CONTINUOUS
 10
0.000000
 20
4.640680
  0
VERTEX
  8
FOREGROUND
  6
CONTINUOUS
 10
8.499920
 20
4.640680
  0
VERTEX
  8
FOREGROUND
  6
CONTINUOUS
 10
8.499920
 20
-6.359320
  0
VERTEX
  8
FOREGROUND
  6
CONTINUOUS
 10
0.000000
 20
-6.359320
  0
VERTEX
  8
FOREGROUND
  6
CONTINUOUS
 10
0.000000
 20
4.640680
  0
SEQEND
  8
0
  0
POLYLINE
  8
FOREGROUND
  6
CONTINUOUS
 66
     1
 40
0.000000
 41
0.000000
  0
VERTEX
  8
FOREGROUND
  6
CONTINUOUS
 10
0.000000
 20
4.640680
  0
VERTEX
  8
FOREGROUND
  6
CONTINUOUS
 10
8.499920
 20
4.640680
  0
VERTEX
  8
FOREGROUND
  6
CONTINUOUS
 10
8.499920
 20
-6.359320
  0
VERTEX
  8
FOREGROUND
  6
CONTINUOUS
 10
0.000000
 20
-6.359320
  0
VERTEX
  8
FOREGROUND
  6
CONTINUOUS
 10
0.000000
 20
4.640680
  0
SEQEND
  8
0
  0
TEXT
  8
0
 10
4.355560
 20
0.808280
 40
0.138233
  1
BA  873
 41
1.000000
  7
SN0
 71
     0
 72
     5
 11
4.946235
 21
0.808280
  0
TEXT
  8
0
 10
4.250400
 20
0.616880
 40
0.138233
  1
13/16" x 5"
 41
1.000000
  7
SN0
 71
     0
 72
     5
 11
5.050637
 21
0.616880
  0
SOLID
  8
0
 62
    15
 10
7.116120
 20
1.867800
 11
7.111280
 21
2.608760
 12
7.126240
 22
1.848440
 13
7.121840
 23
2.588960
  0
POLYLINE
  8
0
  6
CONTINUOUS
 66
     1
 40
0.000000
 41
0.000000
  0
VERTEX
  8
0
  6
CONTINUOUS
 10
7.116120
 20
1.867800
  0
VERTEX
  8
0
  6
CONTINUOUS
 10
7.111280
 20
2.608760
  0
VERTEX
  8
0
  6
CONTINUOUS
 10
7.121840
 20
2.588960
  0
VERTEX
  8
0
  6
CONTINUOUS
 10
7.126240
 20
1.848440
  0
VERTEX
  8
0
  6
CONTINUOUS
 10
7.116120
 20
1.867800
  0
SEQEND
  8
0
  0
SOLID
  8
0
 62
    15
 10
4.583040
 20
1.908720
 11
4.578200
 21
2.649680
 12
4.701840
 22
1.898160
 13
4.697000
 23
2.639120
  0
POLYLINE
  8
0
  6
CONTINUOUS
 66
     1
 40
0.000000
 41
0.000000
  0
VERTEX
  8
0
  6
CONTINUOUS
 10
4.583040
 20
1.908720
  0
VERTEX
  8
0
  6
CONTINUOUS
 10
4.578200
 20
2.649680
  0
VERTEX
  8
0
  6
CONTINUOUS
 10
4.697000
 20
2.639120
  0
VERTEX
  8
0
  6
CONTINUOUS
 10
4.701840
 20
1.898160
  0
VERTEX
  8
0
  6
CONTINUOUS
 10
4.583040
 20
1.908720
  0
SEQEND
  8
0
  0
SOLID
  8
0
 62
    15
 10
4.701840
 20
1.898160
 11
4.697000
 21
2.639120
 12
4.827680
 22
1.879240
 13
4.822840
 23
2.619760
  0
POLYLINE
  8
0
  6
CONTINUOUS
 66
     1
 40
0.000000
 41
0.000000
  0
VERTEX
  8
0
  6
CONTINUOUS
 10
4.701840
 20
1.898160
  0
VERTEX
  8
0
  6
CONTINUOUS
 10
4.697000
 20
2.639120
  0
VERTEX
  8
0
  6
CONTINUOUS
 10
4.822840
 20
2.619760
  0
VERTEX
  8
0
  6
CONTINUOUS
 10
4.827680
 20
1.879240
  0
VERTEX
  8
0
  6
CONTINUOUS
 10
4.701840
 20
1.898160
  0
SEQEND
  8
0
  0
SOLID
  8
0
 62
    15
 10
4.827680
 20
1.879240
 11
4.822840
 21
2.619760
 12
4.959680
 22
1.850640
 13
4.954840
 23
2.591600
  0
POLYLINE
  8
0
  6
CONTINUOUS
 66
     1
 40
0.000000
 41
0.000000
  0
VERTEX
  8
0
  6
CONTINUOUS
 10
4.827680
 20
1.879240
  0
VERTEX
  8
0
  6
CONTINUOUS
 10
4.822840
 20
2.619760
  0
VERTEX
  8
0
  6
CONTINUOUS
 10
4.954840
 20
2.591600
  0
VERTEX
  8
0
  6
CONTINUOUS
 10
4.959680
 20
1.850640
  0
VERTEX
  8
0
  6
CONTINUOUS
 10
4.827680
 20
1.879240
  0
SEQEND
  8
0
  0
SOLID
  8
0
 62
    15
 10
4.959680
 20
1.850640
 11
4.954840
 21
2.591600
 12
5.096960
 22
1.811480
 13
5.092120
 23
2.552440
  0
POLYLINE
  8
0
  6
CONTINUOUS
 66
     1
 40
0.000000
 41
0.000000
  0
VERTEX
  8
0
  6
CONTINUOUS
 10
4.959680
 20
1.850640
  0
VERTEX
  8
0
  6
CONTINUOUS
 10
4.954840
 20
2.591600
  0
VERTEX
  8
0
  6
CONTINUOUS
 10
5.092120
 20
2.552440
  0
VERTEX
  8
0
  6
CONTINUOUS
 10
5.096960
 20
1.811480
  0
VERTEX
  8
0
  6
CONTINUOUS
 10
4.959680
 20
1.850640
  0
SEQEND
  8
0
  0
SOLID
  8
0
 62
    15
 10
5.096960
 20
1.811480
 11
5.092120
 21
2.552440
 12
5.237760
 22
1.760880
 13
5.233360
 23
2.501840
  0
POLYLINE
  8
0
  6
CONTINUOUS
 66
     1
 40
0.000000
 41
0.000000
  0
VERTEX
  8
0
  6
CONTINUOUS
 10
5.096960
 20
1.811480
  0
VERTEX
  8
0
  6
CONTINUOUS
 10
5.092120
 20
2.552440
  0
VERTEX
  8
0
  6
CONTINUOUS
 10
5.233360
 20
2.501840
  0
VERTEX
  8
0
  6
CONTINUOUS
 10
5.237760
 20
1.760880
  0
VERTEX
  8
0
  6
CONTINUOUS
 10
5.096960
 20
1.811480
  0
SEQEND
  8
0
  0
SOLID
  8
0
 62
    15
 10
5.237760
 20
1.760880
 11
5.233360
 21
2.501840
 12
5.382080
 22
1.697080
 13
5.377240
 23
2.438040
  0
POLYLINE
  8
0
  6
CONTINUOUS
 66
     1
 40
0.000000
 41
0.000000
  0
VERTEX
  8
0
  6
CONTINUOUS
 10
5.237760
 20
1.760880
  0
VERTEX
  8
0
  6
CONTINUOUS
 10
5.233360
 20
2.501840
  0
VERTEX
  8
0
  6
CONTINUOUS
 10
5.377240
 20
2.438040
  0
VERTEX
  8
0
  6
CONTINUOUS
 10
5.382080
 20
1.697080
  0
VERTEX
  8
0
  6
CONTINUOUS
 10
5.237760
 20
1.760880
  0
SEQEND
  8
0
  0
SOLID
  8
0
 62
    15
 10
5.382080
 20
1.697080
 11
5.377240
 21
2.438040
 12
5.528160
 22
1.619640
 13
5.523760
 23
2.360600
  0
POLYLINE
  8
0
  6
CONTINUOUS
 66
     1
 40
0.000000
 41
0.000000
  0
VERTEX
  8
0
  6
CONTINUOUS
 10
5.382080
 20
1.697080
  0
VERTEX
  8
0
  6
CONTINUOUS
 10
5.377240
 20
2.438040
  0
VERTEX
  8
0
  6
CONTINUOUS
 10
5.523760
 20
2.360600
  0
VERTEX
  8
0
  6
CONTINUOUS
 10
5.528160
 20
1.619640
  0
VERTEX
  8
0
  6
CONTINUOUS
 10
5.382080
 20
1.697080
  0
SEQEND
  8
0
  0
SOLID
  8
0
 62
    15
 10
5.528160
 20
1.619640
 11
5.523760
 21
2.360600
 12
5.846280
 22
1.619640
 13
5.841440
 23
2.360600
  0
POLYLINE
  8
0
  6
CONTINUOUS
 66
     1
 40
0.000000
 41
0.000000
  0
VERTEX
  8
0
  6
CONTINUOUS
 10
5.528160
 20
1.619640
  0
VERTEX
  8
0
  6
CONTINUOUS
 10
5.523760
 20
2.360600
  0
VERTEX
  8
0
  6
CONTINUOUS
 10
5.841440
 20
2.360600
  0
VERTEX
  8
0
  6
CONTINUOUS
 10
5.846280
 20
1.619640
  0
VERTEX
  8
0
  6
CONTINUOUS
 10
5.528160
 20
1.619640
  0
SEQEND
  8
0
  0
SOLID
  8
0
 62
    15
 10
5.846280
 20
1.619640
 11
5.841440
 21
2.360600
 12
5.846280
 22
1.927200
 13
5.841440
 23
2.668160
  0
POLYLINE
  8
0
  6
CONTINUOUS
 66
     1
 40
0.000000
 41
0.000000
  0
VERTEX
  8
0
  6
CONTINUOUS
 10
5.846280
 20
1.619640
  0
VERTEX
  8
0
  6
CONTINUOUS
 10
5.841440
 20
2.360600
  0
VERTEX
  8
0
  6
CONTINUOUS
 10
5.841440
 20
2.668160
  0
VERTEX
  8
0
  6
CONTINUOUS
 10
5.846280
 20
1.927200
  0
VERTEX
  8
0
  6
CONTINUOUS
 10
5.846280
 20
1.619640
  0
SEQEND
  8
0
  0
SOLID
  8
0
 62
    15
 10
6.915040
 20
1.837880
 11
6.910200
 21
2.578840
 12
6.919880
 22
1.852840
 13
6.915040
 23
2.593800
  0
POLYLINE
  8
0
  6
CONTINUOUS
 66
     1
 40
0.000000
 41
0.000000
  0
VERTEX
  8
0
  6
CONTINUOUS
 10
6.915040
 20
1.837880
  0
VERTEX
  8
0
  6
CONTINUOUS
 10
6.910200
 20
2.578840
  0
VERTEX
  8
0
  6
CONTINUOUS
 10
6.915040
 20
2.593800
  0
VERTEX
  8
0
  6
CONTINUOUS
 10
6.919880
 20
1.852840
  0
VERTEX
  8
0
  6
CONTINUOUS
 10
6.915040
 20
1.837880
  0
SEQEND
  8
0
  0
SOLID
  8
0
 62
    15
 10
6.880280
 20
1.927200
 11
6.875440
 21
2.668160
 12
6.915040
 22
1.837880
 13
6.910200
 23
2.578840
  0
POLYLINE
  8
0
  6
CONTINUOUS
 66
     1
 40
0.000000
 41
0.000000
  0
VERTEX
  8
0
  6
CONTINUOUS
 10
6.880280
 20
1.927200
  0
VERTEX
  8
0
  6
CONTINUOUS
 10
6.875440
 20
2.668160
  0
VERTEX
  8
0
  6
CONTINUOUS
 10
6.910200
 20
2.578840
  0
VERTEX
  8
0
  6
CONTINUOUS
 10
6.915040
 20
1.837880
  0
VERTEX
  8
0
  6
CONTINUOUS
 10
6.880280
 20
1.927200
  0
SEQEND
  8
0
  0
SOLID
  8
0
 62
    15
 10
5.846280
 20
1.927200
 11
5.841440
 21
2.668160
 12
6.880280
 22
1.927200
 13
6.875440
 23
2.668160
  0
POLYLINE
  8
0
  6
CONTINUOUS
 66
     1
 40
0.000000
 41
0.000000
  0
VERTEX
  8
0
  6
CONTINUOUS
 10
5.846280
 20
1.927200
  0
VERTEX
  8
0
  6
CONTINUOUS
 10
5.841440
 20
2.668160
  0
VERTEX
  8
0
  6
CONTINUOUS
 10
6.875440
 20
2.668160
  0
VERTEX
  8
0
  6
CONTINUOUS
 10
6.880280
 20
1.927200
  0
VERTEX
  8
0
  6
CONTINUOUS
 10
5.846280
 20
1.927200
  0
SEQEND
  8
0
  0
SOLID
  8
0
 62
    15
 10
6.919880
 20
1.852840
 11
6.915040
 21
2.593800
 12
6.928680
 22
1.866920
 13
6.923840
 23
2.607880
  0
POLYLINE
  8
0
  6
CONTINUOUS
 66
     1
 40
0.000000
 41
0.000000
  0
VERTEX
  8
0
  6
CONTINUOUS
 10
6.919880
 20
1.852840
  0
VERTEX
  8
0
  6
CONTINUOUS
 10
6.915040
 20
2.593800
  0
VERTEX
  8
0
  6
CONTINUOUS
 10
6.923840
 20
2.607880
  0
VERTEX
  8
0
  6
CONTINUOUS
 10
6.928680
 20
1.866920
  0
VERTEX
  8
0
  6
CONTINUOUS
 10
6.919880
 20
1.852840
  0
SEQEND
  8
0
  0
SOLID
  8
0
 62
    15
 10
6.928680
 20
1.866920
 11
6.923840
 21
2.607880
 12
6.955520
 22
1.889800
 13
6.950680
 23
2.630760
  0
POLYLINE
  8
0
  6
CONTINUOUS
 66
     1
 40
0.000000
 41
0.000000
  0
VERTEX
  8
0
  6
CONTINUOUS
 10
6.928680
 20
1.866920
  0
VERTEX
  8
0
  6
CONTINUOUS
 10
6.923840
 20
2.607880
  0
VERTEX
  8
0
  6
CONTINUOUS
 10
6.950680
 20
2.630760
  0
VERTEX
  8
0
  6
CONTINUOUS
 10
6.955520
 20
1.889800
  0
VERTEX
  8
0
  6
CONTINUOUS
 10
6.928680
 20
1.866920
  0
SEQEND
  8
0
  0
SOLID
  8
0
 62
    15
 10
6.955520
 20
1.889800
 11
6.950680
 21
2.630760
 12
6.991160
 22
1.904760
 13
6.986320
 23
2.645720
  0
POLYLINE
  8
0
  6
CONTINUOUS
 66
     1
 40
0.000000
 41
0.000000
  0
VERTEX
  8
0
  6
CONTINUOUS
 10
6.955520
 20
1.889800
  0
VERTEX
  8
0
  6
CONTINUOUS
 10
6.950680
 20
2.630760
  0
VERTEX
  8
0
  6
CONTINUOUS
 10
6.986320
 20
2.645720
  0
VERTEX
  8
0
  6
CONTINUOUS
 10
6.991160
 20
1.904760
  0
VERTEX
  8
0
  6
CONTINUOUS
 10
6.955520
 20
1.889800
  0
SEQEND
  8
0
  0
SOLID
  8
0
 62
    15
 10
6.991160
 20
1.904760
 11
6.986320
 21
2.645720
 12
7.030760
 22
1.910040
 13
7.025920
 23
2.651000
  0
POLYLINE
  8
0
  6
CONTINUOUS
 66
     1
 40
0.000000
 41
0.000000
  0
VERTEX
  8
0
  6
CONTINUOUS
 10
6.991160
 20
1.904760
  0
VERTEX
  8
0
  6
CONTINUOUS
 10
6.986320
 20
2.645720
  0
VERTEX
  8
0
  6
CONTINUOUS
 10
7.025920
 20
2.651000
  0
VERTEX
  8
0
  6
CONTINUOUS
 10
7.030760
 20
1.910040
  0
VERTEX
  8
0
  6
CONTINUOUS
 10
6.991160
 20
1.904760
  0
SEQEND
  8
0
  0
SOLID
  8
0
 62
    15
 10
7.030760
 20
1.910040
 11
7.025920
 21
2.651000
 12
7.069480
 22
1.903440
 13
7.064640
 23
2.644400
  0
POLYLINE
  8
0
  6
CONTINUOUS
 66
     1
 40
0.000000
 41
0.000000
  0
VERTEX
  8
0
  6
CONTINUOUS
 10
7.030760
 20
1.910040
  0
VERTEX
  8
0
  6
CONTINUOUS
 10
7.025920
 20
2.651000
  0
VERTEX
  8
0
  6
CONTINUOUS
 10
7.064640
 20
2.644400
  0
VERTEX
  8
0
  6
CONTINUOUS
 10
7.069480
 20
1.903440
  0
VERTEX
  8
0
  6
CONTINUOUS
 10
7.030760
 20
1.910040
  0
SEQEND
  8
0
  0
SOLID
  8
0
 62
    15
 10
7.069480
 20
1.903440
 11
7.064640
 21
2.644400
 12
7.087080
 22
1.895520
 13
7.082240
 23
2.636480
  0
POLYLINE
  8
0
  6
CONTINUOUS
 66
     1
 40
0.000000
 41
0.000000
  0
VERTEX
  8
0
  6
CONTINUOUS
 10
7.069480
 20
1.903440
  0
VERTEX
  8
0
  6
CONTINUOUS
 10
7.064640
 20
2.644400
  0
VERTEX
  8
0
  6
CONTINUOUS
 10
7.082240
 20
2.636480
  0
VERTEX
  8
0
  6
CONTINUOUS
 10
7.087080
 20
1.895520
  0
VERTEX
  8
0
  6
CONTINUOUS
 10
7.069480
 20
1.903440
  0
SEQEND
  8
0
  0
SOLID
  8
0
 62
    15
 10
7.087080
 20
1.895520
 11
7.082240
 21
2.636480
 12
7.102920
 22
1.883640
 13
7.098080
 23
2.624600
  0
POLYLINE
  8
0
  6
CONTINUOUS
 66
     1
 40
0.000000
 41
0.000000
  0
VERTEX
  8
0
  6
CONTINUOUS
 10
7.087080
 20
1.895520
  0
VERTEX
  8
0
  6
CONTINUOUS
 10
7.082240
 20
2.636480
  0
VERTEX
  8
0
  6
CONTINUOUS
 10
7.098080
 20
2.624600
  0
VERTEX
  8
0
  6
CONTINUOUS
 10
7.102920
 20
1.883640
  0
VERTEX
  8
0
  6
CONTINUOUS
 10
7.087080
 20
1.895520
  0
SEQEND
  8
0
  0
SOLID
  8
0
 62
    15
 10
7.102920
 20
1.883640
 11
7.098080
 21
2.624600
 12
7.116120
 22
1.867800
 13
7.111280
 23
2.608760
  0
POLYLINE
  8
0
  6
CONTINUOUS
 66
     1
 40
0.000000
 41
0.000000
  0
VERTEX
  8
0
  6
CONTINUOUS
 10
7.102920
 20
1.883640
  0
VERTEX
  8
0
  6
CONTINUOUS
 10
7.098080
 20
2.624600
  0
VERTEX
  8
0
  6
CONTINUOUS
 10
7.111280
 20
2.608760
  0
VERTEX
  8
0
  6
CONTINUOUS
 10
7.116120
 20
1.867800
  0
VERTEX
  8
0
  6
CONTINUOUS
 10
7.102920
 20
1.883640
  0
SEQEND
  8
0
  0
SOLID
  8
0
 62
    15
 10
4.472160
 20
1.911800
 11
4.467320
 21
2.652760
 12
4.583040
 22
1.908720
 13
4.578200
 23
2.649680
  0
POLYLINE
  8
0
  6
CONTINUOUS
 66
     1
 40
0.000000
 41
0.000000
  0
VERTEX
  8
0
  6
CONTINUOUS
 10
4.472160
 20
1.911800
  0
VERTEX
  8
0
  6
CONTINUOUS
 10
4.467320
 20
2.652760
  0
VERTEX
  8
0
  6
CONTINUOUS
 10
4.578200
 20
2.649680
  0
VERTEX
  8
0
  6
CONTINUOUS
 10
4.583040
 20
1.908720
  0
VERTEX
  8
0
  6
CONTINUOUS
 10
4.472160
 20
1.911800
  0
SEQEND
  8
0
  0
SOLID
  8
0
 62
    15
 10
7.126240
 20
1.848440
 11
7.121840
 21
2.588960
 12
7.132840
 22
1.824240
 13
7.128000
 23
2.565200
  0
POLYLINE
  8
0
  6
CONTINUOUS
 66
     1
 40
0.000000
 41
0.000000
  0
VERTEX
  8
0
  6
CONTINUOUS
 10
7.126240
 20
1.848440
  0
VERTEX
  8
0
  6
CONTINUOUS
 10
7.121840
 20
2.588960
  0
VERTEX
  8
0
  6
CONTINUOUS
 10
7.128000
 20
2.565200
  0
VERTEX
  8
0
  6
CONTINUOUS
 10
7.132840
 20
1.824240
  0
VERTEX
  8
0
  6
CONTINUOUS
 10
7.126240
 20
1.848440
  0
SEQEND
  8
0
  0
SOLID
  8
0
 62
    15
 10
7.132840
 20
1.824240
 11
7.128000
 21
2.565200
 12
7.135480
 22
1.795640
 13
7.130640
 23
2.536600
  0
POLYLINE
  8
0
  6
CONTINUOUS
 66
     1
 40
0.000000
 41
0.000000
  0
VERTEX
  8
0
  6
CONTINUOUS
 10
7.132840
 20
1.824240
  0
VERTEX
  8
0
  6
CONTINUOUS
 10
7.128000
 20
2.565200
  0
VERTEX
  8
0
  6
CONTINUOUS
 10
7.130640
 20
2.536600
  0
VERTEX
  8
0
  6
CONTINUOUS
 10
7.135480
 20
1.795640
  0
VERTEX
  8
0
  6
CONTINUOUS
 10
7.132840
 20
1.824240
  0
SEQEND
  8
0
  0
SOLID
  8
0
 62
    15
 10
2.169200
 20
1.095600
 11
2.164800
 21
1.836560
 12
2.169200
 22
1.924560
 13
2.164800
 23
2.665520
  0
POLYLINE
  8
0
  6
CONTINUOUS
 66
     1
 40
0.000000
 41
0.000000
  0
VERTEX
  8
0
  6
CONTINUOUS
 10
2.169200
 20
1.095600
  0
VERTEX
  8
0
  6
CONTINUOUS
 10
2.164800
 20
1.836560
  0
VERTEX
  8
0
  6
CONTINUOUS
 10
2.164800
 20
2.665520
  0
VERTEX
  8
0
  6
CONTINUOUS
 10
2.169200
 20
1.924560
  0
VERTEX
  8
0
  6
CONTINUOUS
 10
2.169200
 20
1.095600
  0
SEQEND
  8
0
  0
SOLID
  8
0
 62
    15
 10
2.169200
 20
1.924560
 11
2.164800
 21
2.665520
 12
2.201320
 22
1.924560
 13
2.196480
 23
2.665520
  0
POLYLINE
  8
0
  6
CONTINUOUS
 66
     1
 40
0.000000
 41
0.000000
  0
VERTEX
  8
0
  6
CONTINUOUS
 10
2.169200
 20
1.924560
  0
VERTEX
  8
0
  6
CONTINUOUS
 10
2.164800
 20
2.665520
  0
VERTEX
  8
0
  6
CONTINUOUS
 10
2.196480
 20
2.665520
  0
VERTEX
  8
0
  6
CONTINUOUS
 10
2.201320
 20
1.924560
  0
VERTEX
  8
0
  6
CONTINUOUS
 10
2.169200
 20
1.924560
  0
SEQEND
  8
0
  0
SOLID
  8
0
 62
    15
 10
3.084400
 20
1.618320
 11
3.080000
 21
2.359280
 12
3.402520
 22
1.618320
 13
3.397680
 23
2.359280
  0
POLYLINE
  8
0
  6
CONTINUOUS
 66
     1
 40
0.000000
 41
0.000000
  0
VERTEX
  8
0
  6
CONTINUOUS
 10
3.084400
 20
1.618320
  0
VERTEX
  8
0
  6
CONTINUOUS
 10
3.080000
 20
2.359280
  0
VERTEX
  8
0
  6
CONTINUOUS
 10
3.397680
 20
2.359280
  0
VERTEX
  8
0
  6
CONTINUOUS
 10
3.402520
 20
1.618320
  0
VERTEX
  8
0
  6
CONTINUOUS
 10
3.084400
 20
1.618320
  0
SEQEND
  8
0
  0
SOLID
  8
0
 62
    15
 10
2.183720
 20
1.925880
 11
2.178880
 21
2.666840
 12
3.084400
 22
1.925880
 13
3.080000
 23
2.666840
  0
POLYLINE
  8
0
  6
CONTINUOUS
 66
     1
 40
0.000000
 41
0.000000
  0
VERTEX
  8
0
  6
CONTINUOUS
 10
2.183720
 20
1.925880
  0
VERTEX
  8
0
  6
CONTINUOUS
 10
2.178880
 20
2.666840
  0
VERTEX
  8
0
  6
CONTINUOUS
 10
3.080000
 20
2.666840
  0
VERTEX
  8
0
  6
CONTINUOUS
 10
3.084400
 20
1.925880
  0
VERTEX
  8
0
  6
CONTINUOUS
 10
2.183720
 20
1.925880
  0
SEQEND
  8
0
  0
SOLID
  8
0
 62
    15
 10
3.402520
 20
1.618320
 11
3.397680
 21
2.359280
 12
3.477760
 22
1.658800
 13
3.472920
 23
2.399760
  0
POLYLINE
  8
0
  6
CONTINUOUS
 66
     1
 40
0.000000
 41
0.000000
  0
VERTEX
  8
0
  6
CONTINUOUS
 10
3.402520
 20
1.618320
  0
VERTEX
  8
0
  6
CONTINUOUS
 10
3.397680
 20
2.359280
  0
VERTEX
  8
0
  6
CONTINUOUS
 10
3.472920
 20
2.399760
  0
VERTEX
  8
0
  6
CONTINUOUS
 10
3.477760
 20
1.658800
  0
VERTEX
  8
0
  6
CONTINUOUS
 10
3.402520
 20
1.618320
  0
SEQEND
  8
0
  0
SOLID
  8
0
 62
    15
 10
3.477760
 20
1.658800
 11
3.472920
 21
2.399760
 12
3.555200
 22
1.695760
 13
3.550360
 23
2.436720
  0
POLYLINE
  8
0
  6
CONTINUOUS
 66
     1
 40
0.000000
 41
0.000000
  0
VERTEX
  8
0
  6
CONTINUOUS
 10
3.477760
 20
1.658800
  0
VERTEX
  8
0
  6
CONTINUOUS
 10
3.472920
 20
2.399760
  0
VERTEX
  8
0
  6
CONTINUOUS
 10
3.550360
 20
2.436720
  0
VERTEX
  8
0
  6
CONTINUOUS
 10
3.555200
 20
1.695760
  0
VERTEX
  8
0
  6
CONTINUOUS
 10
3.477760
 20
1.658800
  0
SEQEND
  8
0
  0
SOLID
  8
0
 62
    15
 10
3.555200
 20
1.695760
 11
3.550360
 21
2.436720
 12
3.715360
 22
1.759560
 13
3.710520
 23
2.500520
  0
POLYLINE
  8
0
  6
CONTINUOUS
 66
     1
 40
0.000000
 41
0.000000
  0
VERTEX
  8
0
  6
CONTINUOUS
 10
3.555200
 20
1.695760
  0
VERTEX
  8
0
  6
CONTINUOUS
 10
3.550360
 20
2.436720
  0
VERTEX
  8
0
  6
CONTINUOUS
 10
3.710520
 20
2.500520
  0
VERTEX
  8
0
  6
CONTINUOUS
 10
3.715360
 20
1.759560
  0
VERTEX
  8
0
  6
CONTINUOUS
 10
3.555200
 20
1.695760
  0
SEQEND
  8
0
  0
SOLID
  8
0
 62
    15
 10
3.715360
 20
1.759560
 11
3.710520
 21
2.500520
 12
3.876400
 22
1.810600
 13
3.871560
 23
2.551560
  0
POLYLINE
  8
0
  6
CONTINUOUS
 66
     1
 40
0.000000
 41
0.000000
  0
VERTEX
  8
0
  6
CONTINUOUS
 10
3.715360
 20
1.759560
  0
VERTEX
  8
0
  6
CONTINUOUS
 10
3.710520
 20
2.500520
  0
VERTEX
  8
0
  6
CONTINUOUS
 10
3.871560
 20
2.551560
  0
VERTEX
  8
0
  6
CONTINUOUS
 10
3.876400
 20
1.810600
  0
VERTEX
  8
0
  6
CONTINUOUS
 10
3.715360
 20
1.759560
  0
SEQEND
  8
0
  0
SOLID
  8
0
 62
    15
 10
3.876400
 20
1.810600
 11
3.871560
 21
2.551560
 12
4.031720
 22
1.849760
 13
4.026880
 23
2.590720
  0
POLYLINE
  8
0
  6
CONTINUOUS
 66
     1
 40
0.000000
 41
0.000000
  0
VERTEX
  8
0
  6
CONTINUOUS
 10
3.876400
 20
1.810600
  0
VERTEX
  8
0
  6
CONTINUOUS
 10
3.871560
 20
2.551560
  0
VERTEX
  8
0
  6
CONTINUOUS
 10
4.026880
 20
2.590720
  0
VERTEX
  8
0
  6
CONTINUOUS
 10
4.031720
 20
1.849760
  0
VERTEX
  8
0
  6
CONTINUOUS
 10
3.876400
 20
1.810600
  0
SEQEND
  8
0
  0
SOLID
  8
0
 62
    15
 10
4.031720
 20
1.849760
 11
4.026880
 21
2.590720
 12
4.105200
 22
1.865600
 13
4.100360
 23
2.606560
  0
POLYLINE
  8
0
  6
CONTINUOUS
 66
     1
 40
0.000000
 41
0.000000
  0
VERTEX
  8
0
  6
CONTINUOUS
 10
4.031720
 20
1.849760
  0
VERTEX
  8
0
  6
CONTINUOUS
 10
4.026880
 20
2.590720
  0
VERTEX
  8
0
  6
CONTINUOUS
 10
4.100360
 20
2.606560
  0
VERTEX
  8
0
  6
CONTINUOUS
 10
4.105200
 20
1.865600
  0
VERTEX
  8
0
  6
CONTINUOUS
 10
4.031720
 20
1.849760
  0
SEQEND
  8
0
  0
SOLID
  8
0
 62
    15
 10
4.105200
 20
1.865600
 11
4.100360
 21
2.606560
 12
4.175160
 22
1.878800
 13
4.170320
 23
2.619760
  0
POLYLINE
  8
0
  6
CONTINUOUS
 66
     1
 40
0.000000
 41
0.000000
  0
VERTEX
  8
0
  6
CONTINUOUS
 10
4.105200
 20
1.865600
  0
VERTEX
  8
0
  6
CONTINUOUS
 10
4.100360
 20
2.606560
  0
VERTEX
  8
0
  6
CONTINUOUS
 10
4.170320
 20
2.619760
  0
VERTEX
  8
0
  6
CONTINUOUS
 10
4.175160
 20
1.878800
  0
VERTEX
  8
0
  6
CONTINUOUS
 10
4.105200
 20
1.865600
  0
SEQEND
  8
0
  0
SOLID
  8
0
 62
    15
 10
4.175160
 20
1.878800
 11
4.170320
 21
2.619760
 12
4.239840
 22
1.889360
 13
4.235440
 23
2.630320
  0
POLYLINE
  8
0
  6
CONTINUOUS
 66
     1
 40
0.000000
 41
0.000000
  0
VERTEX
  8
0
  6
CONTINUOUS
 10
4.175160
 20
1.878800
  0
VERTEX
  8
0
  6
CONTINUOUS
 10
4.170320
 20
2.619760
  0
VERTEX
  8
0
  6
CONTINUOUS
 10
4.235440
 20
2.630320
  0
VERTEX
  8
0
  6
CONTINUOUS
 10
4.239840
 20
1.889360
  0
VERTEX
  8
0
  6
CONTINUOUS
 10
4.175160
 20
1.878800
  0
SEQEND
  8
0
  0
SOLID
  8
0
 62
    15
 10
4.239840
 20
1.889360
 11
4.235440
 21
2.630320
 12
4.299680
 22
1.897720
 13
4.294840
 23
2.638680
  0
POLYLINE
  8
0
  6
CONTINUOUS
 66
     1
 40
0.000000
 41
0.000000
  0
VERTEX
  8
0
  6
CONTINUOUS
 10
4.239840
 20
1.889360
  0
VERTEX
  8
0
  6
CONTINUOUS
 10
4.235440
 20
2.630320
  0
VERTEX
  8
0
  6
CONTINUOUS
 10
4.294840
 20
2.638680
  0
VERTEX
  8
0
  6
CONTINUOUS
 10
4.299680
 20
1.897720
  0
VERTEX
  8
0
  6
CONTINUOUS
 10
4.239840
 20
1.889360
  0
SEQEND
  8
0
  0
SOLID
  8
0
 62
    15
 10
4.299680
 20
1.897720
 11
4.294840
 21
2.638680
 12
4.352920
 22
1.904320
 13
4.348080
 23
2.645280
  0
POLYLINE
  8
0
  6
CONTINUOUS
 66
     1
 40
0.000000
 41
0.000000
  0
VERTEX
  8
0
  6
CONTINUOUS
 10
4.299680
 20
1.897720
  0
VERTEX
  8
0
  6
CONTINUOUS
 10
4.294840
 20
2.638680
  0
VERTEX
  8
0
  6
CONTINUOUS
 10
4.348080
 20
2.645280
  0
VERTEX
  8
0
  6
CONTINUOUS
 10
4.352920
 20
1.904320
  0
VERTEX
  8
0
  6
CONTINUOUS
 10
4.299680
 20
1.897720
  0
SEQEND
  8
0
  0
SOLID
  8
0
 62
    15
 10
4.352920
 20
1.904320
 11
4.348080
 21
2.645280
 12
4.399120
 22
1.908720
 13
4.394280
 23
2.649680
  0
POLYLINE
  8
0
  6
CONTINUOUS
 66
     1
 40
0.000000
 41
0.000000
  0
VERTEX
  8
0
  6
CONTINUOUS
 10
4.352920
 20
1.904320
  0
VERTEX
  8
0
  6
CONTINUOUS
 10
4.348080
 20
2.645280
  0
VERTEX
  8
0
  6
CONTINUOUS
 10
4.394280
 20
2.649680
  0
VERTEX
  8
0
  6
CONTINUOUS
 10
4.399120
 20
1.908720
  0
VERTEX
  8
0
  6
CONTINUOUS
 10
4.352920
 20
1.904320
  0
SEQEND
  8
0
  0
SOLID
  8
0
 62
    15
 10
4.399120
 20
1.908720
 11
4.394280
 21
2.649680
 12
4.437400
 22
1.910920
 13
4.432560
 23
2.651880
  0
POLYLINE
  8
0
  6
CONTINUOUS
 66
     1
 40
0.000000
 41
0.000000
  0
VERTEX
  8
0
  6
CONTINUOUS
 10
4.399120
 20
1.908720
  0
VERTEX
  8
0
  6
CONTINUOUS
 10
4.394280
 20
2.649680
  0
VERTEX
  8
0
  6
CONTINUOUS
 10
4.432560
 20
2.651880
  0
VERTEX
  8
0
  6
CONTINUOUS
 10
4.437400
 20
1.910920
  0
VERTEX
  8
0
  6
CONTINUOUS
 10
4.399120
 20
1.908720
  0
SEQEND
  8
0
  0
SOLID
  8
0
 62
    15
 10
4.437400
 20
1.910920
 11
4.432560
 21
2.651880
 12
4.466880
 22
1.911800
 13
4.462480
 23
2.652760
  0
POLYLINE
  8
0
  6
CONTINUOUS
 66
     1
 40
0.000000
 41
0.000000
  0
VERTEX
  8
0
  6
CONTINUOUS
 10
4.437400
 20
1.910920
  0
VERTEX
  8
0
  6
CONTINUOUS
 10
4.432560
 20
2.651880
  0
VERTEX
  8
0
  6
CONTINUOUS
 10
4.462480
 20
2.652760
  0
VERTEX
  8
0
  6
CONTINUOUS
 10
4.466880
 20
1.911800
  0
VERTEX
  8
0
  6
CONTINUOUS
 10
4.437400
 20
1.910920
  0
SEQEND
  8
0
  0
SOLID
  8
0
 62
    15
 10
4.466880
 20
1.911800
 11
4.462480
 21
2.652760
 12
4.472160
 22
1.911800
 13
4.467320
 23
2.652760
  0
POLYLINE
  8
0
  6
CONTINUOUS
 66
     1
 40
0.000000
 41
0.000000
  0
VERTEX
  8
0
  6
CONTINUOUS
 10
4.466880
 20
1.911800
  0
VERTEX
  8
0
  6
CONTINUOUS
 10
4.462480
 20
2.652760
  0
VERTEX
  8
0
  6
CONTINUOUS
 10
4.467320
 20
2.652760
  0
VERTEX
  8
0
  6
CONTINUOUS
 10
4.472160
 20
1.911800
  0
VERTEX
  8
0
  6
CONTINUOUS
 10
4.466880
 20
1.911800
  0
SEQEND
  8
0
  0
POLYLINE
  8
0
  6
CONTINUOUS
 66
     1
 40
0.000000
 41
0.000000
  0
VERTEX
  8
0
  6
CONTINUOUS
 10
4.472160
 20
1.911800
  0
VERTEX
  8
0
  6
CONTINUOUS
 10
4.583040
 20
1.908720
  0
VERTEX
  8
0
  6
CONTINUOUS
 10
4.701840
 20
1.898160
  0
VERTEX
  8
0
  6
CONTINUOUS
 10
4.827680
 20
1.879240
  0
VERTEX
  8
0
  6
CONTINUOUS
 10
4.959680
 20
1.850640
  0
VERTEX
  8
0
  6
CONTINUOUS
 10
5.096960
 20
1.811480
  0
VERTEX
  8
0
  6
CONTINUOUS
 10
5.237760
 20
1.760880
  0
VERTEX
  8
0
  6
CONTINUOUS
 10
5.382080
 20
1.697080
  0
VERTEX
  8
0
  6
CONTINUOUS
 10
5.528160
 20
1.619640
  0
VERTEX
  8
0
  6
CONTINUOUS
 10
5.846280
 20
1.619640
  0
VERTEX
  8
0
  6
CONTINUOUS
 10
5.846280
 20
1.927200
  0
VERTEX
  8
0
  6
CONTINUOUS
 10
6.880280
 20
1.927200
  0
VERTEX
  8
0
  6
CONTINUOUS
 10
6.915040
 20
1.837880
  0
VERTEX
  8
0
  6
CONTINUOUS
 10
6.919880
 20
1.852840
  0
VERTEX
  8
0
  6
CONTINUOUS
 10
6.928680
 20
1.866920
  0
VERTEX
  8
0
  6
CONTINUOUS
 10
6.955520
 20
1.889800
  0
VERTEX
  8
0
  6
CONTINUOUS
 10
6.991160
 20
1.904760
  0
VERTEX
  8
0
  6
CONTINUOUS
 10
7.030760
 20
1.910040
  0
VERTEX
  8
0
  6
CONTINUOUS
 10
7.069480
 20
1.903440
  0
VERTEX
  8
0
  6
CONTINUOUS
 10
7.087080
 20
1.895520
  0
VERTEX
  8
0
  6
CONTINUOUS
 10
7.102920
 20
1.883640
  0
VERTEX
  8
0
  6
CONTINUOUS
 10
7.116120
 20
1.867800
  0
VERTEX
  8
0
  6
CONTINUOUS
 10
7.126240
 20
1.848440
  0
VERTEX
  8
0
  6
CONTINUOUS
 10
7.132840
 20
1.824240
  0
VERTEX
  8
0
  6
CONTINUOUS
 10
7.135480
 20
1.795640
  0
VERTEX
  8
0
  6
CONTINUOUS
 10
7.137680
 20
1.095600
  0
VERTEX
  8
0
  6
CONTINUOUS
 10
2.169200
 20
1.095600
  0
VERTEX
  8
0
  6
CONTINUOUS
 10
2.169200
 20
1.924560
  0
VERTEX
  8
0
  6
CONTINUOUS
 10
2.201320
 20
1.924560
  0
VERTEX
  8
0
  6
CONTINUOUS
 10
2.183720
 20
1.925880
  0
VERTEX
  8
0
  6
CONTINUOUS
 10
3.084400
 20
1.925880
  0
VERTEX
  8
0
  6
CONTINUOUS
 10
3.084400
 20
1.618320
  0
VERTEX
  8
0
  6
CONTINUOUS
 10
3.402520
 20
1.618320
  0
VERTEX
  8
0
  6
CONTINUOUS
 10
3.477760
 20
1.658800
  0
VERTEX
  8
0
  6
CONTINUOUS
 10
3.555200
 20
1.695760
  0
VERTEX
  8
0
  6
CONTINUOUS
 10
3.715360
 20
1.759560
  0
VERTEX
  8
0
  6
CONTINUOUS
 10
3.876400
 20
1.810600
  0
VERTEX
  8
0
  6
CONTINUOUS
 10
4.031720
 20
1.849760
  0
VERTEX
  8
0
  6
CONTINUOUS
 10
4.105200
 20
1.865600
  0
VERTEX
  8
0
  6
CONTINUOUS
 10
4.175160
 20
1.878800
  0
VERTEX
  8
0
  6
CONTINUOUS
 10
4.239840
 20
1.889360
  0
VERTEX
  8
0
  6
CONTINUOUS
 10
4.299680
 20
1.897720
  0
VERTEX
  8
0
  6
CONTINUOUS
 10
4.352920
 20
1.904320
  0
VERTEX
  8
0
  6
CONTINUOUS
 10
4.399120
 20
1.908720
  0
VERTEX
  8
0
  6
CONTINUOUS
 10
4.437400
 20
1.910920
  0
VERTEX
  8
0
  6
CONTINUOUS
 10
4.466880
 20
1.911800
  0
VERTEX
  8
0
  6
CONTINUOUS
 10
4.472160
 20
1.911800
  0
SEQEND
  8
0
  0
POLYLINE
  8
0
  6
CONTINUOUS
 66
     1
 40
0.014080
 41
0.014080
  0
VERTEX
  8
0
  6
CONTINUOUS
 10
4.441360
 20
4.045360
  0
VERTEX
  8
0
  6
CONTINUOUS
 10
4.393840
 20
4.043600
  0
VERTEX
  8
0
  6
CONTINUOUS
 10
4.301440
 20
4.034800
  0
VERTEX
  8
0
  6
CONTINUOUS
 10
4.182640
 20
4.017640
  0
VERTEX
  8
0
  6
CONTINUOUS
 10
4.043600
 20
3.991680
  0
VERTEX
  8
0
  6
CONTINUOUS
 10
3.890480
 20
3.955160
  0
VERTEX
  8
0
  6
CONTINUOUS
 10
3.810840
 20
3.932720
  0
VERTEX
  8
0
  6
CONTINUOUS
 10
3.689840
 20
3.893120
  0
VERTEX
  8
0
  6
CONTINUOUS
 10
3.609320
 20
3.862760
  0
VERTEX
  8
0
  6
CONTINUOUS
 10
3.529680
 20
3.829320
  0
VERTEX
  8
0
  6
CONTINUOUS
 10
3.452240
 20
3.792360
  0
VERTEX
  8
0
  6
CONTINUOUS
 10
3.377000
 20
3.751880
  0
VERTEX
  8
0
  6
CONTINUOUS
 10
3.058880
 20
3.751880
  0
VERTEX
  8
0
  6
CONTINUOUS
 10
3.058880
 20
4.059440
  0
VERTEX
  8
0
  6
CONTINUOUS
 10
2.158200
 20
4.059440
  0
VERTEX
  8
0
  6
CONTINUOUS
 10
2.175360
 20
4.058120
  0
VERTEX
  8
0
  6
CONTINUOUS
 10
2.143680
 20
4.058120
  0
VERTEX
  8
0
  6
CONTINUOUS
 10
2.143680
 20
3.229160
  0
VERTEX
  8
0
  6
CONTINUOUS
 10
7.112160
 20
3.229160
  0
VERTEX
  8
0
  6
CONTINUOUS
 10
7.109080
 20
3.944160
  0
VERTEX
  8
0
  6
CONTINUOUS
 10
7.104240
 20
3.970120
  0
VERTEX
  8
0
  6
CONTINUOUS
 10
7.095880
 20
3.992120
  0
VERTEX
  8
0
  6
CONTINUOUS
 10
7.084000
 20
4.009720
  0
VERTEX
  8
0
  6
CONTINUOUS
 10
7.069480
 20
4.023360
  0
VERTEX
  8
0
  6
CONTINUOUS
 10
7.052760
 20
4.033480
  0
VERTEX
  8
0
  6
CONTINUOUS
 10
7.024600
 20
4.041840
  0
VERTEX
  8
0
  6
CONTINUOUS
 10
6.995120
 20
4.043160
  0
VERTEX
  8
0
  6
CONTINUOUS
 10
6.975320
 20
4.040520
  0
VERTEX
  8
0
  6
CONTINUOUS
 10
6.947160
 20
4.031720
  0
VERTEX
  8
0
  6
CONTINUOUS
 10
6.930000
 20
4.023360
  0
VERTEX
  8
0
  6
CONTINUOUS
 10
6.915040
 20
4.012800
  0
VERTEX
  8
0
  6
CONTINUOUS
 10
6.903160
 20
4.000480
  0
VERTEX
  8
0
  6
CONTINUOUS
 10
6.891280
 20
3.979360
  0
VERTEX
  8
0
  6
CONTINUOUS
 10
6.889520
 20
3.971440
  0
VERTEX
  8
0
  6
CONTINUOUS
 10
6.854760
 20
4.060760
  0
VERTEX
  8
0
  6
CONTINUOUS
 10
5.820760
 20
4.060760
  0
VERTEX
  8
0
  6
CONTINUOUS
 10
5.820760
 20
3.753200
  0
VERTEX
  8
0
  6
CONTINUOUS
 10
5.502640
 20
3.753200
  0
VERTEX
  8
0
  6
CONTINUOUS
 10
5.393080
 20
3.812600
  0
VERTEX
  8
0
  6
CONTINUOUS
 10
5.283960
 20
3.864080
  0
VERTEX
  8
0
  6
CONTINUOUS
 10
5.212240
 20
3.894440
  0
VERTEX
  8
0
  6
CONTINUOUS
 10
5.106200
 20
3.933600
  0
VERTEX
  8
0
  6
CONTINUOUS
 10
5.002360
 20
3.966160
  0
VERTEX
  8
0
  6
CONTINUOUS
 10
4.900720
 20
3.992120
  0
VERTEX
  8
0
  6
CONTINUOUS
 10
4.802160
 20
4.012360
  0
VERTEX
  8
0
  6
CONTINUOUS
 10
4.707120
 20
4.027760
  0
VERTEX
  8
0
  6
CONTINUOUS
 10
4.616040
 20
4.037880
  0
VERTEX
  8
0
  6
CONTINUOUS
 10
4.528920
 20
4.043600
  0
VERTEX
  8
0
  6
CONTINUOUS
 10
4.441360
 20
4.045360
  0
SEQEND
  8
0
  0
ENDSEC
  0
EOF
