  0
SECTION
  2
HEADER
  9
$ACADVER
  1
AC1006
  9
$EXTMIN
 10
1.966800
 20
3.634400
  9
$EXTMAX
 10
6.532680
 20
7.365160
  9
$LTSCALE
 40
0.044000
  9
$PDMODE
 70
    35
  9
$PDSIZE
 40
0.035200
  0
ENDSEC
  0
SECTION
  2
TABLES
  0
TABLE
  2
LTYPE
 70
     9
  0
LTYPE
  2
CONTINUOUS
 70
    64
  3
Solid line
 72
    65
 73
     0
 40
0.000000
  0
LTYPE
  2
DASHED
 70
    64
  3
__ __ __ __ __ __ __ __ __ __ __ __ __ __ __
 72
    65
 73
     2
 40
0.000330
 49
0.000220
 49
-0.000110
  0
LTYPE
  2
HIDDEN
 70
    64
  3
 _ _ _ _ _ _ _ _ _ _ _ _ _ _ _ _ _ _ _ _ _ _
 72
    65
 73
     2
 40
0.000165
 49
0.000110
 49
-0.000055
  0
LTYPE
  2
CENTER
 70
    64
  3
____ _ ____ _ ____ _ ____ _ ____ _ ____ _ ____
 72
    65
 73
     4
 40
0.000880
 49
0.000550
 49
-0.000110
 49
0.000110
 49
-0.000110
  0
LTYPE
  2
PHANTOM
 70
    64
  3
_____ _ _ _____ _ _ _____ _ _ _____ _ _ ____
 72
    65
 73
     6
 40
0.001100
 49
0.000550
 49
-0.000110
 49
0.000110
 49
-0.000110
 49
0.000110
 49
-0.000110
  0
LTYPE
  2
DOT
 70
    64
  3
...............................................
 72
    65
 73
     2
 40
0.000110
 49
0.000000
 49
-0.000110
  0
LTYPE
  2
DASHDOT
 70
    64
  3
__ . __ . __ . __ . __ . __ . __ . __ . __ . __
 72
    65
 73
     4
 40
0.000440
 49
0.000220
 49
-0.000110
 49
0.000000
 49
-0.000110
  0
LTYPE
  2
BORDER
 70
    64
  3
__ __ . __ __ . __ __ . __ __ . __ __ . __ __
 72
    65
 73
     6
 40
0.000770
 49
0.000220
 49
-0.000110
 49
0.000220
 49
-0.000110
 49
0.000000
 49
-0.000110
  0
LTYPE
  2
DIVIDE
 70
    64
  3
__ . . __ . . __ . . __ . . __ . . __ . . __
 72
    65
 73
     6
 40
0.000550
 49
0.000220
 49
-0.000110
 49
0.000000
 49
-0.000110
 49
0.000000
 49
-0.000110
  0
LTYPE
  2
DOTDOT
 70
    64
  3
 . .  . .  . .  . .  . .  . . 
 72
    65
 73
     5
 40
0.000242
 49
-0.000110
 49
0.000000
 49
-0.000110
 49
0.000000
 49
-0.000110
  0
ENDTAB
  0
TABLE
  2
STYLE
 70
     2
  0
STYLE
 70
     0
  2
SN0
 40
0.000000
 41
0.000440
 50
0.000000
 71
     0
 42
0.000000
  3
ROMAND
  0
STYLE
 70
    68
  2
SV0
 40
0.000000
 41
0.000440
 50
0.000000
 71
     0
 42
0.000000
  3
ROMAND
  0
ENDTAB
  0
TABLE
  2
LAYER
 70
     3
  0
LAYER
  2
FOREGROUND
 70
    64
 62
     7
  6
CONTINUOUS
  0
LAYER
  2
BACKGROUND
 70
    65
 62
    -7
  6
CONTINUOUS
  0
LAYER
  2
0
 70
    64
 62
     7
  6
CONTINUOUS
  0
ENDTAB
  0
ENDSEC
  0
SECTION
  2
ENTITIES
  0
POLYLINE
  8
FOREGROUND
  6
CONTINUOUS
 66
     1
 40
0.000000
 41
0.000000
  0
VERTEX
  8
FOREGROUND
  6
CONTINUOUS
 10
0.000000
 20
10.999560
  0
VERTEX
  8
FOREGROUND
  6
CONTINUOUS
 10
8.499920
 20
10.999560
  0
VERTEX
  8
FOREGROUND
  6
CONTINUOUS
 10
8.499920
 20
-0.000440
  0
VERTEX
  8
FOREGROUND
  6
CONTINUOUS
 10
0.000000
 20
-0.000440
  0
VERTEX
  8
FOREGROUND
  6
CONTINUOUS
 10
0.000000
 20
10.999560
  0
SEQEND
  8
0
  0
POLYLINE
  8
FOREGROUND
  6
CONTINUOUS
 66
     1
 40
0.000000
 41
0.000000
  0
VERTEX
  8
FOREGROUND
  6
CONTINUOUS
 10
0.000000
 20
10.999560
  0
VERTEX
  8
FOREGROUND
  6
CONTINUOUS
 10
8.499920
 20
10.999560
  0
VERTEX
  8
FOREGROUND
  6
CONTINUOUS
 10
8.499920
 20
-0.000440
  0
VERTEX
  8
FOREGROUND
  6
CONTINUOUS
 10
0.000000
 20
-0.000440
  0
VERTEX
  8
FOREGROUND
  6
CONTINUOUS
 10
0.000000
 20
10.999560
  0
SEQEND
  8
0
  0
TEXT
  8
0
 10
2.369400
 20
3.870240
 40
0.138123
  1
BA  871
 41
1.000000
  7
SN0
 71
     0
 72
     5
 11
2.959997
 21
3.870240
  0
TEXT
  8
0
 10
2.213640
 20
3.678840
 40
0.138123
  1
3/4" x 2-7/8"
 41
1.000000
  7
SN0
 71
     0
 72
     5
 11
3.115630
 21
3.678840
  0
SOLID
  8
0
 62
    15
 10
2.089120
 20
6.989400
 11
2.734160
 21
7.364280
 12
2.718760
 22
6.112480
 13
3.363800
 23
6.487360
  0
POLYLINE
  8
0
  6
CONTINUOUS
 66
     1
 40
0.000000
 41
0.000000
  0
VERTEX
  8
0
  6
CONTINUOUS
 10
2.089120
 20
6.989400
  0
VERTEX
  8
0
  6
CONTINUOUS
 10
2.734160
 20
7.364280
  0
VERTEX
  8
0
  6
CONTINUOUS
 10
3.363800
 20
6.487360
  0
VERTEX
  8
0
  6
CONTINUOUS
 10
2.718760
 20
6.112480
  0
VERTEX
  8
0
  6
CONTINUOUS
 10
2.089120
 20
6.989400
  0
SEQEND
  8
0
  0
SOLID
  8
0
 62
    15
 10
2.718760
 20
6.112480
 11
3.363800
 21
6.487360
 12
2.718760
 22
4.115320
 13
3.363800
 23
4.490200
  0
POLYLINE
  8
0
  6
CONTINUOUS
 66
     1
 40
0.000000
 41
0.000000
  0
VERTEX
  8
0
  6
CONTINUOUS
 10
2.718760
 20
6.112480
  0
VERTEX
  8
0
  6
CONTINUOUS
 10
3.363800
 20
6.487360
  0
VERTEX
  8
0
  6
CONTINUOUS
 10
3.363800
 20
4.490200
  0
VERTEX
  8
0
  6
CONTINUOUS
 10
2.718760
 20
4.115320
  0
VERTEX
  8
0
  6
CONTINUOUS
 10
2.718760
 20
6.112480
  0
SEQEND
  8
0
  0
SOLID
  8
0
 62
    15
 10
2.718760
 20
4.115320
 11
3.363800
 21
4.490200
 12
2.718760
 22
4.112680
 13
3.363800
 23
4.487560
  0
POLYLINE
  8
0
  6
CONTINUOUS
 66
     1
 40
0.000000
 41
0.000000
  0
VERTEX
  8
0
  6
CONTINUOUS
 10
2.718760
 20
4.115320
  0
VERTEX
  8
0
  6
CONTINUOUS
 10
3.363800
 20
4.490200
  0
VERTEX
  8
0
  6
CONTINUOUS
 10
3.363800
 20
4.487560
  0
VERTEX
  8
0
  6
CONTINUOUS
 10
2.718760
 20
4.112680
  0
VERTEX
  8
0
  6
CONTINUOUS
 10
2.718760
 20
4.115320
  0
SEQEND
  8
0
  0
SOLID
  8
0
 62
    15
 10
1.967680
 20
6.989400
 11
2.612280
 21
7.364280
 12
2.089120
 22
6.989400
 13
2.734160
 23
7.364280
  0
POLYLINE
  8
0
  6
CONTINUOUS
 66
     1
 40
0.000000
 41
0.000000
  0
VERTEX
  8
0
  6
CONTINUOUS
 10
1.967680
 20
6.989400
  0
VERTEX
  8
0
  6
CONTINUOUS
 10
2.612280
 20
7.364280
  0
VERTEX
  8
0
  6
CONTINUOUS
 10
2.734160
 20
7.364280
  0
VERTEX
  8
0
  6
CONTINUOUS
 10
2.089120
 20
6.989400
  0
VERTEX
  8
0
  6
CONTINUOUS
 10
1.967680
 20
6.989400
  0
SEQEND
  8
0
  0
POLYLINE
  8
0
  6
CONTINUOUS
 66
     1
 40
0.000000
 41
0.000000
  0
VERTEX
  8
0
  6
CONTINUOUS
 10
2.718760
 20
4.112680
  0
VERTEX
  8
0
  6
CONTINUOUS
 10
1.967680
 20
4.112680
  0
VERTEX
  8
0
  6
CONTINUOUS
 10
1.967680
 20
6.989400
  0
VERTEX
  8
0
  6
CONTINUOUS
 10
2.089120
 20
6.989400
  0
VERTEX
  8
0
  6
CONTINUOUS
 10
2.718760
 20
6.112480
  0
VERTEX
  8
0
  6
CONTINUOUS
 10
2.718760
 20
4.115320
  0
VERTEX
  8
0
  6
CONTINUOUS
 10
2.718760
 20
4.112680
  0
SEQEND
  8
0
  0
POLYLINE
  8
0
  6
CONTINUOUS
 66
     1
 40
0.014080
 41
0.014080
  0
VERTEX
  8
0
  6
CONTINUOUS
 10
3.648920
 20
6.926480
  0
VERTEX
  8
0
  6
CONTINUOUS
 10
3.648920
 20
6.174960
  0
VERTEX
  8
0
  6
CONTINUOUS
 10
6.525640
 20
6.174960
  0
VERTEX
  8
0
  6
CONTINUOUS
 10
6.525640
 20
6.296840
  0
VERTEX
  8
0
  6
CONTINUOUS
 10
5.648720
 20
6.926480
  0
VERTEX
  8
0
  6
CONTINUOUS
 10
3.651560
 20
6.926480
  0
VERTEX
  8
0
  6
CONTINUOUS
 10
3.648920
 20
6.926480
  0
SEQEND
  8
0
  0
TEXT
  8
0
 10
4.379760
 20
6.489560
 40
0.138123
  1
BA  871
 41
1.000000
  7
SN0
 71
     0
 72
     5
 11
4.970357
 21
6.489560
  0
TEXT
  8
0
 10
4.224000
 20
6.298160
 40
0.138123
  1
3/4" x 2-7/8"
 41
1.000000
  7
SN0
 71
     0
 72
     5
 11
5.125990
 21
6.298160
  0
ENDSEC
  0
EOF
