  0
SECTION
  2
HEADER
  9
$ACADVER
  1
AC1006
  9
$EXTMIN
 10
2.223760
 20
1.895080
  9
$EXTMAX
 10
6.466240
 20
4.257000
  9
$LTSCALE
 40
0.044000
  9
$PDMODE
 70
    35
  9
$PDSIZE
 40
0.035200
  0
ENDSEC
  0
SECTION
  2
TABLES
  0
TABLE
  2
LTYPE
 70
     9
  0
LTYPE
  2
CONTINUOUS
 70
    64
  3
Solid line
 72
    65
 73
     0
 40
0.000000
  0
LTYPE
  2
DASHED
 70
    64
  3
__ __ __ __ __ __ __ __ __ __ __ __ __ __ __
 72
    65
 73
     2
 40
0.000330
 49
0.000220
 49
-0.000110
  0
LTYPE
  2
HIDDEN
 70
    64
  3
 _ _ _ _ _ _ _ _ _ _ _ _ _ _ _ _ _ _ _ _ _ _
 72
    65
 73
     2
 40
0.000165
 49
0.000110
 49
-0.000055
  0
LTYPE
  2
CENTER
 70
    64
  3
____ _ ____ _ ____ _ ____ _ ____ _ ____ _ ____
 72
    65
 73
     4
 40
0.000880
 49
0.000550
 49
-0.000110
 49
0.000110
 49
-0.000110
  0
LTYPE
  2
PHANTOM
 70
    64
  3
_____ _ _ _____ _ _ _____ _ _ _____ _ _ ____
 72
    65
 73
     6
 40
0.001100
 49
0.000550
 49
-0.000110
 49
0.000110
 49
-0.000110
 49
0.000110
 49
-0.000110
  0
LTYPE
  2
DOT
 70
    64
  3
...............................................
 72
    65
 73
     2
 40
0.000110
 49
0.000000
 49
-0.000110
  0
LTYPE
  2
DASHDOT
 70
    64
  3
__ . __ . __ . __ . __ . __ . __ . __ . __ . __
 72
    65
 73
     4
 40
0.000440
 49
0.000220
 49
-0.000110
 49
0.000000
 49
-0.000110
  0
LTYPE
  2
BORDER
 70
    64
  3
__ __ . __ __ . __ __ . __ __ . __ __ . __ __
 72
    65
 73
     6
 40
0.000770
 49
0.000220
 49
-0.000110
 49
0.000220
 49
-0.000110
 49
0.000000
 49
-0.000110
  0
LTYPE
  2
DIVIDE
 70
    64
  3
__ . . __ . . __ . . __ . . __ . . __ . . __
 72
    65
 73
     6
 40
0.000550
 49
0.000220
 49
-0.000110
 49
0.000000
 49
-0.000110
 49
0.000000
 49
-0.000110
  0
LTYPE
  2
DOTDOT
 70
    64
  3
 . .  . .  . .  . .  . .  . . 
 72
    65
 73
     5
 40
0.000242
 49
-0.000110
 49
0.000000
 49
-0.000110
 49
0.000000
 49
-0.000110
  0
ENDTAB
  0
TABLE
  2
STYLE
 70
     2
  0
STYLE
 70
     0
  2
SN0
 40
0.000000
 41
0.000440
 50
0.000000
 71
     0
 42
0.000000
  3
ROMAND
  0
STYLE
 70
    68
  2
SV0
 40
0.000000
 41
0.000440
 50
0.000000
 71
     0
 42
0.000000
  3
ROMAND
  0
ENDTAB
  0
TABLE
  2
LAYER
 70
     3
  0
LAYER
  2
FOREGROUND
 70
    64
 62
     7
  6
CONTINUOUS
  0
LAYER
  2
BACKGROUND
 70
    65
 62
    -7
  6
CONTINUOUS
  0
LAYER
  2
0
 70
    64
 62
     7
  6
CONTINUOUS
  0
ENDTAB
  0
ENDSEC
  0
SECTION
  2
ENTITIES
  0
POLYLINE
  8
FOREGROUND
  6
CONTINUOUS
 66
     1
 40
0.000000
 41
0.000000
  0
VERTEX
  8
FOREGROUND
  6
CONTINUOUS
 10
0.000000
 20
6.152080
  0
VERTEX
  8
FOREGROUND
  6
CONTINUOUS
 10
8.499920
 20
6.152080
  0
VERTEX
  8
FOREGROUND
  6
CONTINUOUS
 10
8.499920
 20
-4.847920
  0
VERTEX
  8
FOREGROUND
  6
CONTINUOUS
 10
0.000000
 20
-4.847920
  0
VERTEX
  8
FOREGROUND
  6
CONTINUOUS
 10
0.000000
 20
6.152080
  0
SEQEND
  8
0
  0
POLYLINE
  8
FOREGROUND
  6
CONTINUOUS
 66
     1
 40
0.000000
 41
0.000000
  0
VERTEX
  8
FOREGROUND
  6
CONTINUOUS
 10
0.000000
 20
6.152080
  0
VERTEX
  8
FOREGROUND
  6
CONTINUOUS
 10
8.499920
 20
6.152080
  0
VERTEX
  8
FOREGROUND
  6
CONTINUOUS
 10
8.499920
 20
-4.847920
  0
VERTEX
  8
FOREGROUND
  6
CONTINUOUS
 10
0.000000
 20
-4.847920
  0
VERTEX
  8
FOREGROUND
  6
CONTINUOUS
 10
0.000000
 20
6.152080
  0
SEQEND
  8
0
  0
SOLID
  8
0
 62
    15
 10
5.158560
 20
3.096280
 11
5.909640
 21
3.094960
 12
5.117200
 22
3.049200
 13
5.867840
 23
3.047880
  0
POLYLINE
  8
0
  6
CONTINUOUS
 66
     1
 40
0.000000
 41
0.000000
  0
VERTEX
  8
0
  6
CONTINUOUS
 10
5.158560
 20
3.096280
  0
VERTEX
  8
0
  6
CONTINUOUS
 10
5.909640
 20
3.094960
  0
VERTEX
  8
0
  6
CONTINUOUS
 10
5.867840
 20
3.047880
  0
VERTEX
  8
0
  6
CONTINUOUS
 10
5.117200
 20
3.049200
  0
VERTEX
  8
0
  6
CONTINUOUS
 10
5.158560
 20
3.096280
  0
SEQEND
  8
0
  0
SOLID
  8
0
 62
    15
 10
5.437080
 20
4.242920
 11
6.187720
 21
4.242040
 12
5.511000
 22
4.217400
 13
6.262080
 23
4.216080
  0
POLYLINE
  8
0
  6
CONTINUOUS
 66
     1
 40
0.000000
 41
0.000000
  0
VERTEX
  8
0
  6
CONTINUOUS
 10
5.437080
 20
4.242920
  0
VERTEX
  8
0
  6
CONTINUOUS
 10
6.187720
 20
4.242040
  0
VERTEX
  8
0
  6
CONTINUOUS
 10
6.262080
 20
4.216080
  0
VERTEX
  8
0
  6
CONTINUOUS
 10
5.511000
 20
4.217400
  0
VERTEX
  8
0
  6
CONTINUOUS
 10
5.437080
 20
4.242920
  0
SEQEND
  8
0
  0
SOLID
  8
0
 62
    15
 10
5.511000
 20
4.217400
 11
6.262080
 21
4.216080
 12
5.573920
 22
4.180000
 13
6.324560
 23
4.178680
  0
POLYLINE
  8
0
  6
CONTINUOUS
 66
     1
 40
0.000000
 41
0.000000
  0
VERTEX
  8
0
  6
CONTINUOUS
 10
5.511000
 20
4.217400
  0
VERTEX
  8
0
  6
CONTINUOUS
 10
6.262080
 20
4.216080
  0
VERTEX
  8
0
  6
CONTINUOUS
 10
6.324560
 20
4.178680
  0
VERTEX
  8
0
  6
CONTINUOUS
 10
5.573920
 20
4.180000
  0
VERTEX
  8
0
  6
CONTINUOUS
 10
5.511000
 20
4.217400
  0
SEQEND
  8
0
  0
SOLID
  8
0
 62
    15
 10
5.573920
 20
4.180000
 11
6.324560
 21
4.178680
 12
5.624960
 22
4.132920
 13
6.375600
 23
4.131600
  0
POLYLINE
  8
0
  6
CONTINUOUS
 66
     1
 40
0.000000
 41
0.000000
  0
VERTEX
  8
0
  6
CONTINUOUS
 10
5.573920
 20
4.180000
  0
VERTEX
  8
0
  6
CONTINUOUS
 10
6.324560
 20
4.178680
  0
VERTEX
  8
0
  6
CONTINUOUS
 10
6.375600
 20
4.131600
  0
VERTEX
  8
0
  6
CONTINUOUS
 10
5.624960
 20
4.132920
  0
VERTEX
  8
0
  6
CONTINUOUS
 10
5.573920
 20
4.180000
  0
SEQEND
  8
0
  0
SOLID
  8
0
 62
    15
 10
5.624960
 20
4.132920
 11
6.375600
 21
4.131600
 12
5.664560
 22
4.077480
 13
6.415200
 23
4.076600
  0
POLYLINE
  8
0
  6
CONTINUOUS
 66
     1
 40
0.000000
 41
0.000000
  0
VERTEX
  8
0
  6
CONTINUOUS
 10
5.624960
 20
4.132920
  0
VERTEX
  8
0
  6
CONTINUOUS
 10
6.375600
 20
4.131600
  0
VERTEX
  8
0
  6
CONTINUOUS
 10
6.415200
 20
4.076600
  0
VERTEX
  8
0
  6
CONTINUOUS
 10
5.664560
 20
4.077480
  0
VERTEX
  8
0
  6
CONTINUOUS
 10
5.624960
 20
4.132920
  0
SEQEND
  8
0
  0
SOLID
  8
0
 62
    15
 10
5.664560
 20
4.077480
 11
6.415200
 21
4.076600
 12
5.693160
 22
4.016760
 13
6.443800
 23
4.015440
  0
POLYLINE
  8
0
  6
CONTINUOUS
 66
     1
 40
0.000000
 41
0.000000
  0
VERTEX
  8
0
  6
CONTINUOUS
 10
5.664560
 20
4.077480
  0
VERTEX
  8
0
  6
CONTINUOUS
 10
6.415200
 20
4.076600
  0
VERTEX
  8
0
  6
CONTINUOUS
 10
6.443800
 20
4.015440
  0
VERTEX
  8
0
  6
CONTINUOUS
 10
5.693160
 20
4.016760
  0
VERTEX
  8
0
  6
CONTINUOUS
 10
5.664560
 20
4.077480
  0
SEQEND
  8
0
  0
SOLID
  8
0
 62
    15
 10
5.693160
 20
4.016760
 11
6.443800
 21
4.015440
 12
5.709880
 22
3.951640
 13
6.460520
 23
3.950760
  0
POLYLINE
  8
0
  6
CONTINUOUS
 66
     1
 40
0.000000
 41
0.000000
  0
VERTEX
  8
0
  6
CONTINUOUS
 10
5.693160
 20
4.016760
  0
VERTEX
  8
0
  6
CONTINUOUS
 10
6.443800
 20
4.015440
  0
VERTEX
  8
0
  6
CONTINUOUS
 10
6.460520
 20
3.950760
  0
VERTEX
  8
0
  6
CONTINUOUS
 10
5.709880
 20
3.951640
  0
VERTEX
  8
0
  6
CONTINUOUS
 10
5.693160
 20
4.016760
  0
SEQEND
  8
0
  0
SOLID
  8
0
 62
    15
 10
5.709880
 20
3.951640
 11
6.460520
 21
3.950760
 12
5.715600
 22
3.884760
 13
6.466240
 23
3.883880
  0
POLYLINE
  8
0
  6
CONTINUOUS
 66
     1
 40
0.000000
 41
0.000000
  0
VERTEX
  8
0
  6
CONTINUOUS
 10
5.709880
 20
3.951640
  0
VERTEX
  8
0
  6
CONTINUOUS
 10
6.460520
 20
3.950760
  0
VERTEX
  8
0
  6
CONTINUOUS
 10
6.466240
 20
3.883880
  0
VERTEX
  8
0
  6
CONTINUOUS
 10
5.715600
 20
3.884760
  0
VERTEX
  8
0
  6
CONTINUOUS
 10
5.709880
 20
3.951640
  0
SEQEND
  8
0
  0
SOLID
  8
0
 62
    15
 10
5.715600
 20
3.884760
 11
6.466240
 21
3.883880
 12
5.709440
 22
3.817880
 13
6.460520
 23
3.817000
  0
POLYLINE
  8
0
  6
CONTINUOUS
 66
     1
 40
0.000000
 41
0.000000
  0
VERTEX
  8
0
  6
CONTINUOUS
 10
5.715600
 20
3.884760
  0
VERTEX
  8
0
  6
CONTINUOUS
 10
6.466240
 20
3.883880
  0
VERTEX
  8
0
  6
CONTINUOUS
 10
6.460520
 20
3.817000
  0
VERTEX
  8
0
  6
CONTINUOUS
 10
5.709440
 20
3.817880
  0
VERTEX
  8
0
  6
CONTINUOUS
 10
5.715600
 20
3.884760
  0
SEQEND
  8
0
  0
SOLID
  8
0
 62
    15
 10
5.709440
 20
3.817880
 11
6.460520
 21
3.817000
 12
5.692280
 22
3.753200
 13
6.443360
 23
3.751880
  0
POLYLINE
  8
0
  6
CONTINUOUS
 66
     1
 40
0.000000
 41
0.000000
  0
VERTEX
  8
0
  6
CONTINUOUS
 10
5.709440
 20
3.817880
  0
VERTEX
  8
0
  6
CONTINUOUS
 10
6.460520
 20
3.817000
  0
VERTEX
  8
0
  6
CONTINUOUS
 10
6.443360
 20
3.751880
  0
VERTEX
  8
0
  6
CONTINUOUS
 10
5.692280
 20
3.753200
  0
VERTEX
  8
0
  6
CONTINUOUS
 10
5.709440
 20
3.817880
  0
SEQEND
  8
0
  0
SOLID
  8
0
 62
    15
 10
5.692280
 20
3.753200
 11
6.443360
 21
3.751880
 12
5.663680
 22
3.691600
 13
6.414760
 23
3.690720
  0
POLYLINE
  8
0
  6
CONTINUOUS
 66
     1
 40
0.000000
 41
0.000000
  0
VERTEX
  8
0
  6
CONTINUOUS
 10
5.692280
 20
3.753200
  0
VERTEX
  8
0
  6
CONTINUOUS
 10
6.443360
 20
3.751880
  0
VERTEX
  8
0
  6
CONTINUOUS
 10
6.414760
 20
3.690720
  0
VERTEX
  8
0
  6
CONTINUOUS
 10
5.663680
 20
3.691600
  0
VERTEX
  8
0
  6
CONTINUOUS
 10
5.692280
 20
3.753200
  0
SEQEND
  8
0
  0
SOLID
  8
0
 62
    15
 10
5.663680
 20
3.691600
 11
6.414760
 21
3.690720
 12
5.624080
 22
3.636600
 13
6.374720
 23
3.635280
  0
POLYLINE
  8
0
  6
CONTINUOUS
 66
     1
 40
0.000000
 41
0.000000
  0
VERTEX
  8
0
  6
CONTINUOUS
 10
5.663680
 20
3.691600
  0
VERTEX
  8
0
  6
CONTINUOUS
 10
6.414760
 20
3.690720
  0
VERTEX
  8
0
  6
CONTINUOUS
 10
6.374720
 20
3.635280
  0
VERTEX
  8
0
  6
CONTINUOUS
 10
5.624080
 20
3.636600
  0
VERTEX
  8
0
  6
CONTINUOUS
 10
5.663680
 20
3.691600
  0
SEQEND
  8
0
  0
SOLID
  8
0
 62
    15
 10
5.624080
 20
3.636600
 11
6.374720
 21
3.635280
 12
5.572600
 22
3.588640
 13
6.323240
 23
3.587760
  0
POLYLINE
  8
0
  6
CONTINUOUS
 66
     1
 40
0.000000
 41
0.000000
  0
VERTEX
  8
0
  6
CONTINUOUS
 10
5.624080
 20
3.636600
  0
VERTEX
  8
0
  6
CONTINUOUS
 10
6.374720
 20
3.635280
  0
VERTEX
  8
0
  6
CONTINUOUS
 10
6.323240
 20
3.587760
  0
VERTEX
  8
0
  6
CONTINUOUS
 10
5.572600
 20
3.588640
  0
VERTEX
  8
0
  6
CONTINUOUS
 10
5.624080
 20
3.636600
  0
SEQEND
  8
0
  0
SOLID
  8
0
 62
    15
 10
5.572600
 20
3.588640
 11
6.323240
 21
3.587760
 12
5.510120
 22
3.550800
 13
6.260760
 23
3.549480
  0
POLYLINE
  8
0
  6
CONTINUOUS
 66
     1
 40
0.000000
 41
0.000000
  0
VERTEX
  8
0
  6
CONTINUOUS
 10
5.572600
 20
3.588640
  0
VERTEX
  8
0
  6
CONTINUOUS
 10
6.323240
 20
3.587760
  0
VERTEX
  8
0
  6
CONTINUOUS
 10
6.260760
 20
3.549480
  0
VERTEX
  8
0
  6
CONTINUOUS
 10
5.510120
 20
3.550800
  0
VERTEX
  8
0
  6
CONTINUOUS
 10
5.572600
 20
3.588640
  0
SEQEND
  8
0
  0
SOLID
  8
0
 62
    15
 10
5.510120
 20
3.550800
 11
6.260760
 21
3.549480
 12
5.436200
 22
3.524400
 13
6.186840
 23
3.523520
  0
POLYLINE
  8
0
  6
CONTINUOUS
 66
     1
 40
0.000000
 41
0.000000
  0
VERTEX
  8
0
  6
CONTINUOUS
 10
5.510120
 20
3.550800
  0
VERTEX
  8
0
  6
CONTINUOUS
 10
6.260760
 20
3.549480
  0
VERTEX
  8
0
  6
CONTINUOUS
 10
6.186840
 20
3.523520
  0
VERTEX
  8
0
  6
CONTINUOUS
 10
5.436200
 20
3.524400
  0
VERTEX
  8
0
  6
CONTINUOUS
 10
5.510120
 20
3.550800
  0
SEQEND
  8
0
  0
SOLID
  8
0
 62
    15
 10
5.436200
 20
3.524400
 11
6.186840
 21
3.523520
 12
5.350840
 22
3.511640
 13
6.101480
 23
3.510760
  0
POLYLINE
  8
0
  6
CONTINUOUS
 66
     1
 40
0.000000
 41
0.000000
  0
VERTEX
  8
0
  6
CONTINUOUS
 10
5.436200
 20
3.524400
  0
VERTEX
  8
0
  6
CONTINUOUS
 10
6.186840
 20
3.523520
  0
VERTEX
  8
0
  6
CONTINUOUS
 10
6.101480
 20
3.510760
  0
VERTEX
  8
0
  6
CONTINUOUS
 10
5.350840
 20
3.511640
  0
VERTEX
  8
0
  6
CONTINUOUS
 10
5.436200
 20
3.524400
  0
SEQEND
  8
0
  0
SOLID
  8
0
 62
    15
 10
5.187160
 20
3.245880
 11
5.937800
 21
3.244560
 12
5.189360
 22
3.198800
 13
5.940440
 23
3.197920
  0
POLYLINE
  8
0
  6
CONTINUOUS
 66
     1
 40
0.000000
 41
0.000000
  0
VERTEX
  8
0
  6
CONTINUOUS
 10
5.187160
 20
3.245880
  0
VERTEX
  8
0
  6
CONTINUOUS
 10
5.937800
 20
3.244560
  0
VERTEX
  8
0
  6
CONTINUOUS
 10
5.940440
 20
3.197920
  0
VERTEX
  8
0
  6
CONTINUOUS
 10
5.189360
 20
3.198800
  0
VERTEX
  8
0
  6
CONTINUOUS
 10
5.187160
 20
3.245880
  0
SEQEND
  8
0
  0
SOLID
  8
0
 62
    15
 10
5.350840
 20
3.245880
 11
6.101480
 21
3.244560
 12
5.187160
 22
3.245880
 13
5.937800
 23
3.244560
  0
POLYLINE
  8
0
  6
CONTINUOUS
 66
     1
 40
0.000000
 41
0.000000
  0
VERTEX
  8
0
  6
CONTINUOUS
 10
5.350840
 20
3.245880
  0
VERTEX
  8
0
  6
CONTINUOUS
 10
6.101480
 20
3.244560
  0
VERTEX
  8
0
  6
CONTINUOUS
 10
5.937800
 20
3.244560
  0
VERTEX
  8
0
  6
CONTINUOUS
 10
5.187160
 20
3.245880
  0
VERTEX
  8
0
  6
CONTINUOUS
 10
5.350840
 20
3.245880
  0
SEQEND
  8
0
  0
SOLID
  8
0
 62
    15
 10
5.350840
 20
3.511640
 11
6.101480
 21
3.510760
 12
5.350840
 22
3.245880
 13
6.101480
 23
3.244560
  0
POLYLINE
  8
0
  6
CONTINUOUS
 66
     1
 40
0.000000
 41
0.000000
  0
VERTEX
  8
0
  6
CONTINUOUS
 10
5.350840
 20
3.511640
  0
VERTEX
  8
0
  6
CONTINUOUS
 10
6.101480
 20
3.510760
  0
VERTEX
  8
0
  6
CONTINUOUS
 10
6.101480
 20
3.244560
  0
VERTEX
  8
0
  6
CONTINUOUS
 10
5.350840
 20
3.245880
  0
VERTEX
  8
0
  6
CONTINUOUS
 10
5.350840
 20
3.511640
  0
SEQEND
  8
0
  0
SOLID
  8
0
 62
    15
 10
5.189360
 20
3.198800
 11
5.940440
 21
3.197920
 12
5.184960
 22
3.159200
 13
5.935600
 23
3.157880
  0
POLYLINE
  8
0
  6
CONTINUOUS
 66
     1
 40
0.000000
 41
0.000000
  0
VERTEX
  8
0
  6
CONTINUOUS
 10
5.189360
 20
3.198800
  0
VERTEX
  8
0
  6
CONTINUOUS
 10
5.940440
 20
3.197920
  0
VERTEX
  8
0
  6
CONTINUOUS
 10
5.935600
 20
3.157880
  0
VERTEX
  8
0
  6
CONTINUOUS
 10
5.184960
 20
3.159200
  0
VERTEX
  8
0
  6
CONTINUOUS
 10
5.189360
 20
3.198800
  0
SEQEND
  8
0
  0
SOLID
  8
0
 62
    15
 10
5.184960
 20
3.159200
 11
5.935600
 21
3.157880
 12
5.174400
 22
3.125320
 13
5.925040
 23
3.124000
  0
POLYLINE
  8
0
  6
CONTINUOUS
 66
     1
 40
0.000000
 41
0.000000
  0
VERTEX
  8
0
  6
CONTINUOUS
 10
5.184960
 20
3.159200
  0
VERTEX
  8
0
  6
CONTINUOUS
 10
5.935600
 20
3.157880
  0
VERTEX
  8
0
  6
CONTINUOUS
 10
5.925040
 20
3.124000
  0
VERTEX
  8
0
  6
CONTINUOUS
 10
5.174400
 20
3.125320
  0
VERTEX
  8
0
  6
CONTINUOUS
 10
5.184960
 20
3.159200
  0
SEQEND
  8
0
  0
SOLID
  8
0
 62
    15
 10
5.174400
 20
3.125320
 11
5.925040
 21
3.124000
 12
5.158560
 22
3.096280
 13
5.909640
 23
3.094960
  0
POLYLINE
  8
0
  6
CONTINUOUS
 66
     1
 40
0.000000
 41
0.000000
  0
VERTEX
  8
0
  6
CONTINUOUS
 10
5.174400
 20
3.125320
  0
VERTEX
  8
0
  6
CONTINUOUS
 10
5.925040
 20
3.124000
  0
VERTEX
  8
0
  6
CONTINUOUS
 10
5.909640
 20
3.094960
  0
VERTEX
  8
0
  6
CONTINUOUS
 10
5.158560
 20
3.096280
  0
VERTEX
  8
0
  6
CONTINUOUS
 10
5.174400
 20
3.125320
  0
SEQEND
  8
0
  0
SOLID
  8
0
 62
    15
 10
5.351720
 20
4.255240
 11
6.102360
 21
4.253920
 12
5.437080
 22
4.242920
 13
6.187720
 23
4.242040
  0
POLYLINE
  8
0
  6
CONTINUOUS
 66
     1
 40
0.000000
 41
0.000000
  0
VERTEX
  8
0
  6
CONTINUOUS
 10
5.351720
 20
4.255240
  0
VERTEX
  8
0
  6
CONTINUOUS
 10
6.102360
 20
4.253920
  0
VERTEX
  8
0
  6
CONTINUOUS
 10
6.187720
 20
4.242040
  0
VERTEX
  8
0
  6
CONTINUOUS
 10
5.437080
 20
4.242920
  0
VERTEX
  8
0
  6
CONTINUOUS
 10
5.351720
 20
4.255240
  0
SEQEND
  8
0
  0
SOLID
  8
0
 62
    15
 10
5.117200
 20
3.049200
 11
5.867840
 21
3.047880
 12
5.093440
 22
3.028960
 13
5.844080
 23
3.027640
  0
POLYLINE
  8
0
  6
CONTINUOUS
 66
     1
 40
0.000000
 41
0.000000
  0
VERTEX
  8
0
  6
CONTINUOUS
 10
5.117200
 20
3.049200
  0
VERTEX
  8
0
  6
CONTINUOUS
 10
5.867840
 20
3.047880
  0
VERTEX
  8
0
  6
CONTINUOUS
 10
5.844080
 20
3.027640
  0
VERTEX
  8
0
  6
CONTINUOUS
 10
5.093440
 20
3.028960
  0
VERTEX
  8
0
  6
CONTINUOUS
 10
5.117200
 20
3.049200
  0
SEQEND
  8
0
  0
SOLID
  8
0
 62
    15
 10
5.093440
 20
3.028960
 11
5.844080
 21
3.027640
 12
5.081120
 22
3.019280
 13
5.832200
 23
3.017960
  0
POLYLINE
  8
0
  6
CONTINUOUS
 66
     1
 40
0.000000
 41
0.000000
  0
VERTEX
  8
0
  6
CONTINUOUS
 10
5.093440
 20
3.028960
  0
VERTEX
  8
0
  6
CONTINUOUS
 10
5.844080
 20
3.027640
  0
VERTEX
  8
0
  6
CONTINUOUS
 10
5.832200
 20
3.017960
  0
VERTEX
  8
0
  6
CONTINUOUS
 10
5.081120
 20
3.019280
  0
VERTEX
  8
0
  6
CONTINUOUS
 10
5.093440
 20
3.028960
  0
SEQEND
  8
0
  0
SOLID
  8
0
 62
    15
 10
5.081120
 20
3.019280
 11
5.832200
 21
3.017960
 12
5.069240
 22
3.009600
 13
5.819880
 23
3.008720
  0
POLYLINE
  8
0
  6
CONTINUOUS
 66
     1
 40
0.000000
 41
0.000000
  0
VERTEX
  8
0
  6
CONTINUOUS
 10
5.081120
 20
3.019280
  0
VERTEX
  8
0
  6
CONTINUOUS
 10
5.832200
 20
3.017960
  0
VERTEX
  8
0
  6
CONTINUOUS
 10
5.819880
 20
3.008720
  0
VERTEX
  8
0
  6
CONTINUOUS
 10
5.069240
 20
3.009600
  0
VERTEX
  8
0
  6
CONTINUOUS
 10
5.081120
 20
3.019280
  0
SEQEND
  8
0
  0
SOLID
  8
0
 62
    15
 10
5.069240
 20
3.009600
 11
5.819880
 21
3.008720
 12
5.021280
 22
2.969120
 13
5.771920
 23
2.967800
  0
POLYLINE
  8
0
  6
CONTINUOUS
 66
     1
 40
0.000000
 41
0.000000
  0
VERTEX
  8
0
  6
CONTINUOUS
 10
5.069240
 20
3.009600
  0
VERTEX
  8
0
  6
CONTINUOUS
 10
5.819880
 20
3.008720
  0
VERTEX
  8
0
  6
CONTINUOUS
 10
5.771920
 20
2.967800
  0
VERTEX
  8
0
  6
CONTINUOUS
 10
5.021280
 20
2.969120
  0
VERTEX
  8
0
  6
CONTINUOUS
 10
5.069240
 20
3.009600
  0
SEQEND
  8
0
  0
SOLID
  8
0
 62
    15
 10
5.021280
 20
2.969120
 11
5.771920
 21
2.967800
 12
4.977720
 22
2.920280
 13
5.728360
 23
2.918960
  0
POLYLINE
  8
0
  6
CONTINUOUS
 66
     1
 40
0.000000
 41
0.000000
  0
VERTEX
  8
0
  6
CONTINUOUS
 10
5.021280
 20
2.969120
  0
VERTEX
  8
0
  6
CONTINUOUS
 10
5.771920
 20
2.967800
  0
VERTEX
  8
0
  6
CONTINUOUS
 10
5.728360
 20
2.918960
  0
VERTEX
  8
0
  6
CONTINUOUS
 10
4.977720
 20
2.920280
  0
VERTEX
  8
0
  6
CONTINUOUS
 10
5.021280
 20
2.969120
  0
SEQEND
  8
0
  0
SOLID
  8
0
 62
    15
 10
4.977720
 20
2.920280
 11
5.728360
 21
2.918960
 12
4.942960
 22
2.860440
 13
5.693600
 23
2.859120
  0
POLYLINE
  8
0
  6
CONTINUOUS
 66
     1
 40
0.000000
 41
0.000000
  0
VERTEX
  8
0
  6
CONTINUOUS
 10
4.977720
 20
2.920280
  0
VERTEX
  8
0
  6
CONTINUOUS
 10
5.728360
 20
2.918960
  0
VERTEX
  8
0
  6
CONTINUOUS
 10
5.693600
 20
2.859120
  0
VERTEX
  8
0
  6
CONTINUOUS
 10
4.942960
 20
2.860440
  0
VERTEX
  8
0
  6
CONTINUOUS
 10
4.977720
 20
2.920280
  0
SEQEND
  8
0
  0
SOLID
  8
0
 62
    15
 10
4.942960
 20
2.860440
 11
5.693600
 21
2.859120
 12
4.930640
 22
2.824800
 13
5.681280
 23
2.823480
  0
POLYLINE
  8
0
  6
CONTINUOUS
 66
     1
 40
0.000000
 41
0.000000
  0
VERTEX
  8
0
  6
CONTINUOUS
 10
4.942960
 20
2.860440
  0
VERTEX
  8
0
  6
CONTINUOUS
 10
5.693600
 20
2.859120
  0
VERTEX
  8
0
  6
CONTINUOUS
 10
5.681280
 20
2.823480
  0
VERTEX
  8
0
  6
CONTINUOUS
 10
4.930640
 20
2.824800
  0
VERTEX
  8
0
  6
CONTINUOUS
 10
4.942960
 20
2.860440
  0
SEQEND
  8
0
  0
SOLID
  8
0
 62
    15
 10
4.930640
 20
2.824800
 11
5.681280
 21
2.823480
 12
4.922280
 22
2.785200
 13
5.672920
 23
2.783880
  0
POLYLINE
  8
0
  6
CONTINUOUS
 66
     1
 40
0.000000
 41
0.000000
  0
VERTEX
  8
0
  6
CONTINUOUS
 10
4.930640
 20
2.824800
  0
VERTEX
  8
0
  6
CONTINUOUS
 10
5.681280
 20
2.823480
  0
VERTEX
  8
0
  6
CONTINUOUS
 10
5.672920
 20
2.783880
  0
VERTEX
  8
0
  6
CONTINUOUS
 10
4.922280
 20
2.785200
  0
VERTEX
  8
0
  6
CONTINUOUS
 10
4.930640
 20
2.824800
  0
SEQEND
  8
0
  0
SOLID
  8
0
 62
    15
 10
4.922280
 20
2.785200
 11
5.672920
 21
2.783880
 12
4.961440
 22
2.746920
 13
5.712080
 23
2.745600
  0
POLYLINE
  8
0
  6
CONTINUOUS
 66
     1
 40
0.000000
 41
0.000000
  0
VERTEX
  8
0
  6
CONTINUOUS
 10
4.922280
 20
2.785200
  0
VERTEX
  8
0
  6
CONTINUOUS
 10
5.672920
 20
2.783880
  0
VERTEX
  8
0
  6
CONTINUOUS
 10
5.712080
 20
2.745600
  0
VERTEX
  8
0
  6
CONTINUOUS
 10
4.961440
 20
2.746920
  0
VERTEX
  8
0
  6
CONTINUOUS
 10
4.922280
 20
2.785200
  0
SEQEND
  8
0
  0
SOLID
  8
0
 62
    15
 10
4.961440
 20
2.746920
 11
5.712080
 21
2.745600
 12
4.991360
 22
2.708200
 13
5.742000
 23
2.707320
  0
POLYLINE
  8
0
  6
CONTINUOUS
 66
     1
 40
0.000000
 41
0.000000
  0
VERTEX
  8
0
  6
CONTINUOUS
 10
4.961440
 20
2.746920
  0
VERTEX
  8
0
  6
CONTINUOUS
 10
5.712080
 20
2.745600
  0
VERTEX
  8
0
  6
CONTINUOUS
 10
5.742000
 20
2.707320
  0
VERTEX
  8
0
  6
CONTINUOUS
 10
4.991360
 20
2.708200
  0
VERTEX
  8
0
  6
CONTINUOUS
 10
4.961440
 20
2.746920
  0
SEQEND
  8
0
  0
SOLID
  8
0
 62
    15
 10
4.991360
 20
2.708200
 11
5.742000
 21
2.707320
 12
5.012480
 22
2.670360
 13
5.763120
 23
2.669480
  0
POLYLINE
  8
0
  6
CONTINUOUS
 66
     1
 40
0.000000
 41
0.000000
  0
VERTEX
  8
0
  6
CONTINUOUS
 10
4.991360
 20
2.708200
  0
VERTEX
  8
0
  6
CONTINUOUS
 10
5.742000
 20
2.707320
  0
VERTEX
  8
0
  6
CONTINUOUS
 10
5.763120
 20
2.669480
  0
VERTEX
  8
0
  6
CONTINUOUS
 10
5.012480
 20
2.670360
  0
VERTEX
  8
0
  6
CONTINUOUS
 10
4.991360
 20
2.708200
  0
SEQEND
  8
0
  0
SOLID
  8
0
 62
    15
 10
5.012480
 20
2.670360
 11
5.763120
 21
2.669480
 12
5.025240
 22
2.633400
 13
5.775880
 23
2.632080
  0
POLYLINE
  8
0
  6
CONTINUOUS
 66
     1
 40
0.000000
 41
0.000000
  0
VERTEX
  8
0
  6
CONTINUOUS
 10
5.012480
 20
2.670360
  0
VERTEX
  8
0
  6
CONTINUOUS
 10
5.763120
 20
2.669480
  0
VERTEX
  8
0
  6
CONTINUOUS
 10
5.775880
 20
2.632080
  0
VERTEX
  8
0
  6
CONTINUOUS
 10
5.025240
 20
2.633400
  0
VERTEX
  8
0
  6
CONTINUOUS
 10
5.012480
 20
2.670360
  0
SEQEND
  8
0
  0
SOLID
  8
0
 62
    15
 10
5.025240
 20
2.633400
 11
5.775880
 21
2.632080
 12
5.030960
 22
2.597760
 13
5.781600
 23
2.596440
  0
POLYLINE
  8
0
  6
CONTINUOUS
 66
     1
 40
0.000000
 41
0.000000
  0
VERTEX
  8
0
  6
CONTINUOUS
 10
5.025240
 20
2.633400
  0
VERTEX
  8
0
  6
CONTINUOUS
 10
5.775880
 20
2.632080
  0
VERTEX
  8
0
  6
CONTINUOUS
 10
5.781600
 20
2.596440
  0
VERTEX
  8
0
  6
CONTINUOUS
 10
5.030960
 20
2.597760
  0
VERTEX
  8
0
  6
CONTINUOUS
 10
5.025240
 20
2.633400
  0
SEQEND
  8
0
  0
SOLID
  8
0
 62
    15
 10
5.030960
 20
2.597760
 11
5.781600
 21
2.596440
 12
5.030080
 22
2.563000
 13
5.780720
 23
2.562120
  0
POLYLINE
  8
0
  6
CONTINUOUS
 66
     1
 40
0.000000
 41
0.000000
  0
VERTEX
  8
0
  6
CONTINUOUS
 10
5.030960
 20
2.597760
  0
VERTEX
  8
0
  6
CONTINUOUS
 10
5.781600
 20
2.596440
  0
VERTEX
  8
0
  6
CONTINUOUS
 10
5.780720
 20
2.562120
  0
VERTEX
  8
0
  6
CONTINUOUS
 10
5.030080
 20
2.563000
  0
VERTEX
  8
0
  6
CONTINUOUS
 10
5.030960
 20
2.597760
  0
SEQEND
  8
0
  0
SOLID
  8
0
 62
    15
 10
5.030080
 20
2.563000
 11
5.780720
 21
2.562120
 12
5.023480
 22
2.530440
 13
5.774120
 23
2.529120
  0
POLYLINE
  8
0
  6
CONTINUOUS
 66
     1
 40
0.000000
 41
0.000000
  0
VERTEX
  8
0
  6
CONTINUOUS
 10
5.030080
 20
2.563000
  0
VERTEX
  8
0
  6
CONTINUOUS
 10
5.780720
 20
2.562120
  0
VERTEX
  8
0
  6
CONTINUOUS
 10
5.774120
 20
2.529120
  0
VERTEX
  8
0
  6
CONTINUOUS
 10
5.023480
 20
2.530440
  0
VERTEX
  8
0
  6
CONTINUOUS
 10
5.030080
 20
2.563000
  0
SEQEND
  8
0
  0
SOLID
  8
0
 62
    15
 10
5.023480
 20
2.530440
 11
5.774120
 21
2.529120
 12
5.011600
 22
2.500080
 13
5.762240
 23
2.498760
  0
POLYLINE
  8
0
  6
CONTINUOUS
 66
     1
 40
0.000000
 41
0.000000
  0
VERTEX
  8
0
  6
CONTINUOUS
 10
5.023480
 20
2.530440
  0
VERTEX
  8
0
  6
CONTINUOUS
 10
5.774120
 20
2.529120
  0
VERTEX
  8
0
  6
CONTINUOUS
 10
5.762240
 20
2.498760
  0
VERTEX
  8
0
  6
CONTINUOUS
 10
5.011600
 20
2.500080
  0
VERTEX
  8
0
  6
CONTINUOUS
 10
5.023480
 20
2.530440
  0
SEQEND
  8
0
  0
SOLID
  8
0
 62
    15
 10
5.011600
 20
2.500080
 11
5.762240
 21
2.498760
 12
4.975960
 22
2.446400
 13
5.726600
 23
2.445080
  0
POLYLINE
  8
0
  6
CONTINUOUS
 66
     1
 40
0.000000
 41
0.000000
  0
VERTEX
  8
0
  6
CONTINUOUS
 10
5.011600
 20
2.500080
  0
VERTEX
  8
0
  6
CONTINUOUS
 10
5.762240
 20
2.498760
  0
VERTEX
  8
0
  6
CONTINUOUS
 10
5.726600
 20
2.445080
  0
VERTEX
  8
0
  6
CONTINUOUS
 10
4.975960
 20
2.446400
  0
VERTEX
  8
0
  6
CONTINUOUS
 10
5.011600
 20
2.500080
  0
SEQEND
  8
0
  0
SOLID
  8
0
 62
    15
 10
4.975960
 20
2.446400
 11
5.726600
 21
2.445080
 12
4.928880
 22
2.405040
 13
5.679960
 23
2.403720
  0
POLYLINE
  8
0
  6
CONTINUOUS
 66
     1
 40
0.000000
 41
0.000000
  0
VERTEX
  8
0
  6
CONTINUOUS
 10
4.975960
 20
2.446400
  0
VERTEX
  8
0
  6
CONTINUOUS
 10
5.726600
 20
2.445080
  0
VERTEX
  8
0
  6
CONTINUOUS
 10
5.679960
 20
2.403720
  0
VERTEX
  8
0
  6
CONTINUOUS
 10
4.928880
 20
2.405040
  0
VERTEX
  8
0
  6
CONTINUOUS
 10
4.975960
 20
2.446400
  0
SEQEND
  8
0
  0
SOLID
  8
0
 62
    15
 10
4.928880
 20
2.405040
 11
5.679960
 21
2.403720
 12
4.876960
 22
2.378200
 13
5.627600
 23
2.376880
  0
POLYLINE
  8
0
  6
CONTINUOUS
 66
     1
 40
0.000000
 41
0.000000
  0
VERTEX
  8
0
  6
CONTINUOUS
 10
4.928880
 20
2.405040
  0
VERTEX
  8
0
  6
CONTINUOUS
 10
5.679960
 20
2.403720
  0
VERTEX
  8
0
  6
CONTINUOUS
 10
5.627600
 20
2.376880
  0
VERTEX
  8
0
  6
CONTINUOUS
 10
4.876960
 20
2.378200
  0
VERTEX
  8
0
  6
CONTINUOUS
 10
4.928880
 20
2.405040
  0
SEQEND
  8
0
  0
SOLID
  8
0
 62
    15
 10
4.825920
 20
2.368520
 11
5.576560
 21
2.367640
 12
4.563240
 22
2.368520
 13
5.313880
 23
2.367640
  0
POLYLINE
  8
0
  6
CONTINUOUS
 66
     1
 40
0.000000
 41
0.000000
  0
VERTEX
  8
0
  6
CONTINUOUS
 10
4.825920
 20
2.368520
  0
VERTEX
  8
0
  6
CONTINUOUS
 10
5.576560
 20
2.367640
  0
VERTEX
  8
0
  6
CONTINUOUS
 10
5.313880
 20
2.367640
  0
VERTEX
  8
0
  6
CONTINUOUS
 10
4.563240
 20
2.368520
  0
VERTEX
  8
0
  6
CONTINUOUS
 10
4.825920
 20
2.368520
  0
SEQEND
  8
0
  0
SOLID
  8
0
 62
    15
 10
4.876960
 20
2.378200
 11
5.627600
 21
2.376880
 12
4.825920
 22
2.368520
 13
5.576560
 23
2.367640
  0
POLYLINE
  8
0
  6
CONTINUOUS
 66
     1
 40
0.000000
 41
0.000000
  0
VERTEX
  8
0
  6
CONTINUOUS
 10
4.876960
 20
2.378200
  0
VERTEX
  8
0
  6
CONTINUOUS
 10
5.627600
 20
2.376880
  0
VERTEX
  8
0
  6
CONTINUOUS
 10
5.576560
 20
2.367640
  0
VERTEX
  8
0
  6
CONTINUOUS
 10
4.825920
 20
2.368520
  0
VERTEX
  8
0
  6
CONTINUOUS
 10
4.876960
 20
2.378200
  0
SEQEND
  8
0
  0
SOLID
  8
0
 62
    15
 10
5.351720
 20
4.256120
 11
6.102360
 21
4.255240
 12
5.351720
 22
4.255240
 13
6.102360
 23
4.253920
  0
POLYLINE
  8
0
  6
CONTINUOUS
 66
     1
 40
0.000000
 41
0.000000
  0
VERTEX
  8
0
  6
CONTINUOUS
 10
5.351720
 20
4.256120
  0
VERTEX
  8
0
  6
CONTINUOUS
 10
6.102360
 20
4.255240
  0
VERTEX
  8
0
  6
CONTINUOUS
 10
6.102360
 20
4.253920
  0
VERTEX
  8
0
  6
CONTINUOUS
 10
5.351720
 20
4.255240
  0
VERTEX
  8
0
  6
CONTINUOUS
 10
5.351720
 20
4.256120
  0
SEQEND
  8
0
  0
POLYLINE
  8
0
  6
CONTINUOUS
 66
     1
 40
0.000000
 41
0.000000
  0
VERTEX
  8
0
  6
CONTINUOUS
 10
5.351720
 20
4.255240
  0
VERTEX
  8
0
  6
CONTINUOUS
 10
5.437080
 20
4.242920
  0
VERTEX
  8
0
  6
CONTINUOUS
 10
5.511000
 20
4.217400
  0
VERTEX
  8
0
  6
CONTINUOUS
 10
5.573920
 20
4.180000
  0
VERTEX
  8
0
  6
CONTINUOUS
 10
5.624960
 20
4.132920
  0
VERTEX
  8
0
  6
CONTINUOUS
 10
5.664560
 20
4.077480
  0
VERTEX
  8
0
  6
CONTINUOUS
 10
5.693160
 20
4.016760
  0
VERTEX
  8
0
  6
CONTINUOUS
 10
5.709880
 20
3.951640
  0
VERTEX
  8
0
  6
CONTINUOUS
 10
5.715600
 20
3.884760
  0
VERTEX
  8
0
  6
CONTINUOUS
 10
5.709440
 20
3.817880
  0
VERTEX
  8
0
  6
CONTINUOUS
 10
5.692280
 20
3.753200
  0
VERTEX
  8
0
  6
CONTINUOUS
 10
5.663680
 20
3.691600
  0
VERTEX
  8
0
  6
CONTINUOUS
 10
5.624080
 20
3.636600
  0
VERTEX
  8
0
  6
CONTINUOUS
 10
5.572600
 20
3.588640
  0
VERTEX
  8
0
  6
CONTINUOUS
 10
5.510120
 20
3.550800
  0
VERTEX
  8
0
  6
CONTINUOUS
 10
5.436200
 20
3.524400
  0
VERTEX
  8
0
  6
CONTINUOUS
 10
5.350840
 20
3.511640
  0
VERTEX
  8
0
  6
CONTINUOUS
 10
5.350840
 20
3.245880
  0
VERTEX
  8
0
  6
CONTINUOUS
 10
5.187160
 20
3.245880
  0
VERTEX
  8
0
  6
CONTINUOUS
 10
5.189360
 20
3.198800
  0
VERTEX
  8
0
  6
CONTINUOUS
 10
5.184960
 20
3.159200
  0
VERTEX
  8
0
  6
CONTINUOUS
 10
5.174400
 20
3.125320
  0
VERTEX
  8
0
  6
CONTINUOUS
 10
5.158560
 20
3.096280
  0
VERTEX
  8
0
  6
CONTINUOUS
 10
5.117200
 20
3.049200
  0
VERTEX
  8
0
  6
CONTINUOUS
 10
5.093440
 20
3.028960
  0
VERTEX
  8
0
  6
CONTINUOUS
 10
5.081120
 20
3.019280
  0
VERTEX
  8
0
  6
CONTINUOUS
 10
5.069240
 20
3.009600
  0
VERTEX
  8
0
  6
CONTINUOUS
 10
5.021280
 20
2.969120
  0
VERTEX
  8
0
  6
CONTINUOUS
 10
4.977720
 20
2.920280
  0
VERTEX
  8
0
  6
CONTINUOUS
 10
4.942960
 20
2.860440
  0
VERTEX
  8
0
  6
CONTINUOUS
 10
4.930640
 20
2.824800
  0
VERTEX
  8
0
  6
CONTINUOUS
 10
4.922280
 20
2.785200
  0
VERTEX
  8
0
  6
CONTINUOUS
 10
4.961440
 20
2.746920
  0
VERTEX
  8
0
  6
CONTINUOUS
 10
4.991360
 20
2.708200
  0
VERTEX
  8
0
  6
CONTINUOUS
 10
5.012480
 20
2.670360
  0
VERTEX
  8
0
  6
CONTINUOUS
 10
5.025240
 20
2.633400
  0
VERTEX
  8
0
  6
CONTINUOUS
 10
5.030960
 20
2.597760
  0
VERTEX
  8
0
  6
CONTINUOUS
 10
5.030080
 20
2.563000
  0
VERTEX
  8
0
  6
CONTINUOUS
 10
5.023480
 20
2.530440
  0
VERTEX
  8
0
  6
CONTINUOUS
 10
5.011600
 20
2.500080
  0
VERTEX
  8
0
  6
CONTINUOUS
 10
4.975960
 20
2.446400
  0
VERTEX
  8
0
  6
CONTINUOUS
 10
4.928880
 20
2.405040
  0
VERTEX
  8
0
  6
CONTINUOUS
 10
4.876960
 20
2.378200
  0
VERTEX
  8
0
  6
CONTINUOUS
 10
4.825920
 20
2.368520
  0
VERTEX
  8
0
  6
CONTINUOUS
 10
4.563240
 20
2.368520
  0
VERTEX
  8
0
  6
CONTINUOUS
 10
4.563240
 20
4.256120
  0
VERTEX
  8
0
  6
CONTINUOUS
 10
5.351720
 20
4.256120
  0
VERTEX
  8
0
  6
CONTINUOUS
 10
5.351720
 20
4.255240
  0
SEQEND
  8
0
  0
TEXT
  8
0
 10
5.219720
 20
2.130480
 40
0.138257
  1
BA  869
 41
1.000000
  7
SN0
 71
     0
 72
     5
 11
5.810061
 21
2.130480
  0
TEXT
  8
0
 10
4.944280
 20
1.939080
 40
0.138257
  1
1-3/16" x 1-7/8"
 41
1.000000
  7
SN0
 71
     0
 72
     5
 11
6.084234
 21
1.939080
  0
POLYLINE
  8
0
  6
CONTINUOUS
 66
     1
 40
0.014080
 41
0.014080
  0
VERTEX
  8
0
  6
CONTINUOUS
 10
2.231240
 20
3.697320
  0
VERTEX
  8
0
  6
CONTINUOUS
 10
2.231240
 20
2.908840
  0
VERTEX
  8
0
  6
CONTINUOUS
 10
4.118840
 20
2.908840
  0
VERTEX
  8
0
  6
CONTINUOUS
 10
4.118400
 20
3.183840
  0
VERTEX
  8
0
  6
CONTINUOUS
 10
4.113560
 20
3.209360
  0
VERTEX
  8
0
  6
CONTINUOUS
 10
4.104320
 20
3.235760
  0
VERTEX
  8
0
  6
CONTINUOUS
 10
4.090680
 20
3.261720
  0
VERTEX
  8
0
  6
CONTINUOUS
 10
4.073520
 20
3.287240
  0
VERTEX
  8
0
  6
CONTINUOUS
 10
4.052840
 20
3.310560
  0
VERTEX
  8
0
  6
CONTINUOUS
 10
4.029080
 20
3.331680
  0
VERTEX
  8
0
  6
CONTINUOUS
 10
4.002240
 20
3.349720
  0
VERTEX
  8
0
  6
CONTINUOUS
 10
3.972760
 20
3.363800
  0
VERTEX
  8
0
  6
CONTINUOUS
 10
3.941080
 20
3.373040
  0
VERTEX
  8
0
  6
CONTINUOUS
 10
3.907640
 20
3.377000
  0
VERTEX
  8
0
  6
CONTINUOUS
 10
3.872440
 20
3.374800
  0
VERTEX
  8
0
  6
CONTINUOUS
 10
3.835920
 20
3.365560
  0
VERTEX
  8
0
  6
CONTINUOUS
 10
3.817440
 20
3.358080
  0
VERTEX
  8
0
  6
CONTINUOUS
 10
3.779600
 20
3.336960
  0
VERTEX
  8
0
  6
CONTINUOUS
 10
3.760240
 20
3.323320
  0
VERTEX
  8
0
  6
CONTINUOUS
 10
3.721960
 20
3.289000
  0
VERTEX
  8
0
  6
CONTINUOUS
 10
3.702600
 20
3.267880
  0
VERTEX
  8
0
  6
CONTINUOUS
 10
3.663000
 20
3.276240
  0
VERTEX
  8
0
  6
CONTINUOUS
 10
3.627800
 20
3.288560
  0
VERTEX
  8
0
  6
CONTINUOUS
 10
3.595680
 20
3.304400
  0
VERTEX
  8
0
  6
CONTINUOUS
 10
3.554320
 20
3.333440
  0
VERTEX
  8
0
  6
CONTINUOUS
 10
3.518680
 20
3.366440
  0
VERTEX
  8
0
  6
CONTINUOUS
 10
3.468080
 20
3.426720
  0
VERTEX
  8
0
  6
CONTINUOUS
 10
3.438600
 20
3.462800
  0
VERTEX
  8
0
  6
CONTINUOUS
 10
3.416600
 20
3.484800
  0
VERTEX
  8
0
  6
CONTINUOUS
 10
3.391520
 20
3.504160
  0
VERTEX
  8
0
  6
CONTINUOUS
 10
3.362480
 20
3.520000
  0
VERTEX
  8
0
  6
CONTINUOUS
 10
3.328600
 20
3.530560
  0
VERTEX
  8
0
  6
CONTINUOUS
 10
3.309240
 20
3.533640
  0
VERTEX
  8
0
  6
CONTINUOUS
 10
3.288560
 20
3.534960
  0
VERTEX
  8
0
  6
CONTINUOUS
 10
3.254240
 20
3.534080
  0
VERTEX
  8
0
  6
CONTINUOUS
 10
3.241920
 20
3.532760
  0
VERTEX
  8
0
  6
CONTINUOUS
 10
3.241920
 20
3.696440
  0
VERTEX
  8
0
  6
CONTINUOUS
 10
2.975720
 20
3.696440
  0
VERTEX
  8
0
  6
CONTINUOUS
 10
2.971320
 20
3.740440
  0
VERTEX
  8
0
  6
CONTINUOUS
 10
2.962960
 20
3.781800
  0
VERTEX
  8
0
  6
CONTINUOUS
 10
2.951520
 20
3.820080
  0
VERTEX
  8
0
  6
CONTINUOUS
 10
2.936560
 20
3.855720
  0
VERTEX
  8
0
  6
CONTINUOUS
 10
2.918960
 20
3.888280
  0
VERTEX
  8
0
  6
CONTINUOUS
 10
2.898720
 20
3.918200
  0
VERTEX
  8
0
  6
CONTINUOUS
 10
2.875840
 20
3.945480
  0
VERTEX
  8
0
  6
CONTINUOUS
 10
2.851200
 20
3.969680
  0
VERTEX
  8
0
  6
CONTINUOUS
 10
2.810280
 20
4.000480
  0
VERTEX
  8
0
  6
CONTINUOUS
 10
2.765840
 20
4.025120
  0
VERTEX
  8
0
  6
CONTINUOUS
 10
2.718760
 20
4.043160
  0
VERTEX
  8
0
  6
CONTINUOUS
 10
2.686200
 20
4.051960
  0
VERTEX
  8
0
  6
CONTINUOUS
 10
2.636040
 20
4.059440
  0
VERTEX
  8
0
  6
CONTINUOUS
 10
2.602600
 20
4.061200
  0
VERTEX
  8
0
  6
CONTINUOUS
 10
2.569160
 20
4.059880
  0
VERTEX
  8
0
  6
CONTINUOUS
 10
2.519440
 20
4.052400
  0
VERTEX
  8
0
  6
CONTINUOUS
 10
2.471040
 20
4.038760
  0
VERTEX
  8
0
  6
CONTINUOUS
 10
2.424840
 20
4.018520
  0
VERTEX
  8
0
  6
CONTINUOUS
 10
2.381720
 20
3.991680
  0
VERTEX
  8
0
  6
CONTINUOUS
 10
2.354880
 20
3.970560
  0
VERTEX
  8
0
  6
CONTINUOUS
 10
2.330240
 20
3.946360
  0
VERTEX
  8
0
  6
CONTINUOUS
 10
2.307800
 20
3.919520
  0
VERTEX
  8
0
  6
CONTINUOUS
 10
2.287560
 20
3.889600
  0
VERTEX
  8
0
  6
CONTINUOUS
 10
2.262480
 20
3.839440
  0
VERTEX
  8
0
  6
CONTINUOUS
 10
2.249720
 20
3.802480
  0
VERTEX
  8
0
  6
CONTINUOUS
 10
2.240040
 20
3.762440
  0
VERTEX
  8
0
  6
CONTINUOUS
 10
2.234320
 20
3.719760
  0
VERTEX
  8
0
  6
CONTINUOUS
 10
2.232560
 20
3.697320
  0
VERTEX
  8
0
  6
CONTINUOUS
 10
2.231240
 20
3.697320
  0
SEQEND
  8
0
  0
TEXT
  8
0
 10
2.842400
 20
3.163160
 40
0.138257
  1
869
 41
1.000000
  7
SN0
 71
     0
 72
     5
 11
3.119646
 21
3.163160
  0
TEXT
  8
0
 10
2.409440
 20
2.971760
 40
0.138257
  1
1-3/16" x 1-7/8"
 41
1.000000
  7
SN0
 71
     0
 72
     5
 11
3.549394
 21
2.971760
  0
ENDSEC
  0
EOF
