  0
SECTION
  2
HEADER
  9
$ACADVER
  1
AC1006
  9
$EXTMIN
 10
2.741640
 20
0.278080
  9
$EXTMAX
 10
6.653240
 20
2.152920
  9
$LTSCALE
 40
0.044000
  9
$PDMODE
 70
    35
  9
$PDSIZE
 40
0.035200
  0
ENDSEC
  0
SECTION
  2
TABLES
  0
TABLE
  2
LTYPE
 70
     9
  0
LTYPE
  2
CONTINUOUS
 70
    64
  3
Solid line
 72
    65
 73
     0
 40
0.000000
  0
LTYPE
  2
DASHED
 70
    64
  3
__ __ __ __ __ __ __ __ __ __ __ __ __ __ __
 72
    65
 73
     2
 40
0.000330
 49
0.000220
 49
-0.000110
  0
LTYPE
  2
HIDDEN
 70
    64
  3
 _ _ _ _ _ _ _ _ _ _ _ _ _ _ _ _ _ _ _ _ _ _
 72
    65
 73
     2
 40
0.000165
 49
0.000110
 49
-0.000055
  0
LTYPE
  2
CENTER
 70
    64
  3
____ _ ____ _ ____ _ ____ _ ____ _ ____ _ ____
 72
    65
 73
     4
 40
0.000880
 49
0.000550
 49
-0.000110
 49
0.000110
 49
-0.000110
  0
LTYPE
  2
PHANTOM
 70
    64
  3
_____ _ _ _____ _ _ _____ _ _ _____ _ _ ____
 72
    65
 73
     6
 40
0.001100
 49
0.000550
 49
-0.000110
 49
0.000110
 49
-0.000110
 49
0.000110
 49
-0.000110
  0
LTYPE
  2
DOT
 70
    64
  3
...............................................
 72
    65
 73
     2
 40
0.000110
 49
0.000000
 49
-0.000110
  0
LTYPE
  2
DASHDOT
 70
    64
  3
__ . __ . __ . __ . __ . __ . __ . __ . __ . __
 72
    65
 73
     4
 40
0.000440
 49
0.000220
 49
-0.000110
 49
0.000000
 49
-0.000110
  0
LTYPE
  2
BORDER
 70
    64
  3
__ __ . __ __ . __ __ . __ __ . __ __ . __ __
 72
    65
 73
     6
 40
0.000770
 49
0.000220
 49
-0.000110
 49
0.000220
 49
-0.000110
 49
0.000000
 49
-0.000110
  0
LTYPE
  2
DIVIDE
 70
    64
  3
__ . . __ . . __ . . __ . . __ . . __ . . __
 72
    65
 73
     6
 40
0.000550
 49
0.000220
 49
-0.000110
 49
0.000000
 49
-0.000110
 49
0.000000
 49
-0.000110
  0
LTYPE
  2
DOTDOT
 70
    64
  3
 . .  . .  . .  . .  . .  . . 
 72
    65
 73
     5
 40
0.000242
 49
-0.000110
 49
0.000000
 49
-0.000110
 49
0.000000
 49
-0.000110
  0
ENDTAB
  0
TABLE
  2
STYLE
 70
     2
  0
STYLE
 70
     0
  2
SN0
 40
0.000000
 41
0.000440
 50
0.000000
 71
     0
 42
0.000000
  3
ROMAND
  0
STYLE
 70
    68
  2
SV0
 40
0.000000
 41
0.000440
 50
0.000000
 71
     0
 42
0.000000
  3
ROMAND
  0
ENDTAB
  0
TABLE
  2
LAYER
 70
     3
  0
LAYER
  2
FOREGROUND
 70
    64
 62
     7
  6
CONTINUOUS
  0
LAYER
  2
BACKGROUND
 70
    65
 62
    -7
  6
CONTINUOUS
  0
LAYER
  2
0
 70
    64
 62
     7
  6
CONTINUOUS
  0
ENDTAB
  0
ENDSEC
  0
SECTION
  2
ENTITIES
  0
POLYLINE
  8
FOREGROUND
  6
CONTINUOUS
 66
     1
 40
0.000000
 41
0.000000
  0
VERTEX
  8
FOREGROUND
  6
CONTINUOUS
 10
0.000000
 20
2.431000
  0
VERTEX
  8
FOREGROUND
  6
CONTINUOUS
 10
8.499920
 20
2.431000
  0
VERTEX
  8
FOREGROUND
  6
CONTINUOUS
 10
8.499920
 20
-8.569000
  0
VERTEX
  8
FOREGROUND
  6
CONTINUOUS
 10
0.000000
 20
-8.569000
  0
VERTEX
  8
FOREGROUND
  6
CONTINUOUS
 10
0.000000
 20
2.431000
  0
SEQEND
  8
0
  0
POLYLINE
  8
FOREGROUND
  6
CONTINUOUS
 66
     1
 40
0.000000
 41
0.000000
  0
VERTEX
  8
FOREGROUND
  6
CONTINUOUS
 10
0.000000
 20
2.431000
  0
VERTEX
  8
FOREGROUND
  6
CONTINUOUS
 10
8.499920
 20
2.431000
  0
VERTEX
  8
FOREGROUND
  6
CONTINUOUS
 10
8.499920
 20
-8.569000
  0
VERTEX
  8
FOREGROUND
  6
CONTINUOUS
 10
0.000000
 20
-8.569000
  0
VERTEX
  8
FOREGROUND
  6
CONTINUOUS
 10
0.000000
 20
2.431000
  0
SEQEND
  8
0
  0
SOLID
  8
0
 62
     7
 10
4.761240
 20
1.101760
 11
5.414640
 21
0.723800
 12
4.761240
 22
1.082840
 13
5.414640
 23
0.704880
  0
POLYLINE
  8
0
  6
CONTINUOUS
 66
     1
 40
0.000000
 41
0.000000
  0
VERTEX
  8
0
  6
CONTINUOUS
 10
4.761240
 20
1.101760
  0
VERTEX
  8
0
  6
CONTINUOUS
 10
5.414640
 20
0.723800
  0
VERTEX
  8
0
  6
CONTINUOUS
 10
5.414640
 20
0.704880
  0
VERTEX
  8
0
  6
CONTINUOUS
 10
4.761240
 20
1.082840
  0
VERTEX
  8
0
  6
CONTINUOUS
 10
4.761240
 20
1.101760
  0
SEQEND
  8
0
  0
SOLID
  8
0
 62
    15
 10
5.185840
 20
1.700160
 11
5.838800
 21
1.322200
 12
5.125120
 22
1.686080
 13
5.778520
 23
1.308120
  0
POLYLINE
  8
0
  6
CONTINUOUS
 66
     1
 40
0.000000
 41
0.000000
  0
VERTEX
  8
0
  6
CONTINUOUS
 10
5.185840
 20
1.700160
  0
VERTEX
  8
0
  6
CONTINUOUS
 10
5.838800
 20
1.322200
  0
VERTEX
  8
0
  6
CONTINUOUS
 10
5.778520
 20
1.308120
  0
VERTEX
  8
0
  6
CONTINUOUS
 10
5.125120
 20
1.686080
  0
VERTEX
  8
0
  6
CONTINUOUS
 10
5.185840
 20
1.700160
  0
SEQEND
  8
0
  0
SOLID
  8
0
 62
    15
 10
5.125120
 20
1.686080
 11
5.778520
 21
1.308120
 12
5.072760
 22
1.663640
 13
5.726160
 23
1.285680
  0
POLYLINE
  8
0
  6
CONTINUOUS
 66
     1
 40
0.000000
 41
0.000000
  0
VERTEX
  8
0
  6
CONTINUOUS
 10
5.125120
 20
1.686080
  0
VERTEX
  8
0
  6
CONTINUOUS
 10
5.778520
 20
1.308120
  0
VERTEX
  8
0
  6
CONTINUOUS
 10
5.726160
 20
1.285680
  0
VERTEX
  8
0
  6
CONTINUOUS
 10
5.072760
 20
1.663640
  0
VERTEX
  8
0
  6
CONTINUOUS
 10
5.125120
 20
1.686080
  0
SEQEND
  8
0
  0
SOLID
  8
0
 62
    15
 10
5.072760
 20
1.663640
 11
5.726160
 21
1.285680
 12
5.028320
 22
1.634600
 13
5.681720
 23
1.256640
  0
POLYLINE
  8
0
  6
CONTINUOUS
 66
     1
 40
0.000000
 41
0.000000
  0
VERTEX
  8
0
  6
CONTINUOUS
 10
5.072760
 20
1.663640
  0
VERTEX
  8
0
  6
CONTINUOUS
 10
5.726160
 20
1.285680
  0
VERTEX
  8
0
  6
CONTINUOUS
 10
5.681720
 20
1.256640
  0
VERTEX
  8
0
  6
CONTINUOUS
 10
5.028320
 20
1.634600
  0
VERTEX
  8
0
  6
CONTINUOUS
 10
5.072760
 20
1.663640
  0
SEQEND
  8
0
  0
SOLID
  8
0
 62
    15
 10
5.028320
 20
1.634600
 11
5.681720
 21
1.256640
 12
4.990480
 22
1.599840
 13
5.643880
 23
1.221880
  0
POLYLINE
  8
0
  6
CONTINUOUS
 66
     1
 40
0.000000
 41
0.000000
  0
VERTEX
  8
0
  6
CONTINUOUS
 10
5.028320
 20
1.634600
  0
VERTEX
  8
0
  6
CONTINUOUS
 10
5.681720
 20
1.256640
  0
VERTEX
  8
0
  6
CONTINUOUS
 10
5.643880
 20
1.221880
  0
VERTEX
  8
0
  6
CONTINUOUS
 10
4.990480
 20
1.599840
  0
VERTEX
  8
0
  6
CONTINUOUS
 10
5.028320
 20
1.634600
  0
SEQEND
  8
0
  0
SOLID
  8
0
 62
    15
 10
4.990480
 20
1.599840
 11
5.643880
 21
1.221880
 12
4.959240
 22
1.560680
 13
5.612640
 23
1.182720
  0
POLYLINE
  8
0
  6
CONTINUOUS
 66
     1
 40
0.000000
 41
0.000000
  0
VERTEX
  8
0
  6
CONTINUOUS
 10
4.990480
 20
1.599840
  0
VERTEX
  8
0
  6
CONTINUOUS
 10
5.643880
 20
1.221880
  0
VERTEX
  8
0
  6
CONTINUOUS
 10
5.612640
 20
1.182720
  0
VERTEX
  8
0
  6
CONTINUOUS
 10
4.959240
 20
1.560680
  0
VERTEX
  8
0
  6
CONTINUOUS
 10
4.990480
 20
1.599840
  0
SEQEND
  8
0
  0
SOLID
  8
0
 62
    15
 10
4.959240
 20
1.560680
 11
5.612640
 21
1.182720
 12
4.934160
 22
1.518440
 13
5.587560
 23
1.140480
  0
POLYLINE
  8
0
  6
CONTINUOUS
 66
     1
 40
0.000000
 41
0.000000
  0
VERTEX
  8
0
  6
CONTINUOUS
 10
4.959240
 20
1.560680
  0
VERTEX
  8
0
  6
CONTINUOUS
 10
5.612640
 20
1.182720
  0
VERTEX
  8
0
  6
CONTINUOUS
 10
5.587560
 20
1.140480
  0
VERTEX
  8
0
  6
CONTINUOUS
 10
4.934160
 20
1.518440
  0
VERTEX
  8
0
  6
CONTINUOUS
 10
4.959240
 20
1.560680
  0
SEQEND
  8
0
  0
SOLID
  8
0
 62
    15
 10
4.934160
 20
1.518440
 11
5.587560
 21
1.140480
 12
4.913920
 22
1.474440
 13
5.567320
 23
1.096480
  0
POLYLINE
  8
0
  6
CONTINUOUS
 66
     1
 40
0.000000
 41
0.000000
  0
VERTEX
  8
0
  6
CONTINUOUS
 10
4.934160
 20
1.518440
  0
VERTEX
  8
0
  6
CONTINUOUS
 10
5.587560
 20
1.140480
  0
VERTEX
  8
0
  6
CONTINUOUS
 10
5.567320
 20
1.096480
  0
VERTEX
  8
0
  6
CONTINUOUS
 10
4.913920
 20
1.474440
  0
VERTEX
  8
0
  6
CONTINUOUS
 10
4.934160
 20
1.518440
  0
SEQEND
  8
0
  0
SOLID
  8
0
 62
    15
 10
4.913920
 20
1.474440
 11
5.567320
 21
1.096480
 12
4.887080
 22
1.386000
 13
5.540040
 23
1.008040
  0
POLYLINE
  8
0
  6
CONTINUOUS
 66
     1
 40
0.000000
 41
0.000000
  0
VERTEX
  8
0
  6
CONTINUOUS
 10
4.913920
 20
1.474440
  0
VERTEX
  8
0
  6
CONTINUOUS
 10
5.567320
 20
1.096480
  0
VERTEX
  8
0
  6
CONTINUOUS
 10
5.540040
 20
1.008040
  0
VERTEX
  8
0
  6
CONTINUOUS
 10
4.887080
 20
1.386000
  0
VERTEX
  8
0
  6
CONTINUOUS
 10
4.913920
 20
1.474440
  0
SEQEND
  8
0
  0
SOLID
  8
0
 62
     7
 10
4.887080
 20
1.386000
 11
5.540040
 21
1.008040
 12
4.873440
 22
1.305040
 13
5.526840
 23
0.927080
  0
POLYLINE
  8
0
  6
CONTINUOUS
 66
     1
 40
0.000000
 41
0.000000
  0
VERTEX
  8
0
  6
CONTINUOUS
 10
4.887080
 20
1.386000
  0
VERTEX
  8
0
  6
CONTINUOUS
 10
5.540040
 20
1.008040
  0
VERTEX
  8
0
  6
CONTINUOUS
 10
5.526840
 20
0.927080
  0
VERTEX
  8
0
  6
CONTINUOUS
 10
4.873440
 20
1.305040
  0
VERTEX
  8
0
  6
CONTINUOUS
 10
4.887080
 20
1.386000
  0
SEQEND
  8
0
  0
SOLID
  8
0
 62
     7
 10
4.873440
 20
1.305040
 11
5.526840
 21
0.927080
 12
4.870360
 22
1.270720
 13
5.523760
 23
0.892760
  0
POLYLINE
  8
0
  6
CONTINUOUS
 66
     1
 40
0.000000
 41
0.000000
  0
VERTEX
  8
0
  6
CONTINUOUS
 10
4.873440
 20
1.305040
  0
VERTEX
  8
0
  6
CONTINUOUS
 10
5.526840
 20
0.927080
  0
VERTEX
  8
0
  6
CONTINUOUS
 10
5.523760
 20
0.892760
  0
VERTEX
  8
0
  6
CONTINUOUS
 10
4.870360
 20
1.270720
  0
VERTEX
  8
0
  6
CONTINUOUS
 10
4.873440
 20
1.305040
  0
SEQEND
  8
0
  0
SOLID
  8
0
 62
     7
 10
4.870360
 20
1.270720
 11
5.523760
 21
0.892760
 12
4.869040
 22
1.242120
 13
5.522440
 23
0.864160
  0
POLYLINE
  8
0
  6
CONTINUOUS
 66
     1
 40
0.000000
 41
0.000000
  0
VERTEX
  8
0
  6
CONTINUOUS
 10
4.870360
 20
1.270720
  0
VERTEX
  8
0
  6
CONTINUOUS
 10
5.523760
 20
0.892760
  0
VERTEX
  8
0
  6
CONTINUOUS
 10
5.522440
 20
0.864160
  0
VERTEX
  8
0
  6
CONTINUOUS
 10
4.869040
 20
1.242120
  0
VERTEX
  8
0
  6
CONTINUOUS
 10
4.870360
 20
1.270720
  0
SEQEND
  8
0
  0
SOLID
  8
0
 62
    15
 10
4.869040
 20
1.242120
 11
5.522440
 21
0.864160
 12
4.868600
 22
1.220560
 13
5.522000
 23
0.842600
  0
POLYLINE
  8
0
  6
CONTINUOUS
 66
     1
 40
0.000000
 41
0.000000
  0
VERTEX
  8
0
  6
CONTINUOUS
 10
4.869040
 20
1.242120
  0
VERTEX
  8
0
  6
CONTINUOUS
 10
5.522440
 20
0.864160
  0
VERTEX
  8
0
  6
CONTINUOUS
 10
5.522000
 20
0.842600
  0
VERTEX
  8
0
  6
CONTINUOUS
 10
4.868600
 20
1.220560
  0
VERTEX
  8
0
  6
CONTINUOUS
 10
4.869040
 20
1.242120
  0
SEQEND
  8
0
  0
SOLID
  8
0
 62
    15
 10
4.868600
 20
1.220560
 11
5.522000
 21
0.842600
 12
4.868600
 22
1.206920
 13
5.522000
 23
0.828960
  0
POLYLINE
  8
0
  6
CONTINUOUS
 66
     1
 40
0.000000
 41
0.000000
  0
VERTEX
  8
0
  6
CONTINUOUS
 10
4.868600
 20
1.220560
  0
VERTEX
  8
0
  6
CONTINUOUS
 10
5.522000
 20
0.842600
  0
VERTEX
  8
0
  6
CONTINUOUS
 10
5.522000
 20
0.828960
  0
VERTEX
  8
0
  6
CONTINUOUS
 10
4.868600
 20
1.206920
  0
VERTEX
  8
0
  6
CONTINUOUS
 10
4.868600
 20
1.220560
  0
SEQEND
  8
0
  0
SOLID
  8
0
 62
    15
 10
4.868600
 20
1.206920
 11
5.522000
 21
0.828960
 12
4.869920
 22
1.170840
 13
5.523320
 23
0.792880
  0
POLYLINE
  8
0
  6
CONTINUOUS
 66
     1
 40
0.000000
 41
0.000000
  0
VERTEX
  8
0
  6
CONTINUOUS
 10
4.868600
 20
1.206920
  0
VERTEX
  8
0
  6
CONTINUOUS
 10
5.522000
 20
0.828960
  0
VERTEX
  8
0
  6
CONTINUOUS
 10
5.523320
 20
0.792880
  0
VERTEX
  8
0
  6
CONTINUOUS
 10
4.869920
 20
1.170840
  0
VERTEX
  8
0
  6
CONTINUOUS
 10
4.868600
 20
1.206920
  0
SEQEND
  8
0
  0
SOLID
  8
0
 62
    15
 10
4.869920
 20
1.170840
 11
5.523320
 21
0.792880
 12
4.868600
 22
1.153240
 13
5.522000
 23
0.775280
  0
POLYLINE
  8
0
  6
CONTINUOUS
 66
     1
 40
0.000000
 41
0.000000
  0
VERTEX
  8
0
  6
CONTINUOUS
 10
4.869920
 20
1.170840
  0
VERTEX
  8
0
  6
CONTINUOUS
 10
5.523320
 20
0.792880
  0
VERTEX
  8
0
  6
CONTINUOUS
 10
5.522000
 20
0.775280
  0
VERTEX
  8
0
  6
CONTINUOUS
 10
4.868600
 20
1.153240
  0
VERTEX
  8
0
  6
CONTINUOUS
 10
4.869920
 20
1.170840
  0
SEQEND
  8
0
  0
SOLID
  8
0
 62
    15
 10
4.868600
 20
1.153240
 11
5.522000
 21
0.775280
 12
4.862880
 22
1.137400
 13
5.516280
 23
0.759440
  0
POLYLINE
  8
0
  6
CONTINUOUS
 66
     1
 40
0.000000
 41
0.000000
  0
VERTEX
  8
0
  6
CONTINUOUS
 10
4.868600
 20
1.153240
  0
VERTEX
  8
0
  6
CONTINUOUS
 10
5.522000
 20
0.775280
  0
VERTEX
  8
0
  6
CONTINUOUS
 10
5.516280
 20
0.759440
  0
VERTEX
  8
0
  6
CONTINUOUS
 10
4.862880
 20
1.137400
  0
VERTEX
  8
0
  6
CONTINUOUS
 10
4.868600
 20
1.153240
  0
SEQEND
  8
0
  0
SOLID
  8
0
 62
    15
 10
4.862880
 20
1.137400
 11
5.516280
 21
0.759440
 12
4.851440
 22
1.123320
 13
5.504840
 23
0.745360
  0
POLYLINE
  8
0
  6
CONTINUOUS
 66
     1
 40
0.000000
 41
0.000000
  0
VERTEX
  8
0
  6
CONTINUOUS
 10
4.862880
 20
1.137400
  0
VERTEX
  8
0
  6
CONTINUOUS
 10
5.516280
 20
0.759440
  0
VERTEX
  8
0
  6
CONTINUOUS
 10
5.504840
 20
0.745360
  0
VERTEX
  8
0
  6
CONTINUOUS
 10
4.851440
 20
1.123320
  0
VERTEX
  8
0
  6
CONTINUOUS
 10
4.862880
 20
1.137400
  0
SEQEND
  8
0
  0
SOLID
  8
0
 62
    15
 10
4.851440
 20
1.123320
 11
5.504840
 21
0.745360
 12
4.832080
 22
1.112320
 13
5.485480
 23
0.734360
  0
POLYLINE
  8
0
  6
CONTINUOUS
 66
     1
 40
0.000000
 41
0.000000
  0
VERTEX
  8
0
  6
CONTINUOUS
 10
4.851440
 20
1.123320
  0
VERTEX
  8
0
  6
CONTINUOUS
 10
5.504840
 20
0.745360
  0
VERTEX
  8
0
  6
CONTINUOUS
 10
5.485480
 20
0.734360
  0
VERTEX
  8
0
  6
CONTINUOUS
 10
4.832080
 20
1.112320
  0
VERTEX
  8
0
  6
CONTINUOUS
 10
4.851440
 20
1.123320
  0
SEQEND
  8
0
  0
SOLID
  8
0
 62
    15
 10
4.832080
 20
1.112320
 11
5.485480
 21
0.734360
 12
4.802600
 22
1.104840
 13
5.456000
 23
0.726880
  0
POLYLINE
  8
0
  6
CONTINUOUS
 66
     1
 40
0.000000
 41
0.000000
  0
VERTEX
  8
0
  6
CONTINUOUS
 10
4.832080
 20
1.112320
  0
VERTEX
  8
0
  6
CONTINUOUS
 10
5.485480
 20
0.734360
  0
VERTEX
  8
0
  6
CONTINUOUS
 10
5.456000
 20
0.726880
  0
VERTEX
  8
0
  6
CONTINUOUS
 10
4.802600
 20
1.104840
  0
VERTEX
  8
0
  6
CONTINUOUS
 10
4.832080
 20
1.112320
  0
SEQEND
  8
0
  0
SOLID
  8
0
 62
    15
 10
4.802600
 20
1.104840
 11
5.456000
 21
0.726880
 12
4.761240
 22
1.101760
 13
5.414640
 23
0.723800
  0
POLYLINE
  8
0
  6
CONTINUOUS
 66
     1
 40
0.000000
 41
0.000000
  0
VERTEX
  8
0
  6
CONTINUOUS
 10
4.802600
 20
1.104840
  0
VERTEX
  8
0
  6
CONTINUOUS
 10
5.456000
 20
0.726880
  0
VERTEX
  8
0
  6
CONTINUOUS
 10
5.414640
 20
0.723800
  0
VERTEX
  8
0
  6
CONTINUOUS
 10
4.761240
 20
1.101760
  0
VERTEX
  8
0
  6
CONTINUOUS
 10
4.802600
 20
1.104840
  0
SEQEND
  8
0
  0
SOLID
  8
0
 62
    15
 10
5.254920
 20
1.704560
 11
5.908320
 21
1.327040
 12
5.185840
 22
1.700160
 13
5.838800
 23
1.322200
  0
POLYLINE
  8
0
  6
CONTINUOUS
 66
     1
 40
0.000000
 41
0.000000
  0
VERTEX
  8
0
  6
CONTINUOUS
 10
5.254920
 20
1.704560
  0
VERTEX
  8
0
  6
CONTINUOUS
 10
5.908320
 20
1.327040
  0
VERTEX
  8
0
  6
CONTINUOUS
 10
5.838800
 20
1.322200
  0
VERTEX
  8
0
  6
CONTINUOUS
 10
5.185840
 20
1.700160
  0
VERTEX
  8
0
  6
CONTINUOUS
 10
5.254920
 20
1.704560
  0
SEQEND
  8
0
  0
SOLID
  8
0
 62
    15
 10
4.761240
 20
1.082840
 11
5.414640
 21
0.704880
 12
4.784120
 22
1.065240
 13
5.437520
 23
0.687280
  0
POLYLINE
  8
0
  6
CONTINUOUS
 66
     1
 40
0.000000
 41
0.000000
  0
VERTEX
  8
0
  6
CONTINUOUS
 10
4.761240
 20
1.082840
  0
VERTEX
  8
0
  6
CONTINUOUS
 10
5.414640
 20
0.704880
  0
VERTEX
  8
0
  6
CONTINUOUS
 10
5.437520
 20
0.687280
  0
VERTEX
  8
0
  6
CONTINUOUS
 10
4.784120
 20
1.065240
  0
VERTEX
  8
0
  6
CONTINUOUS
 10
4.761240
 20
1.082840
  0
SEQEND
  8
0
  0
SOLID
  8
0
 62
    15
 10
4.784120
 20
1.065240
 11
5.437520
 21
0.687280
 12
4.800400
 22
1.041040
 13
5.453800
 23
0.663520
  0
POLYLINE
  8
0
  6
CONTINUOUS
 66
     1
 40
0.000000
 41
0.000000
  0
VERTEX
  8
0
  6
CONTINUOUS
 10
4.784120
 20
1.065240
  0
VERTEX
  8
0
  6
CONTINUOUS
 10
5.437520
 20
0.687280
  0
VERTEX
  8
0
  6
CONTINUOUS
 10
5.453800
 20
0.663520
  0
VERTEX
  8
0
  6
CONTINUOUS
 10
4.800400
 20
1.041040
  0
VERTEX
  8
0
  6
CONTINUOUS
 10
4.784120
 20
1.065240
  0
SEQEND
  8
0
  0
SOLID
  8
0
 62
    15
 10
4.800400
 20
1.041040
 11
5.453800
 21
0.663520
 12
4.809200
 22
1.013320
 13
5.462600
 23
0.635360
  0
POLYLINE
  8
0
  6
CONTINUOUS
 66
     1
 40
0.000000
 41
0.000000
  0
VERTEX
  8
0
  6
CONTINUOUS
 10
4.800400
 20
1.041040
  0
VERTEX
  8
0
  6
CONTINUOUS
 10
5.453800
 20
0.663520
  0
VERTEX
  8
0
  6
CONTINUOUS
 10
5.462600
 20
0.635360
  0
VERTEX
  8
0
  6
CONTINUOUS
 10
4.809200
 20
1.013320
  0
VERTEX
  8
0
  6
CONTINUOUS
 10
4.800400
 20
1.041040
  0
SEQEND
  8
0
  0
SOLID
  8
0
 62
    15
 10
4.809200
 20
1.013320
 11
5.462600
 21
0.635360
 12
4.810520
 22
0.983840
 13
5.463920
 23
0.606320
  0
POLYLINE
  8
0
  6
CONTINUOUS
 66
     1
 40
0.000000
 41
0.000000
  0
VERTEX
  8
0
  6
CONTINUOUS
 10
4.809200
 20
1.013320
  0
VERTEX
  8
0
  6
CONTINUOUS
 10
5.462600
 20
0.635360
  0
VERTEX
  8
0
  6
CONTINUOUS
 10
5.463920
 20
0.606320
  0
VERTEX
  8
0
  6
CONTINUOUS
 10
4.810520
 20
0.983840
  0
VERTEX
  8
0
  6
CONTINUOUS
 10
4.809200
 20
1.013320
  0
SEQEND
  8
0
  0
SOLID
  8
0
 62
    15
 10
4.810520
 20
0.983840
 11
5.463920
 21
0.606320
 12
4.803480
 22
0.954800
 13
5.456880
 23
0.577280
  0
POLYLINE
  8
0
  6
CONTINUOUS
 66
     1
 40
0.000000
 41
0.000000
  0
VERTEX
  8
0
  6
CONTINUOUS
 10
4.810520
 20
0.983840
  0
VERTEX
  8
0
  6
CONTINUOUS
 10
5.463920
 20
0.606320
  0
VERTEX
  8
0
  6
CONTINUOUS
 10
5.456880
 20
0.577280
  0
VERTEX
  8
0
  6
CONTINUOUS
 10
4.803480
 20
0.954800
  0
VERTEX
  8
0
  6
CONTINUOUS
 10
4.810520
 20
0.983840
  0
SEQEND
  8
0
  0
SOLID
  8
0
 62
    15
 10
4.803480
 20
0.954800
 11
5.456880
 21
0.577280
 12
4.788080
 22
0.928400
 13
5.441480
 23
0.550880
  0
POLYLINE
  8
0
  6
CONTINUOUS
 66
     1
 40
0.000000
 41
0.000000
  0
VERTEX
  8
0
  6
CONTINUOUS
 10
4.803480
 20
0.954800
  0
VERTEX
  8
0
  6
CONTINUOUS
 10
5.456880
 20
0.577280
  0
VERTEX
  8
0
  6
CONTINUOUS
 10
5.441480
 20
0.550880
  0
VERTEX
  8
0
  6
CONTINUOUS
 10
4.788080
 20
0.928400
  0
VERTEX
  8
0
  6
CONTINUOUS
 10
4.803480
 20
0.954800
  0
SEQEND
  8
0
  0
SOLID
  8
0
 62
    15
 10
4.788080
 20
0.928400
 11
5.441480
 21
0.550880
 12
4.763880
 22
0.907280
 13
5.416840
 23
0.529320
  0
POLYLINE
  8
0
  6
CONTINUOUS
 66
     1
 40
0.000000
 41
0.000000
  0
VERTEX
  8
0
  6
CONTINUOUS
 10
4.788080
 20
0.928400
  0
VERTEX
  8
0
  6
CONTINUOUS
 10
5.441480
 20
0.550880
  0
VERTEX
  8
0
  6
CONTINUOUS
 10
5.416840
 20
0.529320
  0
VERTEX
  8
0
  6
CONTINUOUS
 10
4.763880
 20
0.907280
  0
VERTEX
  8
0
  6
CONTINUOUS
 10
4.788080
 20
0.928400
  0
SEQEND
  8
0
  0
SOLID
  8
0
 62
    15
 10
4.763880
 20
0.907280
 11
5.416840
 21
0.529320
 12
4.730000
 22
0.892320
 13
5.383400
 23
0.514800
  0
POLYLINE
  8
0
  6
CONTINUOUS
 66
     1
 40
0.000000
 41
0.000000
  0
VERTEX
  8
0
  6
CONTINUOUS
 10
4.763880
 20
0.907280
  0
VERTEX
  8
0
  6
CONTINUOUS
 10
5.416840
 20
0.529320
  0
VERTEX
  8
0
  6
CONTINUOUS
 10
5.383400
 20
0.514800
  0
VERTEX
  8
0
  6
CONTINUOUS
 10
4.730000
 20
0.892320
  0
VERTEX
  8
0
  6
CONTINUOUS
 10
4.763880
 20
0.907280
  0
SEQEND
  8
0
  0
SOLID
  8
0
 62
    15
 10
4.730000
 20
0.892320
 11
5.383400
 21
0.514800
 12
4.695240
 22
0.883080
 13
5.348200
 23
0.505120
  0
POLYLINE
  8
0
  6
CONTINUOUS
 66
     1
 40
0.000000
 41
0.000000
  0
VERTEX
  8
0
  6
CONTINUOUS
 10
4.730000
 20
0.892320
  0
VERTEX
  8
0
  6
CONTINUOUS
 10
5.383400
 20
0.514800
  0
VERTEX
  8
0
  6
CONTINUOUS
 10
5.348200
 20
0.505120
  0
VERTEX
  8
0
  6
CONTINUOUS
 10
4.695240
 20
0.883080
  0
VERTEX
  8
0
  6
CONTINUOUS
 10
4.730000
 20
0.892320
  0
SEQEND
  8
0
  0
SOLID
  8
0
 62
    15
 10
4.695240
 20
0.883080
 11
5.348200
 21
0.505120
 12
4.667080
 22
0.875600
 13
5.320480
 23
0.497640
  0
POLYLINE
  8
0
  6
CONTINUOUS
 66
     1
 40
0.000000
 41
0.000000
  0
VERTEX
  8
0
  6
CONTINUOUS
 10
4.695240
 20
0.883080
  0
VERTEX
  8
0
  6
CONTINUOUS
 10
5.348200
 20
0.505120
  0
VERTEX
  8
0
  6
CONTINUOUS
 10
5.320480
 20
0.497640
  0
VERTEX
  8
0
  6
CONTINUOUS
 10
4.667080
 20
0.875600
  0
VERTEX
  8
0
  6
CONTINUOUS
 10
4.695240
 20
0.883080
  0
SEQEND
  8
0
  0
SOLID
  8
0
 62
    15
 10
4.667080
 20
0.875600
 11
5.320480
 21
0.497640
 12
4.645080
 22
0.869000
 13
5.298480
 23
0.491040
  0
POLYLINE
  8
0
  6
CONTINUOUS
 66
     1
 40
0.000000
 41
0.000000
  0
VERTEX
  8
0
  6
CONTINUOUS
 10
4.667080
 20
0.875600
  0
VERTEX
  8
0
  6
CONTINUOUS
 10
5.320480
 20
0.497640
  0
VERTEX
  8
0
  6
CONTINUOUS
 10
5.298480
 20
0.491040
  0
VERTEX
  8
0
  6
CONTINUOUS
 10
4.645080
 20
0.869000
  0
VERTEX
  8
0
  6
CONTINUOUS
 10
4.667080
 20
0.875600
  0
SEQEND
  8
0
  0
SOLID
  8
0
 62
    15
 10
4.645080
 20
0.869000
 11
5.298480
 21
0.491040
 12
4.627480
 22
0.862840
 13
5.280880
 23
0.484880
  0
POLYLINE
  8
0
  6
CONTINUOUS
 66
     1
 40
0.000000
 41
0.000000
  0
VERTEX
  8
0
  6
CONTINUOUS
 10
4.645080
 20
0.869000
  0
VERTEX
  8
0
  6
CONTINUOUS
 10
5.298480
 20
0.491040
  0
VERTEX
  8
0
  6
CONTINUOUS
 10
5.280880
 20
0.484880
  0
VERTEX
  8
0
  6
CONTINUOUS
 10
4.627480
 20
0.862840
  0
VERTEX
  8
0
  6
CONTINUOUS
 10
4.645080
 20
0.869000
  0
SEQEND
  8
0
  0
SOLID
  8
0
 62
    15
 10
4.627480
 20
0.862840
 11
5.280880
 21
0.484880
 12
4.600200
 22
0.849200
 13
5.253600
 23
0.471680
  0
POLYLINE
  8
0
  6
CONTINUOUS
 66
     1
 40
0.000000
 41
0.000000
  0
VERTEX
  8
0
  6
CONTINUOUS
 10
4.627480
 20
0.862840
  0
VERTEX
  8
0
  6
CONTINUOUS
 10
5.280880
 20
0.484880
  0
VERTEX
  8
0
  6
CONTINUOUS
 10
5.253600
 20
0.471680
  0
VERTEX
  8
0
  6
CONTINUOUS
 10
4.600200
 20
0.849200
  0
VERTEX
  8
0
  6
CONTINUOUS
 10
4.627480
 20
0.862840
  0
SEQEND
  8
0
  0
SOLID
  8
0
 62
    15
 10
4.600200
 20
0.849200
 11
5.253600
 21
0.471680
 12
4.574680
 22
0.830280
 13
5.228080
 23
0.452760
  0
POLYLINE
  8
0
  6
CONTINUOUS
 66
     1
 40
0.000000
 41
0.000000
  0
VERTEX
  8
0
  6
CONTINUOUS
 10
4.600200
 20
0.849200
  0
VERTEX
  8
0
  6
CONTINUOUS
 10
5.253600
 20
0.471680
  0
VERTEX
  8
0
  6
CONTINUOUS
 10
5.228080
 20
0.452760
  0
VERTEX
  8
0
  6
CONTINUOUS
 10
4.574680
 20
0.830280
  0
VERTEX
  8
0
  6
CONTINUOUS
 10
4.600200
 20
0.849200
  0
SEQEND
  8
0
  0
SOLID
  8
0
 62
    15
 10
4.574680
 20
0.830280
 11
5.228080
 21
0.452760
 12
4.550920
 22
0.803440
 13
5.204320
 23
0.425480
  0
POLYLINE
  8
0
  6
CONTINUOUS
 66
     1
 40
0.000000
 41
0.000000
  0
VERTEX
  8
0
  6
CONTINUOUS
 10
4.574680
 20
0.830280
  0
VERTEX
  8
0
  6
CONTINUOUS
 10
5.228080
 20
0.452760
  0
VERTEX
  8
0
  6
CONTINUOUS
 10
5.204320
 20
0.425480
  0
VERTEX
  8
0
  6
CONTINUOUS
 10
4.550920
 20
0.803440
  0
VERTEX
  8
0
  6
CONTINUOUS
 10
4.574680
 20
0.830280
  0
SEQEND
  8
0
  0
SOLID
  8
0
 62
    15
 10
4.550920
 20
0.803440
 11
5.204320
 21
0.425480
 12
4.534200
 22
0.770880
 13
5.187600
 23
0.392920
  0
POLYLINE
  8
0
  6
CONTINUOUS
 66
     1
 40
0.000000
 41
0.000000
  0
VERTEX
  8
0
  6
CONTINUOUS
 10
4.550920
 20
0.803440
  0
VERTEX
  8
0
  6
CONTINUOUS
 10
5.204320
 20
0.425480
  0
VERTEX
  8
0
  6
CONTINUOUS
 10
5.187600
 20
0.392920
  0
VERTEX
  8
0
  6
CONTINUOUS
 10
4.534200
 20
0.770880
  0
VERTEX
  8
0
  6
CONTINUOUS
 10
4.550920
 20
0.803440
  0
SEQEND
  8
0
  0
SOLID
  8
0
 62
    15
 10
4.534200
 20
0.770880
 11
5.187600
 21
0.392920
 12
4.524520
 22
0.737440
 13
5.177480
 23
0.359480
  0
POLYLINE
  8
0
  6
CONTINUOUS
 66
     1
 40
0.000000
 41
0.000000
  0
VERTEX
  8
0
  6
CONTINUOUS
 10
4.534200
 20
0.770880
  0
VERTEX
  8
0
  6
CONTINUOUS
 10
5.187600
 20
0.392920
  0
VERTEX
  8
0
  6
CONTINUOUS
 10
5.177480
 20
0.359480
  0
VERTEX
  8
0
  6
CONTINUOUS
 10
4.524520
 20
0.737440
  0
VERTEX
  8
0
  6
CONTINUOUS
 10
4.534200
 20
0.770880
  0
SEQEND
  8
0
  0
SOLID
  8
0
 62
     7
 10
4.524520
 20
0.737440
 11
5.177480
 21
0.359480
 12
4.521000
 22
0.706640
 13
5.174400
 23
0.328680
  0
POLYLINE
  8
0
  6
CONTINUOUS
 66
     1
 40
0.000000
 41
0.000000
  0
VERTEX
  8
0
  6
CONTINUOUS
 10
4.524520
 20
0.737440
  0
VERTEX
  8
0
  6
CONTINUOUS
 10
5.177480
 20
0.359480
  0
VERTEX
  8
0
  6
CONTINUOUS
 10
5.174400
 20
0.328680
  0
VERTEX
  8
0
  6
CONTINUOUS
 10
4.521000
 20
0.706640
  0
VERTEX
  8
0
  6
CONTINUOUS
 10
4.524520
 20
0.737440
  0
SEQEND
  8
0
  0
SOLID
  8
0
 62
    15
 10
4.521000
 20
0.706640
 11
5.174400
 21
0.328680
 12
4.358200
 22
0.706640
 13
5.011160
 23
0.328680
  0
POLYLINE
  8
0
  6
CONTINUOUS
 66
     1
 40
0.000000
 41
0.000000
  0
VERTEX
  8
0
  6
CONTINUOUS
 10
4.521000
 20
0.706640
  0
VERTEX
  8
0
  6
CONTINUOUS
 10
5.174400
 20
0.328680
  0
VERTEX
  8
0
  6
CONTINUOUS
 10
5.011160
 20
0.328680
  0
VERTEX
  8
0
  6
CONTINUOUS
 10
4.358200
 20
0.706640
  0
VERTEX
  8
0
  6
CONTINUOUS
 10
4.521000
 20
0.706640
  0
SEQEND
  8
0
  0
SOLID
  8
0
 62
    15
 10
5.261080
 20
2.152040
 11
5.914480
 21
1.774520
 12
5.261080
 22
1.704560
 13
5.914480
 23
1.327040
  0
POLYLINE
  8
0
  6
CONTINUOUS
 66
     1
 40
0.000000
 41
0.000000
  0
VERTEX
  8
0
  6
CONTINUOUS
 10
5.261080
 20
2.152040
  0
VERTEX
  8
0
  6
CONTINUOUS
 10
5.914480
 20
1.774520
  0
VERTEX
  8
0
  6
CONTINUOUS
 10
5.914480
 20
1.327040
  0
VERTEX
  8
0
  6
CONTINUOUS
 10
5.261080
 20
1.704560
  0
VERTEX
  8
0
  6
CONTINUOUS
 10
5.261080
 20
2.152040
  0
SEQEND
  8
0
  0
SOLID
  8
0
 62
    15
 10
5.261080
 20
1.704560
 11
5.914480
 21
1.327040
 12
5.254920
 22
1.704560
 13
5.908320
 23
1.327040
  0
POLYLINE
  8
0
  6
CONTINUOUS
 66
     1
 40
0.000000
 41
0.000000
  0
VERTEX
  8
0
  6
CONTINUOUS
 10
5.261080
 20
1.704560
  0
VERTEX
  8
0
  6
CONTINUOUS
 10
5.914480
 20
1.327040
  0
VERTEX
  8
0
  6
CONTINUOUS
 10
5.908320
 20
1.327040
  0
VERTEX
  8
0
  6
CONTINUOUS
 10
5.254920
 20
1.704560
  0
VERTEX
  8
0
  6
CONTINUOUS
 10
5.261080
 20
1.704560
  0
SEQEND
  8
0
  0
POLYLINE
  8
0
  6
CONTINUOUS
 66
     1
 40
0.000000
 41
0.000000
  0
VERTEX
  8
0
  6
CONTINUOUS
 10
5.254920
 20
1.704560
  0
VERTEX
  8
0
  6
CONTINUOUS
 10
5.185840
 20
1.700160
  0
VERTEX
  8
0
  6
CONTINUOUS
 10
5.125120
 20
1.686080
  0
VERTEX
  8
0
  6
CONTINUOUS
 10
5.072760
 20
1.663640
  0
VERTEX
  8
0
  6
CONTINUOUS
 10
5.028320
 20
1.634600
  0
VERTEX
  8
0
  6
CONTINUOUS
 10
4.990480
 20
1.599840
  0
VERTEX
  8
0
  6
CONTINUOUS
 10
4.959240
 20
1.560680
  0
VERTEX
  8
0
  6
CONTINUOUS
 10
4.934160
 20
1.518440
  0
VERTEX
  8
0
  6
CONTINUOUS
 10
4.913920
 20
1.474440
  0
VERTEX
  8
0
  6
CONTINUOUS
 10
4.887080
 20
1.386000
  0
VERTEX
  8
0
  6
CONTINUOUS
 10
4.873440
 20
1.305040
  0
VERTEX
  8
0
  6
CONTINUOUS
 10
4.870360
 20
1.270720
  0
VERTEX
  8
0
  6
CONTINUOUS
 10
4.869040
 20
1.242120
  0
VERTEX
  8
0
  6
CONTINUOUS
 10
4.868600
 20
1.220560
  0
VERTEX
  8
0
  6
CONTINUOUS
 10
4.868600
 20
1.206920
  0
VERTEX
  8
0
  6
CONTINUOUS
 10
4.869920
 20
1.170840
  0
VERTEX
  8
0
  6
CONTINUOUS
 10
4.868600
 20
1.153240
  0
VERTEX
  8
0
  6
CONTINUOUS
 10
4.862880
 20
1.137400
  0
VERTEX
  8
0
  6
CONTINUOUS
 10
4.851440
 20
1.123320
  0
VERTEX
  8
0
  6
CONTINUOUS
 10
4.832080
 20
1.112320
  0
VERTEX
  8
0
  6
CONTINUOUS
 10
4.802600
 20
1.104840
  0
VERTEX
  8
0
  6
CONTINUOUS
 10
4.761240
 20
1.101760
  0
VERTEX
  8
0
  6
CONTINUOUS
 10
4.761240
 20
1.082840
  0
VERTEX
  8
0
  6
CONTINUOUS
 10
4.784120
 20
1.065240
  0
VERTEX
  8
0
  6
CONTINUOUS
 10
4.800400
 20
1.041040
  0
VERTEX
  8
0
  6
CONTINUOUS
 10
4.809200
 20
1.013320
  0
VERTEX
  8
0
  6
CONTINUOUS
 10
4.810520
 20
0.983840
  0
VERTEX
  8
0
  6
CONTINUOUS
 10
4.803480
 20
0.954800
  0
VERTEX
  8
0
  6
CONTINUOUS
 10
4.788080
 20
0.928400
  0
VERTEX
  8
0
  6
CONTINUOUS
 10
4.763880
 20
0.907280
  0
VERTEX
  8
0
  6
CONTINUOUS
 10
4.730000
 20
0.892320
  0
VERTEX
  8
0
  6
CONTINUOUS
 10
4.695240
 20
0.883080
  0
VERTEX
  8
0
  6
CONTINUOUS
 10
4.667080
 20
0.875600
  0
VERTEX
  8
0
  6
CONTINUOUS
 10
4.645080
 20
0.869000
  0
VERTEX
  8
0
  6
CONTINUOUS
 10
4.627480
 20
0.862840
  0
VERTEX
  8
0
  6
CONTINUOUS
 10
4.600200
 20
0.849200
  0
VERTEX
  8
0
  6
CONTINUOUS
 10
4.574680
 20
0.830280
  0
VERTEX
  8
0
  6
CONTINUOUS
 10
4.550920
 20
0.803440
  0
VERTEX
  8
0
  6
CONTINUOUS
 10
4.534200
 20
0.770880
  0
VERTEX
  8
0
  6
CONTINUOUS
 10
4.524520
 20
0.737440
  0
VERTEX
  8
0
  6
CONTINUOUS
 10
4.521000
 20
0.706640
  0
VERTEX
  8
0
  6
CONTINUOUS
 10
4.358200
 20
0.706640
  0
VERTEX
  8
0
  6
CONTINUOUS
 10
4.358200
 20
2.152040
  0
VERTEX
  8
0
  6
CONTINUOUS
 10
5.261080
 20
2.152040
  0
VERTEX
  8
0
  6
CONTINUOUS
 10
5.261080
 20
1.704560
  0
VERTEX
  8
0
  6
CONTINUOUS
 10
5.254920
 20
1.704560
  0
SEQEND
  8
0
  0
TEXT
  8
0
 10
5.803160
 20
0.513040
 40
0.138052
  1
BA  867
 41
1.000000
  7
SN0
 71
     0
 72
     5
 11
6.392834
 21
0.513040
  0
TEXT
  8
0
 10
5.647400
 20
0.321640
 40
0.138052
  1
7/8" x 1-3/8"
 41
1.000000
  7
SN0
 71
     0
 72
     5
 11
6.546677
 21
0.321640
  0
POLYLINE
  8
0
  6
CONTINUOUS
 66
     1
 40
0.000000
 41
0.000000
  0
VERTEX
  8
0
  6
CONTINUOUS
 10
3.189560
 20
1.702360
  0
VERTEX
  8
0
  6
CONTINUOUS
 10
3.192200
 20
1.649560
  0
VERTEX
  8
0
  6
CONTINUOUS
 10
3.200120
 20
1.601600
  0
VERTEX
  8
0
  6
CONTINUOUS
 10
3.213320
 20
1.558920
  0
VERTEX
  8
0
  6
CONTINUOUS
 10
3.224320
 20
1.532520
  0
VERTEX
  8
0
  6
CONTINUOUS
 10
3.244560
 20
1.497320
  0
VERTEX
  8
0
  6
CONTINUOUS
 10
3.259960
 20
1.475760
  0
VERTEX
  8
0
  6
CONTINUOUS
 10
3.276680
 20
1.455960
  0
VERTEX
  8
0
  6
CONTINUOUS
 10
3.313640
 20
1.421640
  0
VERTEX
  8
0
  6
CONTINUOUS
 10
3.354560
 20
1.393480
  0
VERTEX
  8
0
  6
CONTINUOUS
 10
3.398120
 20
1.371040
  0
VERTEX
  8
0
  6
CONTINUOUS
 10
3.420120
 20
1.361360
  0
VERTEX
  8
0
  6
CONTINUOUS
 10
3.464560
 20
1.345960
  0
VERTEX
  8
0
  6
CONTINUOUS
 10
3.530120
 20
1.330120
  0
VERTEX
  8
0
  6
CONTINUOUS
 10
3.589520
 20
1.321320
  0
VERTEX
  8
0
  6
CONTINUOUS
 10
3.652440
 20
1.316920
  0
VERTEX
  8
0
  6
CONTINUOUS
 10
3.732520
 20
1.317360
  0
VERTEX
  8
0
  6
CONTINUOUS
 10
3.749680
 20
1.314280
  0
VERTEX
  8
0
  6
CONTINUOUS
 10
3.764640
 20
1.305920
  0
VERTEX
  8
0
  6
CONTINUOUS
 10
3.777400
 20
1.290520
  0
VERTEX
  8
0
  6
CONTINUOUS
 10
3.786640
 20
1.266320
  0
VERTEX
  8
0
  6
CONTINUOUS
 10
3.791920
 20
1.231120
  0
VERTEX
  8
0
  6
CONTINUOUS
 10
3.792800
 20
1.208680
  0
VERTEX
  8
0
  6
CONTINUOUS
 10
3.811720
 20
1.208680
  0
VERTEX
  8
0
  6
CONTINUOUS
 10
3.819640
 20
1.221000
  0
VERTEX
  8
0
  6
CONTINUOUS
 10
3.829320
 20
1.231560
  0
VERTEX
  8
0
  6
CONTINUOUS
 10
3.840760
 20
1.240800
  0
VERTEX
  8
0
  6
CONTINUOUS
 10
3.853520
 20
1.247840
  0
VERTEX
  8
0
  6
CONTINUOUS
 10
3.866720
 20
1.253120
  0
VERTEX
  8
0
  6
CONTINUOUS
 10
3.881240
 20
1.256640
  0
VERTEX
  8
0
  6
CONTINUOUS
 10
3.895760
 20
1.258400
  0
VERTEX
  8
0
  6
CONTINUOUS
 10
3.910720
 20
1.257960
  0
VERTEX
  8
0
  6
CONTINUOUS
 10
3.925240
 20
1.255760
  0
VERTEX
  8
0
  6
CONTINUOUS
 10
3.939760
 20
1.251360
  0
VERTEX
  8
0
  6
CONTINUOUS
 10
3.960000
 20
1.240360
  0
VERTEX
  8
0
  6
CONTINUOUS
 10
3.977600
 20
1.224520
  0
VERTEX
  8
0
  6
CONTINUOUS
 10
3.992120
 20
1.203840
  0
VERTEX
  8
0
  6
CONTINUOUS
 10
4.002240
 20
1.177440
  0
VERTEX
  8
0
  6
CONTINUOUS
 10
4.028640
 20
1.083280
  0
VERTEX
  8
0
  6
CONTINUOUS
 10
4.037880
 20
1.060400
  0
VERTEX
  8
0
  6
CONTINUOUS
 10
4.053280
 20
1.035760
  0
VERTEX
  8
0
  6
CONTINUOUS
 10
4.076600
 20
1.009360
  0
VERTEX
  8
0
  6
CONTINUOUS
 10
4.091120
 20
0.998360
  0
VERTEX
  8
0
  6
CONTINUOUS
 10
4.106960
 20
0.989120
  0
VERTEX
  8
0
  6
CONTINUOUS
 10
4.123680
 20
0.981640
  0
VERTEX
  8
0
  6
CONTINUOUS
 10
4.157120
 20
0.971960
  0
VERTEX
  8
0
  6
CONTINUOUS
 10
4.187920
 20
0.968880
  0
VERTEX
  8
0
  6
CONTINUOUS
 10
4.187920
 20
0.805640
  0
VERTEX
  8
0
  6
CONTINUOUS
 10
2.742520
 20
0.805640
  0
VERTEX
  8
0
  6
CONTINUOUS
 10
2.742520
 20
1.708960
  0
VERTEX
  8
0
  6
CONTINUOUS
 10
3.189560
 20
1.708960
  0
VERTEX
  8
0
  6
CONTINUOUS
 10
3.189560
 20
1.702360
  0
SEQEND
  8
0
  0
TEXT
  8
0
 10
3.225200
 20
1.051600
 40
0.138052
  1
867
 41
1.000000
  7
SN0
 71
     0
 72
     5
 11
3.501946
 21
1.051600
  0
TEXT
  8
0
 10
2.912360
 20
0.860200
 40
0.138052
  1
7/8" x 1-3/8"
 41
1.000000
  7
SN0
 71
     0
 72
     5
 11
3.811637
 21
0.860200
  0
ENDSEC
  0
EOF
