  0
SECTION
  2
HEADER
  9
$ACADVER
  1
AC1006
  9
$EXTMIN
 10
2.517240
 20
0.670120
  9
$EXTMAX
 10
6.848600
 20
5.112800
  9
$LTSCALE
 40
0.044000
  9
$PDMODE
 70
    35
  9
$PDSIZE
 40
0.035200
  0
ENDSEC
  0
SECTION
  2
TABLES
  0
TABLE
  2
LTYPE
 70
     9
  0
LTYPE
  2
CONTINUOUS
 70
    64
  3
Solid line
 72
    65
 73
     0
 40
0.000000
  0
LTYPE
  2
DASHED
 70
    64
  3
__ __ __ __ __ __ __ __ __ __ __ __ __ __ __
 72
    65
 73
     2
 40
0.000330
 49
0.000220
 49
-0.000110
  0
LTYPE
  2
HIDDEN
 70
    64
  3
 _ _ _ _ _ _ _ _ _ _ _ _ _ _ _ _ _ _ _ _ _ _
 72
    65
 73
     2
 40
0.000165
 49
0.000110
 49
-0.000055
  0
LTYPE
  2
CENTER
 70
    64
  3
____ _ ____ _ ____ _ ____ _ ____ _ ____ _ ____
 72
    65
 73
     4
 40
0.000880
 49
0.000550
 49
-0.000110
 49
0.000110
 49
-0.000110
  0
LTYPE
  2
PHANTOM
 70
    64
  3
_____ _ _ _____ _ _ _____ _ _ _____ _ _ ____
 72
    65
 73
     6
 40
0.001100
 49
0.000550
 49
-0.000110
 49
0.000110
 49
-0.000110
 49
0.000110
 49
-0.000110
  0
LTYPE
  2
DOT
 70
    64
  3
...............................................
 72
    65
 73
     2
 40
0.000110
 49
0.000000
 49
-0.000110
  0
LTYPE
  2
DASHDOT
 70
    64
  3
__ . __ . __ . __ . __ . __ . __ . __ . __ . __
 72
    65
 73
     4
 40
0.000440
 49
0.000220
 49
-0.000110
 49
0.000000
 49
-0.000110
  0
LTYPE
  2
BORDER
 70
    64
  3
__ __ . __ __ . __ __ . __ __ . __ __ . __ __
 72
    65
 73
     6
 40
0.000770
 49
0.000220
 49
-0.000110
 49
0.000220
 49
-0.000110
 49
0.000000
 49
-0.000110
  0
LTYPE
  2
DIVIDE
 70
    64
  3
__ . . __ . . __ . . __ . . __ . . __ . . __
 72
    65
 73
     6
 40
0.000550
 49
0.000220
 49
-0.000110
 49
0.000000
 49
-0.000110
 49
0.000000
 49
-0.000110
  0
LTYPE
  2
DOTDOT
 70
    64
  3
 . .  . .  . .  . .  . .  . . 
 72
    65
 73
     5
 40
0.000242
 49
-0.000110
 49
0.000000
 49
-0.000110
 49
0.000000
 49
-0.000110
  0
ENDTAB
  0
TABLE
  2
STYLE
 70
     2
  0
STYLE
 70
     0
  2
SN0
 40
0.000000
 41
0.000440
 50
0.000000
 71
     0
 42
0.000000
  3
ROMAND
  0
STYLE
 70
    68
  2
SV0
 40
0.000000
 41
0.000440
 50
0.000000
 71
     0
 42
0.000000
  3
ROMAND
  0
ENDTAB
  0
TABLE
  2
LAYER
 70
     3
  0
LAYER
  2
FOREGROUND
 70
    64
 62
     7
  6
CONTINUOUS
  0
LAYER
  2
BACKGROUND
 70
    65
 62
    -7
  6
CONTINUOUS
  0
LAYER
  2
0
 70
    64
 62
     7
  6
CONTINUOUS
  0
ENDTAB
  0
ENDSEC
  0
SECTION
  2
ENTITIES
  0
POLYLINE
  8
FOREGROUND
  6
CONTINUOUS
 66
     1
 40
0.000000
 41
0.000000
  0
VERTEX
  8
FOREGROUND
  6
CONTINUOUS
 10
0.000000
 20
5.782920
  0
VERTEX
  8
FOREGROUND
  6
CONTINUOUS
 10
8.499920
 20
5.782920
  0
VERTEX
  8
FOREGROUND
  6
CONTINUOUS
 10
8.499920
 20
-5.217080
  0
VERTEX
  8
FOREGROUND
  6
CONTINUOUS
 10
0.000000
 20
-5.217080
  0
VERTEX
  8
FOREGROUND
  6
CONTINUOUS
 10
0.000000
 20
5.782920
  0
SEQEND
  8
0
  0
POLYLINE
  8
FOREGROUND
  6
CONTINUOUS
 66
     1
 40
0.000000
 41
0.000000
  0
VERTEX
  8
FOREGROUND
  6
CONTINUOUS
 10
0.000000
 20
5.782920
  0
VERTEX
  8
FOREGROUND
  6
CONTINUOUS
 10
8.499920
 20
5.782920
  0
VERTEX
  8
FOREGROUND
  6
CONTINUOUS
 10
8.499920
 20
-5.217080
  0
VERTEX
  8
FOREGROUND
  6
CONTINUOUS
 10
0.000000
 20
-5.217080
  0
VERTEX
  8
FOREGROUND
  6
CONTINUOUS
 10
0.000000
 20
5.782920
  0
SEQEND
  8
0
  0
POLYLINE
  8
0
  6
CONTINUOUS
 66
     1
 40
0.014080
 41
0.014080
  0
VERTEX
  8
0
  6
CONTINUOUS
 10
6.841560
 20
4.334000
  0
VERTEX
  8
0
  6
CONTINUOUS
 10
6.827040
 20
4.385920
  0
VERTEX
  8
0
  6
CONTINUOUS
 10
6.809000
 20
4.432560
  0
VERTEX
  8
0
  6
CONTINUOUS
 10
6.787880
 20
4.473040
  0
VERTEX
  8
0
  6
CONTINUOUS
 10
6.762800
 20
4.508680
  0
VERTEX
  8
0
  6
CONTINUOUS
 10
6.733760
 20
4.539040
  0
VERTEX
  8
0
  6
CONTINUOUS
 10
6.700320
 20
4.564120
  0
VERTEX
  8
0
  6
CONTINUOUS
 10
6.662040
 20
4.584360
  0
VERTEX
  8
0
  6
CONTINUOUS
 10
6.618480
 20
4.600200
  0
VERTEX
  8
0
  6
CONTINUOUS
 10
6.569640
 20
4.611200
  0
VERTEX
  8
0
  6
CONTINUOUS
 10
6.515520
 20
4.617800
  0
VERTEX
  8
0
  6
CONTINUOUS
 10
6.436760
 20
4.622640
  0
VERTEX
  8
0
  6
CONTINUOUS
 10
6.385720
 20
4.630560
  0
VERTEX
  8
0
  6
CONTINUOUS
 10
6.356240
 20
4.638480
  0
VERTEX
  8
0
  6
CONTINUOUS
 10
6.329840
 20
4.647720
  0
VERTEX
  8
0
  6
CONTINUOUS
 10
6.296840
 20
4.663560
  0
VERTEX
  8
0
  6
CONTINUOUS
 10
6.262520
 20
4.687320
  0
VERTEX
  8
0
  6
CONTINUOUS
 10
6.238760
 20
4.710200
  0
VERTEX
  8
0
  6
CONTINUOUS
 10
6.218080
 20
4.738360
  0
VERTEX
  8
0
  6
CONTINUOUS
 10
6.211040
 20
4.749800
  0
VERTEX
  8
0
  6
CONTINUOUS
 10
6.087400
 20
4.709760
  0
VERTEX
  8
0
  6
CONTINUOUS
 10
5.925040
 20
5.094760
  0
VERTEX
  8
0
  6
CONTINUOUS
 10
5.426960
 20
4.919200
  0
VERTEX
  8
0
  6
CONTINUOUS
 10
5.419040
 20
4.875200
  0
VERTEX
  8
0
  6
CONTINUOUS
 10
5.409800
 20
4.843520
  0
VERTEX
  8
0
  6
CONTINUOUS
 10
5.387800
 20
4.794240
  0
VERTEX
  8
0
  6
CONTINUOUS
 10
5.367560
 20
4.761680
  0
VERTEX
  8
0
  6
CONTINUOUS
 10
5.342920
 20
4.730000
  0
VERTEX
  8
0
  6
CONTINUOUS
 10
5.313000
 20
4.700520
  0
VERTEX
  8
0
  6
CONTINUOUS
 10
5.277360
 20
4.673680
  0
VERTEX
  8
0
  6
CONTINUOUS
 10
5.235560
 20
4.650800
  0
VERTEX
  8
0
  6
CONTINUOUS
 10
5.212680
 20
4.640680
  0
VERTEX
  8
0
  6
CONTINUOUS
 10
5.188040
 20
4.631880
  0
VERTEX
  8
0
  6
CONTINUOUS
 10
5.133480
 20
4.618680
  0
VERTEX
  8
0
  6
CONTINUOUS
 10
5.103560
 20
4.614280
  0
VERTEX
  8
0
  6
CONTINUOUS
 10
5.055600
 20
4.610760
  0
VERTEX
  8
0
  6
CONTINUOUS
 10
5.003240
 20
4.611200
  0
VERTEX
  8
0
  6
CONTINUOUS
 10
4.946920
 20
4.616480
  0
VERTEX
  8
0
  6
CONTINUOUS
 10
4.885760
 20
4.626160
  0
VERTEX
  8
0
  6
CONTINUOUS
 10
4.819760
 20
4.641120
  0
VERTEX
  8
0
  6
CONTINUOUS
 10
4.749360
 20
4.661360
  0
VERTEX
  8
0
  6
CONTINUOUS
 10
4.490640
 20
4.748920
  0
VERTEX
  8
0
  6
CONTINUOUS
 10
4.210360
 20
4.846160
  0
VERTEX
  8
0
  6
CONTINUOUS
 10
4.037000
 20
4.902480
  0
VERTEX
  8
0
  6
CONTINUOUS
 10
3.863200
 20
4.952640
  0
VERTEX
  8
0
  6
CONTINUOUS
 10
3.748360
 20
4.980800
  0
VERTEX
  8
0
  6
CONTINUOUS
 10
3.691600
 20
4.993120
  0
VERTEX
  8
0
  6
CONTINUOUS
 10
3.579840
 20
5.012920
  0
VERTEX
  8
0
  6
CONTINUOUS
 10
3.525280
 20
5.020400
  0
VERTEX
  8
0
  6
CONTINUOUS
 10
3.471600
 20
5.025680
  0
VERTEX
  8
0
  6
CONTINUOUS
 10
3.392840
 20
5.030080
  0
VERTEX
  8
0
  6
CONTINUOUS
 10
3.341800
 20
5.030520
  0
VERTEX
  8
0
  6
CONTINUOUS
 10
3.267880
 20
5.026560
  0
VERTEX
  8
0
  6
CONTINUOUS
 10
3.219920
 20
5.020840
  0
VERTEX
  8
0
  6
CONTINUOUS
 10
3.173720
 20
5.012480
  0
VERTEX
  8
0
  6
CONTINUOUS
 10
3.107280
 20
4.994440
  0
VERTEX
  8
0
  6
CONTINUOUS
 10
3.045240
 20
4.969800
  0
VERTEX
  8
0
  6
CONTINUOUS
 10
2.927760
 20
5.103120
  0
VERTEX
  8
0
  6
CONTINUOUS
 10
2.530000
 20
4.867720
  0
VERTEX
  8
0
  6
CONTINUOUS
 10
3.384480
 20
4.183520
  0
VERTEX
  8
0
  6
CONTINUOUS
 10
6.562600
 20
4.180440
  0
VERTEX
  8
0
  6
CONTINUOUS
 10
6.841560
 20
4.334000
  0
SEQEND
  8
0
  0
SOLID
  8
0
 62
    15
 10
4.674560
 20
2.618880
 11
5.317840
 21
2.248400
 12
4.554000
 22
2.537480
 13
5.196840
 23
2.167000
  0
POLYLINE
  8
0
  6
CONTINUOUS
 66
     1
 40
0.000000
 41
0.000000
  0
VERTEX
  8
0
  6
CONTINUOUS
 10
4.674560
 20
2.618880
  0
VERTEX
  8
0
  6
CONTINUOUS
 10
5.317840
 20
2.248400
  0
VERTEX
  8
0
  6
CONTINUOUS
 10
5.196840
 20
2.167000
  0
VERTEX
  8
0
  6
CONTINUOUS
 10
4.554000
 20
2.537480
  0
VERTEX
  8
0
  6
CONTINUOUS
 10
4.674560
 20
2.618880
  0
SEQEND
  8
0
  0
SOLID
  8
0
 62
    15
 10
6.073760
 20
3.636160
 11
6.717040
 21
3.266120
 12
6.057040
 22
3.523960
 13
6.699880
 23
3.153480
  0
POLYLINE
  8
0
  6
CONTINUOUS
 66
     1
 40
0.000000
 41
0.000000
  0
VERTEX
  8
0
  6
CONTINUOUS
 10
6.073760
 20
3.636160
  0
VERTEX
  8
0
  6
CONTINUOUS
 10
6.717040
 20
3.266120
  0
VERTEX
  8
0
  6
CONTINUOUS
 10
6.699880
 20
3.153480
  0
VERTEX
  8
0
  6
CONTINUOUS
 10
6.057040
 20
3.523960
  0
VERTEX
  8
0
  6
CONTINUOUS
 10
6.073760
 20
3.636160
  0
SEQEND
  8
0
  0
SOLID
  8
0
 62
    15
 10
6.057040
 20
3.523960
 11
6.699880
 21
3.153480
 12
5.994120
 22
3.424960
 13
6.637400
 23
3.054920
  0
POLYLINE
  8
0
  6
CONTINUOUS
 66
     1
 40
0.000000
 41
0.000000
  0
VERTEX
  8
0
  6
CONTINUOUS
 10
6.057040
 20
3.523960
  0
VERTEX
  8
0
  6
CONTINUOUS
 10
6.699880
 20
3.153480
  0
VERTEX
  8
0
  6
CONTINUOUS
 10
6.637400
 20
3.054920
  0
VERTEX
  8
0
  6
CONTINUOUS
 10
5.994120
 20
3.424960
  0
VERTEX
  8
0
  6
CONTINUOUS
 10
6.057040
 20
3.523960
  0
SEQEND
  8
0
  0
SOLID
  8
0
 62
    15
 10
5.994120
 20
3.424960
 11
6.637400
 21
3.054920
 12
5.881920
 22
3.334760
 13
6.525200
 23
2.964280
  0
POLYLINE
  8
0
  6
CONTINUOUS
 66
     1
 40
0.000000
 41
0.000000
  0
VERTEX
  8
0
  6
CONTINUOUS
 10
5.994120
 20
3.424960
  0
VERTEX
  8
0
  6
CONTINUOUS
 10
6.637400
 20
3.054920
  0
VERTEX
  8
0
  6
CONTINUOUS
 10
6.525200
 20
2.964280
  0
VERTEX
  8
0
  6
CONTINUOUS
 10
5.881920
 20
3.334760
  0
VERTEX
  8
0
  6
CONTINUOUS
 10
5.994120
 20
3.424960
  0
SEQEND
  8
0
  0
SOLID
  8
0
 62
    15
 10
5.881920
 20
3.334760
 11
6.525200
 21
2.964280
 12
5.822520
 22
3.290320
 13
6.465360
 23
2.919840
  0
POLYLINE
  8
0
  6
CONTINUOUS
 66
     1
 40
0.000000
 41
0.000000
  0
VERTEX
  8
0
  6
CONTINUOUS
 10
5.881920
 20
3.334760
  0
VERTEX
  8
0
  6
CONTINUOUS
 10
6.525200
 20
2.964280
  0
VERTEX
  8
0
  6
CONTINUOUS
 10
6.465360
 20
2.919840
  0
VERTEX
  8
0
  6
CONTINUOUS
 10
5.822520
 20
3.290320
  0
VERTEX
  8
0
  6
CONTINUOUS
 10
5.881920
 20
3.334760
  0
SEQEND
  8
0
  0
SOLID
  8
0
 62
    15
 10
5.822520
 20
3.290320
 11
6.465360
 21
2.919840
 12
5.779840
 22
3.246320
 13
6.422680
 23
2.876280
  0
POLYLINE
  8
0
  6
CONTINUOUS
 66
     1
 40
0.000000
 41
0.000000
  0
VERTEX
  8
0
  6
CONTINUOUS
 10
5.822520
 20
3.290320
  0
VERTEX
  8
0
  6
CONTINUOUS
 10
6.465360
 20
2.919840
  0
VERTEX
  8
0
  6
CONTINUOUS
 10
6.422680
 20
2.876280
  0
VERTEX
  8
0
  6
CONTINUOUS
 10
5.779840
 20
3.246320
  0
VERTEX
  8
0
  6
CONTINUOUS
 10
5.822520
 20
3.290320
  0
SEQEND
  8
0
  0
SOLID
  8
0
 62
    15
 10
5.779840
 20
3.246320
 11
6.422680
 21
2.876280
 12
5.734080
 22
3.167120
 13
6.376920
 23
2.797080
  0
POLYLINE
  8
0
  6
CONTINUOUS
 66
     1
 40
0.000000
 41
0.000000
  0
VERTEX
  8
0
  6
CONTINUOUS
 10
5.779840
 20
3.246320
  0
VERTEX
  8
0
  6
CONTINUOUS
 10
6.422680
 20
2.876280
  0
VERTEX
  8
0
  6
CONTINUOUS
 10
6.376920
 20
2.797080
  0
VERTEX
  8
0
  6
CONTINUOUS
 10
5.734080
 20
3.167120
  0
VERTEX
  8
0
  6
CONTINUOUS
 10
5.779840
 20
3.246320
  0
SEQEND
  8
0
  0
SOLID
  8
0
 62
    15
 10
5.734080
 20
3.167120
 11
6.376920
 21
2.797080
 12
5.722200
 22
3.109920
 13
6.365480
 23
2.739440
  0
POLYLINE
  8
0
  6
CONTINUOUS
 66
     1
 40
0.000000
 41
0.000000
  0
VERTEX
  8
0
  6
CONTINUOUS
 10
5.734080
 20
3.167120
  0
VERTEX
  8
0
  6
CONTINUOUS
 10
6.376920
 20
2.797080
  0
VERTEX
  8
0
  6
CONTINUOUS
 10
6.365480
 20
2.739440
  0
VERTEX
  8
0
  6
CONTINUOUS
 10
5.722200
 20
3.109920
  0
VERTEX
  8
0
  6
CONTINUOUS
 10
5.734080
 20
3.167120
  0
SEQEND
  8
0
  0
SOLID
  8
0
 62
    15
 10
5.722200
 20
3.109920
 11
6.365480
 21
2.739440
 12
5.722200
 22
3.087040
 13
6.365040
 23
2.717000
  0
POLYLINE
  8
0
  6
CONTINUOUS
 66
     1
 40
0.000000
 41
0.000000
  0
VERTEX
  8
0
  6
CONTINUOUS
 10
5.722200
 20
3.109920
  0
VERTEX
  8
0
  6
CONTINUOUS
 10
6.365480
 20
2.739440
  0
VERTEX
  8
0
  6
CONTINUOUS
 10
6.365040
 20
2.717000
  0
VERTEX
  8
0
  6
CONTINUOUS
 10
5.722200
 20
3.087040
  0
VERTEX
  8
0
  6
CONTINUOUS
 10
5.722200
 20
3.109920
  0
SEQEND
  8
0
  0
SOLID
  8
0
 62
    15
 10
5.722200
 20
3.087040
 11
6.365040
 21
2.717000
 12
5.595480
 22
3.057560
 13
6.238320
 23
2.687080
  0
POLYLINE
  8
0
  6
CONTINUOUS
 66
     1
 40
0.000000
 41
0.000000
  0
VERTEX
  8
0
  6
CONTINUOUS
 10
5.722200
 20
3.087040
  0
VERTEX
  8
0
  6
CONTINUOUS
 10
6.365040
 20
2.717000
  0
VERTEX
  8
0
  6
CONTINUOUS
 10
6.238320
 20
2.687080
  0
VERTEX
  8
0
  6
CONTINUOUS
 10
5.595480
 20
3.057560
  0
VERTEX
  8
0
  6
CONTINUOUS
 10
5.722200
 20
3.087040
  0
SEQEND
  8
0
  0
SOLID
  8
0
 62
    15
 10
5.595480
 20
3.057560
 11
6.238320
 21
2.687080
 12
5.654440
 22
2.643960
 13
6.297720
 23
2.273480
  0
POLYLINE
  8
0
  6
CONTINUOUS
 66
     1
 40
0.000000
 41
0.000000
  0
VERTEX
  8
0
  6
CONTINUOUS
 10
5.595480
 20
3.057560
  0
VERTEX
  8
0
  6
CONTINUOUS
 10
6.238320
 20
2.687080
  0
VERTEX
  8
0
  6
CONTINUOUS
 10
6.297720
 20
2.273480
  0
VERTEX
  8
0
  6
CONTINUOUS
 10
5.654440
 20
2.643960
  0
VERTEX
  8
0
  6
CONTINUOUS
 10
5.595480
 20
3.057560
  0
SEQEND
  8
0
  0
SOLID
  8
0
 62
    15
 10
5.039320
 20
2.625040
 11
5.682600
 21
2.254560
 12
4.967600
 22
2.656720
 13
5.610880
 23
2.286240
  0
POLYLINE
  8
0
  6
CONTINUOUS
 66
     1
 40
0.000000
 41
0.000000
  0
VERTEX
  8
0
  6
CONTINUOUS
 10
5.039320
 20
2.625040
  0
VERTEX
  8
0
  6
CONTINUOUS
 10
5.682600
 20
2.254560
  0
VERTEX
  8
0
  6
CONTINUOUS
 10
5.610880
 20
2.286240
  0
VERTEX
  8
0
  6
CONTINUOUS
 10
4.967600
 20
2.656720
  0
VERTEX
  8
0
  6
CONTINUOUS
 10
5.039320
 20
2.625040
  0
SEQEND
  8
0
  0
SOLID
  8
0
 62
    15
 10
4.967600
 20
2.656720
 11
5.610880
 21
2.286240
 12
4.882240
 22
2.671240
 13
5.525520
 23
2.300760
  0
POLYLINE
  8
0
  6
CONTINUOUS
 66
     1
 40
0.000000
 41
0.000000
  0
VERTEX
  8
0
  6
CONTINUOUS
 10
4.967600
 20
2.656720
  0
VERTEX
  8
0
  6
CONTINUOUS
 10
5.610880
 20
2.286240
  0
VERTEX
  8
0
  6
CONTINUOUS
 10
5.525520
 20
2.300760
  0
VERTEX
  8
0
  6
CONTINUOUS
 10
4.882240
 20
2.671240
  0
VERTEX
  8
0
  6
CONTINUOUS
 10
4.967600
 20
2.656720
  0
SEQEND
  8
0
  0
SOLID
  8
0
 62
    15
 10
5.654440
 20
2.643960
 11
6.297720
 21
2.273480
 12
5.137440
 22
2.537920
 13
5.780720
 23
2.167440
  0
POLYLINE
  8
0
  6
CONTINUOUS
 66
     1
 40
0.000000
 41
0.000000
  0
VERTEX
  8
0
  6
CONTINUOUS
 10
5.654440
 20
2.643960
  0
VERTEX
  8
0
  6
CONTINUOUS
 10
6.297720
 20
2.273480
  0
VERTEX
  8
0
  6
CONTINUOUS
 10
5.780720
 20
2.167440
  0
VERTEX
  8
0
  6
CONTINUOUS
 10
5.137440
 20
2.537920
  0
VERTEX
  8
0
  6
CONTINUOUS
 10
5.654440
 20
2.643960
  0
SEQEND
  8
0
  0
SOLID
  8
0
 62
    15
 10
4.882240
 20
2.671240
 11
5.525520
 21
2.300760
 12
4.784560
 22
2.661120
 13
5.427400
 23
2.290640
  0
POLYLINE
  8
0
  6
CONTINUOUS
 66
     1
 40
0.000000
 41
0.000000
  0
VERTEX
  8
0
  6
CONTINUOUS
 10
4.882240
 20
2.671240
  0
VERTEX
  8
0
  6
CONTINUOUS
 10
5.525520
 20
2.300760
  0
VERTEX
  8
0
  6
CONTINUOUS
 10
5.427400
 20
2.290640
  0
VERTEX
  8
0
  6
CONTINUOUS
 10
4.784560
 20
2.661120
  0
VERTEX
  8
0
  6
CONTINUOUS
 10
4.882240
 20
2.671240
  0
SEQEND
  8
0
  0
SOLID
  8
0
 62
    15
 10
4.784560
 20
2.661120
 11
5.427400
 21
2.290640
 12
4.674560
 22
2.618880
 13
5.317840
 23
2.248400
  0
POLYLINE
  8
0
  6
CONTINUOUS
 66
     1
 40
0.000000
 41
0.000000
  0
VERTEX
  8
0
  6
CONTINUOUS
 10
4.784560
 20
2.661120
  0
VERTEX
  8
0
  6
CONTINUOUS
 10
5.427400
 20
2.290640
  0
VERTEX
  8
0
  6
CONTINUOUS
 10
5.317840
 20
2.248400
  0
VERTEX
  8
0
  6
CONTINUOUS
 10
4.674560
 20
2.618880
  0
VERTEX
  8
0
  6
CONTINUOUS
 10
4.784560
 20
2.661120
  0
SEQEND
  8
0
  0
SOLID
  8
0
 62
    15
 10
6.048680
 20
3.768160
 11
6.691520
 21
3.397680
 12
6.073760
 22
3.636160
 13
6.717040
 23
3.266120
  0
POLYLINE
  8
0
  6
CONTINUOUS
 66
     1
 40
0.000000
 41
0.000000
  0
VERTEX
  8
0
  6
CONTINUOUS
 10
6.048680
 20
3.768160
  0
VERTEX
  8
0
  6
CONTINUOUS
 10
6.691520
 20
3.397680
  0
VERTEX
  8
0
  6
CONTINUOUS
 10
6.717040
 20
3.266120
  0
VERTEX
  8
0
  6
CONTINUOUS
 10
6.073760
 20
3.636160
  0
VERTEX
  8
0
  6
CONTINUOUS
 10
6.048680
 20
3.768160
  0
SEQEND
  8
0
  0
SOLID
  8
0
 62
    15
 10
4.554000
 20
2.537480
 11
5.196840
 21
2.167000
 12
4.489760
 22
2.479840
 13
5.133040
 23
2.109800
  0
POLYLINE
  8
0
  6
CONTINUOUS
 66
     1
 40
0.000000
 41
0.000000
  0
VERTEX
  8
0
  6
CONTINUOUS
 10
4.554000
 20
2.537480
  0
VERTEX
  8
0
  6
CONTINUOUS
 10
5.196840
 20
2.167000
  0
VERTEX
  8
0
  6
CONTINUOUS
 10
5.133040
 20
2.109800
  0
VERTEX
  8
0
  6
CONTINUOUS
 10
4.489760
 20
2.479840
  0
VERTEX
  8
0
  6
CONTINUOUS
 10
4.554000
 20
2.537480
  0
SEQEND
  8
0
  0
SOLID
  8
0
 62
    15
 10
4.489760
 20
2.479840
 11
5.133040
 21
2.109800
 12
4.423760
 22
2.409880
 13
5.066600
 23
2.039400
  0
POLYLINE
  8
0
  6
CONTINUOUS
 66
     1
 40
0.000000
 41
0.000000
  0
VERTEX
  8
0
  6
CONTINUOUS
 10
4.489760
 20
2.479840
  0
VERTEX
  8
0
  6
CONTINUOUS
 10
5.133040
 20
2.109800
  0
VERTEX
  8
0
  6
CONTINUOUS
 10
5.066600
 20
2.039400
  0
VERTEX
  8
0
  6
CONTINUOUS
 10
4.423760
 20
2.409880
  0
VERTEX
  8
0
  6
CONTINUOUS
 10
4.489760
 20
2.479840
  0
SEQEND
  8
0
  0
SOLID
  8
0
 62
    15
 10
4.423760
 20
2.409880
 11
5.066600
 21
2.039400
 12
4.283400
 22
2.245320
 13
4.926680
 23
1.875280
  0
POLYLINE
  8
0
  6
CONTINUOUS
 66
     1
 40
0.000000
 41
0.000000
  0
VERTEX
  8
0
  6
CONTINUOUS
 10
4.423760
 20
2.409880
  0
VERTEX
  8
0
  6
CONTINUOUS
 10
5.066600
 20
2.039400
  0
VERTEX
  8
0
  6
CONTINUOUS
 10
4.926680
 20
1.875280
  0
VERTEX
  8
0
  6
CONTINUOUS
 10
4.283400
 20
2.245320
  0
VERTEX
  8
0
  6
CONTINUOUS
 10
4.423760
 20
2.409880
  0
SEQEND
  8
0
  0
SOLID
  8
0
 62
    15
 10
4.283400
 20
2.245320
 11
4.926680
 21
1.875280
 12
4.228840
 22
2.179320
 13
4.871680
 23
1.808840
  0
POLYLINE
  8
0
  6
CONTINUOUS
 66
     1
 40
0.000000
 41
0.000000
  0
VERTEX
  8
0
  6
CONTINUOUS
 10
4.283400
 20
2.245320
  0
VERTEX
  8
0
  6
CONTINUOUS
 10
4.926680
 20
1.875280
  0
VERTEX
  8
0
  6
CONTINUOUS
 10
4.871680
 20
1.808840
  0
VERTEX
  8
0
  6
CONTINUOUS
 10
4.228840
 20
2.179320
  0
VERTEX
  8
0
  6
CONTINUOUS
 10
4.283400
 20
2.245320
  0
SEQEND
  8
0
  0
SOLID
  8
0
 62
    15
 10
4.228840
 20
2.179320
 11
4.871680
 21
1.808840
 12
4.219160
 22
2.168320
 13
4.862440
 23
1.797840
  0
POLYLINE
  8
0
  6
CONTINUOUS
 66
     1
 40
0.000000
 41
0.000000
  0
VERTEX
  8
0
  6
CONTINUOUS
 10
4.228840
 20
2.179320
  0
VERTEX
  8
0
  6
CONTINUOUS
 10
4.871680
 20
1.808840
  0
VERTEX
  8
0
  6
CONTINUOUS
 10
4.862440
 20
1.797840
  0
VERTEX
  8
0
  6
CONTINUOUS
 10
4.219160
 20
2.168320
  0
VERTEX
  8
0
  6
CONTINUOUS
 10
4.228840
 20
2.179320
  0
SEQEND
  8
0
  0
SOLID
  8
0
 62
    15
 10
4.219160
 20
2.168320
 11
4.862440
 21
1.797840
 12
4.172520
 22
2.111560
 13
4.815360
 23
1.741080
  0
POLYLINE
  8
0
  6
CONTINUOUS
 66
     1
 40
0.000000
 41
0.000000
  0
VERTEX
  8
0
  6
CONTINUOUS
 10
4.219160
 20
2.168320
  0
VERTEX
  8
0
  6
CONTINUOUS
 10
4.862440
 20
1.797840
  0
VERTEX
  8
0
  6
CONTINUOUS
 10
4.815360
 20
1.741080
  0
VERTEX
  8
0
  6
CONTINUOUS
 10
4.172520
 20
2.111560
  0
VERTEX
  8
0
  6
CONTINUOUS
 10
4.219160
 20
2.168320
  0
SEQEND
  8
0
  0
SOLID
  8
0
 62
    15
 10
4.172520
 20
2.111560
 11
4.815360
 21
1.741080
 12
4.134240
 22
2.065800
 13
4.777520
 23
1.695320
  0
POLYLINE
  8
0
  6
CONTINUOUS
 66
     1
 40
0.000000
 41
0.000000
  0
VERTEX
  8
0
  6
CONTINUOUS
 10
4.172520
 20
2.111560
  0
VERTEX
  8
0
  6
CONTINUOUS
 10
4.815360
 20
1.741080
  0
VERTEX
  8
0
  6
CONTINUOUS
 10
4.777520
 20
1.695320
  0
VERTEX
  8
0
  6
CONTINUOUS
 10
4.134240
 20
2.065800
  0
VERTEX
  8
0
  6
CONTINUOUS
 10
4.172520
 20
2.111560
  0
SEQEND
  8
0
  0
SOLID
  8
0
 62
    15
 10
4.134240
 20
2.065800
 11
4.777520
 21
1.695320
 12
3.813920
 22
1.704120
 13
4.456760
 23
1.333640
  0
POLYLINE
  8
0
  6
CONTINUOUS
 66
     1
 40
0.000000
 41
0.000000
  0
VERTEX
  8
0
  6
CONTINUOUS
 10
4.134240
 20
2.065800
  0
VERTEX
  8
0
  6
CONTINUOUS
 10
4.777520
 20
1.695320
  0
VERTEX
  8
0
  6
CONTINUOUS
 10
4.456760
 20
1.333640
  0
VERTEX
  8
0
  6
CONTINUOUS
 10
3.813920
 20
1.704120
  0
VERTEX
  8
0
  6
CONTINUOUS
 10
4.134240
 20
2.065800
  0
SEQEND
  8
0
  0
SOLID
  8
0
 62
    15
 10
3.813920
 20
1.704120
 11
4.456760
 21
1.333640
 12
3.644960
 22
1.543080
 13
4.288240
 23
1.172600
  0
POLYLINE
  8
0
  6
CONTINUOUS
 66
     1
 40
0.000000
 41
0.000000
  0
VERTEX
  8
0
  6
CONTINUOUS
 10
3.813920
 20
1.704120
  0
VERTEX
  8
0
  6
CONTINUOUS
 10
4.456760
 20
1.333640
  0
VERTEX
  8
0
  6
CONTINUOUS
 10
4.288240
 20
1.172600
  0
VERTEX
  8
0
  6
CONTINUOUS
 10
3.644960
 20
1.543080
  0
VERTEX
  8
0
  6
CONTINUOUS
 10
3.813920
 20
1.704120
  0
SEQEND
  8
0
  0
SOLID
  8
0
 62
    15
 10
3.644960
 20
1.543080
 11
4.288240
 21
1.172600
 12
3.472480
 22
1.409320
 13
4.115760
 23
1.038840
  0
POLYLINE
  8
0
  6
CONTINUOUS
 66
     1
 40
0.000000
 41
0.000000
  0
VERTEX
  8
0
  6
CONTINUOUS
 10
3.644960
 20
1.543080
  0
VERTEX
  8
0
  6
CONTINUOUS
 10
4.288240
 20
1.172600
  0
VERTEX
  8
0
  6
CONTINUOUS
 10
4.115760
 20
1.038840
  0
VERTEX
  8
0
  6
CONTINUOUS
 10
3.472480
 20
1.409320
  0
VERTEX
  8
0
  6
CONTINUOUS
 10
3.644960
 20
1.543080
  0
SEQEND
  8
0
  0
SOLID
  8
0
 62
    15
 10
3.472480
 20
1.409320
 11
4.115760
 21
1.038840
 12
3.297800
 22
1.314280
 13
3.940640
 23
0.943800
  0
POLYLINE
  8
0
  6
CONTINUOUS
 66
     1
 40
0.000000
 41
0.000000
  0
VERTEX
  8
0
  6
CONTINUOUS
 10
3.472480
 20
1.409320
  0
VERTEX
  8
0
  6
CONTINUOUS
 10
4.115760
 20
1.038840
  0
VERTEX
  8
0
  6
CONTINUOUS
 10
3.940640
 20
0.943800
  0
VERTEX
  8
0
  6
CONTINUOUS
 10
3.297800
 20
1.314280
  0
VERTEX
  8
0
  6
CONTINUOUS
 10
3.472480
 20
1.409320
  0
SEQEND
  8
0
  0
SOLID
  8
0
 62
    15
 10
3.297800
 20
1.314280
 11
3.940640
 21
0.943800
 12
3.209800
 22
1.284360
 13
3.853080
 23
0.913880
  0
POLYLINE
  8
0
  6
CONTINUOUS
 66
     1
 40
0.000000
 41
0.000000
  0
VERTEX
  8
0
  6
CONTINUOUS
 10
3.297800
 20
1.314280
  0
VERTEX
  8
0
  6
CONTINUOUS
 10
3.940640
 20
0.943800
  0
VERTEX
  8
0
  6
CONTINUOUS
 10
3.853080
 20
0.913880
  0
VERTEX
  8
0
  6
CONTINUOUS
 10
3.209800
 20
1.284360
  0
VERTEX
  8
0
  6
CONTINUOUS
 10
3.297800
 20
1.314280
  0
SEQEND
  8
0
  0
SOLID
  8
0
 62
    15
 10
3.209800
 20
1.284360
 11
3.853080
 21
0.913880
 12
3.121800
 22
1.267640
 13
3.764640
 23
0.897600
  0
POLYLINE
  8
0
  6
CONTINUOUS
 66
     1
 40
0.000000
 41
0.000000
  0
VERTEX
  8
0
  6
CONTINUOUS
 10
3.209800
 20
1.284360
  0
VERTEX
  8
0
  6
CONTINUOUS
 10
3.853080
 20
0.913880
  0
VERTEX
  8
0
  6
CONTINUOUS
 10
3.764640
 20
0.897600
  0
VERTEX
  8
0
  6
CONTINUOUS
 10
3.121800
 20
1.267640
  0
VERTEX
  8
0
  6
CONTINUOUS
 10
3.209800
 20
1.284360
  0
SEQEND
  8
0
  0
SOLID
  8
0
 62
    15
 10
3.121800
 20
1.267640
 11
3.764640
 21
0.897600
 12
3.089680
 22
1.093400
 13
3.732520
 23
0.722920
  0
POLYLINE
  8
0
  6
CONTINUOUS
 66
     1
 40
0.000000
 41
0.000000
  0
VERTEX
  8
0
  6
CONTINUOUS
 10
3.121800
 20
1.267640
  0
VERTEX
  8
0
  6
CONTINUOUS
 10
3.764640
 20
0.897600
  0
VERTEX
  8
0
  6
CONTINUOUS
 10
3.732520
 20
0.722920
  0
VERTEX
  8
0
  6
CONTINUOUS
 10
3.089680
 20
1.093400
  0
VERTEX
  8
0
  6
CONTINUOUS
 10
3.121800
 20
1.267640
  0
SEQEND
  8
0
  0
SOLID
  8
0
 62
    15
 10
3.089680
 20
1.093400
 11
3.732520
 21
0.722920
 12
2.710400
 22
1.089880
 13
3.353240
 23
0.719400
  0
POLYLINE
  8
0
  6
CONTINUOUS
 66
     1
 40
0.000000
 41
0.000000
  0
VERTEX
  8
0
  6
CONTINUOUS
 10
3.089680
 20
1.093400
  0
VERTEX
  8
0
  6
CONTINUOUS
 10
3.732520
 20
0.722920
  0
VERTEX
  8
0
  6
CONTINUOUS
 10
3.353240
 20
0.719400
  0
VERTEX
  8
0
  6
CONTINUOUS
 10
2.710400
 20
1.089880
  0
VERTEX
  8
0
  6
CONTINUOUS
 10
3.089680
 20
1.093400
  0
SEQEND
  8
0
  0
SOLID
  8
0
 62
    15
 10
2.710400
 20
1.089880
 11
3.353240
 21
0.719400
 12
2.627680
 22
1.090320
 13
3.270520
 23
0.719840
  0
POLYLINE
  8
0
  6
CONTINUOUS
 66
     1
 40
0.000000
 41
0.000000
  0
VERTEX
  8
0
  6
CONTINUOUS
 10
2.710400
 20
1.089880
  0
VERTEX
  8
0
  6
CONTINUOUS
 10
3.353240
 20
0.719400
  0
VERTEX
  8
0
  6
CONTINUOUS
 10
3.270520
 20
0.719840
  0
VERTEX
  8
0
  6
CONTINUOUS
 10
2.627680
 20
1.090320
  0
VERTEX
  8
0
  6
CONTINUOUS
 10
2.710400
 20
1.089880
  0
SEQEND
  8
0
  0
POLYLINE
  8
0
  6
CONTINUOUS
 66
     1
 40
0.000000
 41
0.000000
  0
VERTEX
  8
0
  6
CONTINUOUS
 10
6.048680
 20
3.768160
  0
VERTEX
  8
0
  6
CONTINUOUS
 10
6.073760
 20
3.636160
  0
VERTEX
  8
0
  6
CONTINUOUS
 10
6.057040
 20
3.523960
  0
VERTEX
  8
0
  6
CONTINUOUS
 10
5.994120
 20
3.424960
  0
VERTEX
  8
0
  6
CONTINUOUS
 10
5.881920
 20
3.334760
  0
VERTEX
  8
0
  6
CONTINUOUS
 10
5.822520
 20
3.290320
  0
VERTEX
  8
0
  6
CONTINUOUS
 10
5.779840
 20
3.246320
  0
VERTEX
  8
0
  6
CONTINUOUS
 10
5.734080
 20
3.167120
  0
VERTEX
  8
0
  6
CONTINUOUS
 10
5.722200
 20
3.109920
  0
VERTEX
  8
0
  6
CONTINUOUS
 10
5.722200
 20
3.087040
  0
VERTEX
  8
0
  6
CONTINUOUS
 10
5.595480
 20
3.057560
  0
VERTEX
  8
0
  6
CONTINUOUS
 10
5.654440
 20
2.643960
  0
VERTEX
  8
0
  6
CONTINUOUS
 10
5.137440
 20
2.537920
  0
VERTEX
  8
0
  6
CONTINUOUS
 10
5.096080
 20
2.582800
  0
VERTEX
  8
0
  6
CONTINUOUS
 10
5.039320
 20
2.625040
  0
VERTEX
  8
0
  6
CONTINUOUS
 10
4.967600
 20
2.656720
  0
VERTEX
  8
0
  6
CONTINUOUS
 10
4.882240
 20
2.671240
  0
VERTEX
  8
0
  6
CONTINUOUS
 10
4.784560
 20
2.661120
  0
VERTEX
  8
0
  6
CONTINUOUS
 10
4.674560
 20
2.618880
  0
VERTEX
  8
0
  6
CONTINUOUS
 10
4.554000
 20
2.537480
  0
VERTEX
  8
0
  6
CONTINUOUS
 10
4.489760
 20
2.479840
  0
VERTEX
  8
0
  6
CONTINUOUS
 10
4.423760
 20
2.409880
  0
VERTEX
  8
0
  6
CONTINUOUS
 10
4.283400
 20
2.245320
  0
VERTEX
  8
0
  6
CONTINUOUS
 10
4.228840
 20
2.179320
  0
VERTEX
  8
0
  6
CONTINUOUS
 10
4.219160
 20
2.168320
  0
VERTEX
  8
0
  6
CONTINUOUS
 10
4.172520
 20
2.111560
  0
VERTEX
  8
0
  6
CONTINUOUS
 10
4.134240
 20
2.065800
  0
VERTEX
  8
0
  6
CONTINUOUS
 10
3.813920
 20
1.704120
  0
VERTEX
  8
0
  6
CONTINUOUS
 10
3.644960
 20
1.543080
  0
VERTEX
  8
0
  6
CONTINUOUS
 10
3.472480
 20
1.409320
  0
VERTEX
  8
0
  6
CONTINUOUS
 10
3.297800
 20
1.314280
  0
VERTEX
  8
0
  6
CONTINUOUS
 10
3.209800
 20
1.284360
  0
VERTEX
  8
0
  6
CONTINUOUS
 10
3.121800
 20
1.267640
  0
VERTEX
  8
0
  6
CONTINUOUS
 10
3.089680
 20
1.093400
  0
VERTEX
  8
0
  6
CONTINUOUS
 10
2.710400
 20
1.089880
  0
VERTEX
  8
0
  6
CONTINUOUS
 10
2.627680
 20
1.090320
  0
VERTEX
  8
0
  6
CONTINUOUS
 10
3.007400
 20
2.116400
  0
VERTEX
  8
0
  6
CONTINUOUS
 10
5.730120
 20
3.755840
  0
VERTEX
  8
0
  6
CONTINUOUS
 10
6.048680
 20
3.768160
  0
SEQEND
  8
0
  0
TEXT
  8
0
 10
4.394280
 20
0.906400
 40
0.138061
  1
BA  866
 41
1.000000
  7
SN0
 71
     0
 72
     5
 11
4.985379
 21
0.906400
  0
TEXT
  8
0
 10
4.261400
 20
0.714560
 40
0.138061
  1
1" x 4-5/16"
 41
1.000000
  7
SN0
 71
     0
 72
     5
 11
5.117504
 21
0.714560
  0
ENDSEC
  0
EOF
