  0
SECTION
  2
HEADER
  9
$ACADVER
  1
AC1006
  9
$EXTMIN
 10
3.262160
 20
0.711480
  9
$EXTMAX
 10
5.115880
 20
3.994760
  9
$LTSCALE
 40
0.044000
  9
$PDMODE
 70
    35
  9
$PDSIZE
 40
0.035200
  0
ENDSEC
  0
SECTION
  2
TABLES
  0
TABLE
  2
LTYPE
 70
     9
  0
LTYPE
  2
CONTINUOUS
 70
    64
  3
Solid line
 72
    65
 73
     0
 40
0.000000
  0
LTYPE
  2
DASHED
 70
    64
  3
__ __ __ __ __ __ __ __ __ __ __ __ __ __ __
 72
    65
 73
     2
 40
0.000330
 49
0.000220
 49
-0.000110
  0
LTYPE
  2
HIDDEN
 70
    64
  3
 _ _ _ _ _ _ _ _ _ _ _ _ _ _ _ _ _ _ _ _ _ _
 72
    65
 73
     2
 40
0.000165
 49
0.000110
 49
-0.000055
  0
LTYPE
  2
CENTER
 70
    64
  3
____ _ ____ _ ____ _ ____ _ ____ _ ____ _ ____
 72
    65
 73
     4
 40
0.000880
 49
0.000550
 49
-0.000110
 49
0.000110
 49
-0.000110
  0
LTYPE
  2
PHANTOM
 70
    64
  3
_____ _ _ _____ _ _ _____ _ _ _____ _ _ ____
 72
    65
 73
     6
 40
0.001100
 49
0.000550
 49
-0.000110
 49
0.000110
 49
-0.000110
 49
0.000110
 49
-0.000110
  0
LTYPE
  2
DOT
 70
    64
  3
...............................................
 72
    65
 73
     2
 40
0.000110
 49
0.000000
 49
-0.000110
  0
LTYPE
  2
DASHDOT
 70
    64
  3
__ . __ . __ . __ . __ . __ . __ . __ . __ . __
 72
    65
 73
     4
 40
0.000440
 49
0.000220
 49
-0.000110
 49
0.000000
 49
-0.000110
  0
LTYPE
  2
BORDER
 70
    64
  3
__ __ . __ __ . __ __ . __ __ . __ __ . __ __
 72
    65
 73
     6
 40
0.000770
 49
0.000220
 49
-0.000110
 49
0.000220
 49
-0.000110
 49
0.000000
 49
-0.000110
  0
LTYPE
  2
DIVIDE
 70
    64
  3
__ . . __ . . __ . . __ . . __ . . __ . . __
 72
    65
 73
     6
 40
0.000550
 49
0.000220
 49
-0.000110
 49
0.000000
 49
-0.000110
 49
0.000000
 49
-0.000110
  0
LTYPE
  2
DOTDOT
 70
    64
  3
 . .  . .  . .  . .  . .  . . 
 72
    65
 73
     5
 40
0.000242
 49
-0.000110
 49
0.000000
 49
-0.000110
 49
0.000000
 49
-0.000110
  0
ENDTAB
  0
TABLE
  2
STYLE
 70
     2
  0
STYLE
 70
     0
  2
SN0
 40
0.000000
 41
0.000440
 50
0.000000
 71
     0
 42
0.000000
  3
ROMAND
  0
STYLE
 70
    68
  2
SV0
 40
0.000000
 41
0.000440
 50
0.000000
 71
     0
 42
0.000000
  3
ROMAND
  0
ENDTAB
  0
TABLE
  2
LAYER
 70
     3
  0
LAYER
  2
FOREGROUND
 70
    64
 62
     7
  6
CONTINUOUS
  0
LAYER
  2
BACKGROUND
 70
    65
 62
    -7
  6
CONTINUOUS
  0
LAYER
  2
0
 70
    64
 62
     7
  6
CONTINUOUS
  0
ENDTAB
  0
ENDSEC
  0
SECTION
  2
ENTITIES
  0
POLYLINE
  8
FOREGROUND
  6
CONTINUOUS
 66
     1
 40
0.000000
 41
0.000000
  0
VERTEX
  8
FOREGROUND
  6
CONTINUOUS
 10
0.000000
 20
4.706240
  0
VERTEX
  8
FOREGROUND
  6
CONTINUOUS
 10
8.499920
 20
4.706240
  0
VERTEX
  8
FOREGROUND
  6
CONTINUOUS
 10
8.499920
 20
-6.293760
  0
VERTEX
  8
FOREGROUND
  6
CONTINUOUS
 10
0.000000
 20
-6.293760
  0
VERTEX
  8
FOREGROUND
  6
CONTINUOUS
 10
0.000000
 20
4.706240
  0
SEQEND
  8
0
  0
POLYLINE
  8
FOREGROUND
  6
CONTINUOUS
 66
     1
 40
0.000000
 41
0.000000
  0
VERTEX
  8
FOREGROUND
  6
CONTINUOUS
 10
0.000000
 20
4.706240
  0
VERTEX
  8
FOREGROUND
  6
CONTINUOUS
 10
8.499920
 20
4.706240
  0
VERTEX
  8
FOREGROUND
  6
CONTINUOUS
 10
8.499920
 20
-6.293760
  0
VERTEX
  8
FOREGROUND
  6
CONTINUOUS
 10
0.000000
 20
-6.293760
  0
VERTEX
  8
FOREGROUND
  6
CONTINUOUS
 10
0.000000
 20
4.706240
  0
SEQEND
  8
0
  0
TEXT
  8
0
 10
4.040080
 20
0.946880
 40
0.138149
  1
865
 41
1.000000
  7
SN0
 71
     0
 72
     5
 11
4.317189
 21
0.946880
  0
TEXT
  8
0
 10
3.634840
 20
0.755040
 40
0.138149
  1
15/16" x 1-3/4"
 41
1.000000
  7
SN0
 71
     0
 72
     5
 11
4.720457
 21
0.755040
  0
SOLID
  8
0
 62
    15
 10
4.524520
 20
1.645160
 11
4.526720
 21
2.381720
 12
4.604600
 22
1.642960
 13
4.606800
 23
2.379520
  0
POLYLINE
  8
0
  6
CONTINUOUS
 66
     1
 40
0.000000
 41
0.000000
  0
VERTEX
  8
0
  6
CONTINUOUS
 10
4.524520
 20
1.645160
  0
VERTEX
  8
0
  6
CONTINUOUS
 10
4.526720
 20
2.381720
  0
VERTEX
  8
0
  6
CONTINUOUS
 10
4.606800
 20
2.379520
  0
VERTEX
  8
0
  6
CONTINUOUS
 10
4.604600
 20
1.642960
  0
VERTEX
  8
0
  6
CONTINUOUS
 10
4.524520
 20
1.645160
  0
SEQEND
  8
0
  0
SOLID
  8
0
 62
    15
 10
3.854400
 20
2.104960
 11
3.856160
 21
2.841520
 12
3.871120
 22
2.104520
 13
3.872880
 23
2.840640
  0
POLYLINE
  8
0
  6
CONTINUOUS
 66
     1
 40
0.000000
 41
0.000000
  0
VERTEX
  8
0
  6
CONTINUOUS
 10
3.854400
 20
2.104960
  0
VERTEX
  8
0
  6
CONTINUOUS
 10
3.856160
 20
2.841520
  0
VERTEX
  8
0
  6
CONTINUOUS
 10
3.872880
 20
2.840640
  0
VERTEX
  8
0
  6
CONTINUOUS
 10
3.871120
 20
2.104520
  0
VERTEX
  8
0
  6
CONTINUOUS
 10
3.854400
 20
2.104960
  0
SEQEND
  8
0
  0
SOLID
  8
0
 62
    15
 10
3.871120
 20
2.104520
 11
3.872880
 21
2.840640
 12
3.878160
 22
2.016080
 13
3.880360
 23
2.752640
  0
POLYLINE
  8
0
  6
CONTINUOUS
 66
     1
 40
0.000000
 41
0.000000
  0
VERTEX
  8
0
  6
CONTINUOUS
 10
3.871120
 20
2.104520
  0
VERTEX
  8
0
  6
CONTINUOUS
 10
3.872880
 20
2.840640
  0
VERTEX
  8
0
  6
CONTINUOUS
 10
3.880360
 20
2.752640
  0
VERTEX
  8
0
  6
CONTINUOUS
 10
3.878160
 20
2.016080
  0
VERTEX
  8
0
  6
CONTINUOUS
 10
3.871120
 20
2.104520
  0
SEQEND
  8
0
  0
SOLID
  8
0
 62
    15
 10
3.878160
 20
2.016080
 11
3.880360
 21
2.752640
 12
3.891360
 22
1.939960
 13
3.893560
 23
2.676520
  0
POLYLINE
  8
0
  6
CONTINUOUS
 66
     1
 40
0.000000
 41
0.000000
  0
VERTEX
  8
0
  6
CONTINUOUS
 10
3.878160
 20
2.016080
  0
VERTEX
  8
0
  6
CONTINUOUS
 10
3.880360
 20
2.752640
  0
VERTEX
  8
0
  6
CONTINUOUS
 10
3.893560
 20
2.676520
  0
VERTEX
  8
0
  6
CONTINUOUS
 10
3.891360
 20
1.939960
  0
VERTEX
  8
0
  6
CONTINUOUS
 10
3.878160
 20
2.016080
  0
SEQEND
  8
0
  0
SOLID
  8
0
 62
    15
 10
3.891360
 20
1.939960
 11
3.893560
 21
2.676520
 12
3.909840
 22
1.875280
 13
3.912040
 23
2.611840
  0
POLYLINE
  8
0
  6
CONTINUOUS
 66
     1
 40
0.000000
 41
0.000000
  0
VERTEX
  8
0
  6
CONTINUOUS
 10
3.891360
 20
1.939960
  0
VERTEX
  8
0
  6
CONTINUOUS
 10
3.893560
 20
2.676520
  0
VERTEX
  8
0
  6
CONTINUOUS
 10
3.912040
 20
2.611840
  0
VERTEX
  8
0
  6
CONTINUOUS
 10
3.909840
 20
1.875280
  0
VERTEX
  8
0
  6
CONTINUOUS
 10
3.891360
 20
1.939960
  0
SEQEND
  8
0
  0
SOLID
  8
0
 62
    15
 10
3.909840
 20
1.875280
 11
3.912040
 21
2.611840
 12
3.934040
 22
1.821160
 13
3.936240
 23
2.557720
  0
POLYLINE
  8
0
  6
CONTINUOUS
 66
     1
 40
0.000000
 41
0.000000
  0
VERTEX
  8
0
  6
CONTINUOUS
 10
3.909840
 20
1.875280
  0
VERTEX
  8
0
  6
CONTINUOUS
 10
3.912040
 20
2.611840
  0
VERTEX
  8
0
  6
CONTINUOUS
 10
3.936240
 20
2.557720
  0
VERTEX
  8
0
  6
CONTINUOUS
 10
3.934040
 20
1.821160
  0
VERTEX
  8
0
  6
CONTINUOUS
 10
3.909840
 20
1.875280
  0
SEQEND
  8
0
  0
SOLID
  8
0
 62
    15
 10
3.934040
 20
1.821160
 11
3.936240
 21
2.557720
 12
3.963520
 22
1.776720
 13
3.965720
 23
2.512840
  0
POLYLINE
  8
0
  6
CONTINUOUS
 66
     1
 40
0.000000
 41
0.000000
  0
VERTEX
  8
0
  6
CONTINUOUS
 10
3.934040
 20
1.821160
  0
VERTEX
  8
0
  6
CONTINUOUS
 10
3.936240
 20
2.557720
  0
VERTEX
  8
0
  6
CONTINUOUS
 10
3.965720
 20
2.512840
  0
VERTEX
  8
0
  6
CONTINUOUS
 10
3.963520
 20
1.776720
  0
VERTEX
  8
0
  6
CONTINUOUS
 10
3.934040
 20
1.821160
  0
SEQEND
  8
0
  0
SOLID
  8
0
 62
    15
 10
3.963520
 20
1.776720
 11
3.965720
 21
2.512840
 12
3.997840
 22
1.740640
 13
4.000040
 23
2.476760
  0
POLYLINE
  8
0
  6
CONTINUOUS
 66
     1
 40
0.000000
 41
0.000000
  0
VERTEX
  8
0
  6
CONTINUOUS
 10
3.963520
 20
1.776720
  0
VERTEX
  8
0
  6
CONTINUOUS
 10
3.965720
 20
2.512840
  0
VERTEX
  8
0
  6
CONTINUOUS
 10
4.000040
 20
2.476760
  0
VERTEX
  8
0
  6
CONTINUOUS
 10
3.997840
 20
1.740640
  0
VERTEX
  8
0
  6
CONTINUOUS
 10
3.963520
 20
1.776720
  0
SEQEND
  8
0
  0
SOLID
  8
0
 62
    15
 10
3.997840
 20
1.740640
 11
4.000040
 21
2.476760
 12
4.037880
 22
1.712040
 13
4.039640
 23
2.448600
  0
POLYLINE
  8
0
  6
CONTINUOUS
 66
     1
 40
0.000000
 41
0.000000
  0
VERTEX
  8
0
  6
CONTINUOUS
 10
3.997840
 20
1.740640
  0
VERTEX
  8
0
  6
CONTINUOUS
 10
4.000040
 20
2.476760
  0
VERTEX
  8
0
  6
CONTINUOUS
 10
4.039640
 20
2.448600
  0
VERTEX
  8
0
  6
CONTINUOUS
 10
4.037880
 20
1.712040
  0
VERTEX
  8
0
  6
CONTINUOUS
 10
3.997840
 20
1.740640
  0
SEQEND
  8
0
  0
SOLID
  8
0
 62
    15
 10
4.037880
 20
1.712040
 11
4.039640
 21
2.448600
 12
4.082320
 22
1.690040
 13
4.084520
 23
2.426600
  0
POLYLINE
  8
0
  6
CONTINUOUS
 66
     1
 40
0.000000
 41
0.000000
  0
VERTEX
  8
0
  6
CONTINUOUS
 10
4.037880
 20
1.712040
  0
VERTEX
  8
0
  6
CONTINUOUS
 10
4.039640
 20
2.448600
  0
VERTEX
  8
0
  6
CONTINUOUS
 10
4.084520
 20
2.426600
  0
VERTEX
  8
0
  6
CONTINUOUS
 10
4.082320
 20
1.690040
  0
VERTEX
  8
0
  6
CONTINUOUS
 10
4.037880
 20
1.712040
  0
SEQEND
  8
0
  0
SOLID
  8
0
 62
    15
 10
4.082320
 20
1.690040
 11
4.084520
 21
2.426600
 12
4.131600
 22
1.674200
 13
4.133800
 23
2.410320
  0
POLYLINE
  8
0
  6
CONTINUOUS
 66
     1
 40
0.000000
 41
0.000000
  0
VERTEX
  8
0
  6
CONTINUOUS
 10
4.082320
 20
1.690040
  0
VERTEX
  8
0
  6
CONTINUOUS
 10
4.084520
 20
2.426600
  0
VERTEX
  8
0
  6
CONTINUOUS
 10
4.133800
 20
2.410320
  0
VERTEX
  8
0
  6
CONTINUOUS
 10
4.131600
 20
1.674200
  0
VERTEX
  8
0
  6
CONTINUOUS
 10
4.082320
 20
1.690040
  0
SEQEND
  8
0
  0
SOLID
  8
0
 62
    15
 10
4.131600
 20
1.674200
 11
4.133800
 21
2.410320
 12
4.186160
 22
1.662760
 13
4.188360
 23
2.399320
  0
POLYLINE
  8
0
  6
CONTINUOUS
 66
     1
 40
0.000000
 41
0.000000
  0
VERTEX
  8
0
  6
CONTINUOUS
 10
4.131600
 20
1.674200
  0
VERTEX
  8
0
  6
CONTINUOUS
 10
4.133800
 20
2.410320
  0
VERTEX
  8
0
  6
CONTINUOUS
 10
4.188360
 20
2.399320
  0
VERTEX
  8
0
  6
CONTINUOUS
 10
4.186160
 20
1.662760
  0
VERTEX
  8
0
  6
CONTINUOUS
 10
4.131600
 20
1.674200
  0
SEQEND
  8
0
  0
SOLID
  8
0
 62
    15
 10
4.186160
 20
1.662760
 11
4.188360
 21
2.399320
 12
4.245120
 22
1.655280
 13
4.246880
 23
2.391840
  0
POLYLINE
  8
0
  6
CONTINUOUS
 66
     1
 40
0.000000
 41
0.000000
  0
VERTEX
  8
0
  6
CONTINUOUS
 10
4.186160
 20
1.662760
  0
VERTEX
  8
0
  6
CONTINUOUS
 10
4.188360
 20
2.399320
  0
VERTEX
  8
0
  6
CONTINUOUS
 10
4.246880
 20
2.391840
  0
VERTEX
  8
0
  6
CONTINUOUS
 10
4.245120
 20
1.655280
  0
VERTEX
  8
0
  6
CONTINUOUS
 10
4.186160
 20
1.662760
  0
SEQEND
  8
0
  0
SOLID
  8
0
 62
    15
 10
4.245120
 20
1.655280
 11
4.246880
 21
2.391840
 12
4.308480
 22
1.650880
 13
4.310240
 23
2.387000
  0
POLYLINE
  8
0
  6
CONTINUOUS
 66
     1
 40
0.000000
 41
0.000000
  0
VERTEX
  8
0
  6
CONTINUOUS
 10
4.245120
 20
1.655280
  0
VERTEX
  8
0
  6
CONTINUOUS
 10
4.246880
 20
2.391840
  0
VERTEX
  8
0
  6
CONTINUOUS
 10
4.310240
 20
2.387000
  0
VERTEX
  8
0
  6
CONTINUOUS
 10
4.308480
 20
1.650880
  0
VERTEX
  8
0
  6
CONTINUOUS
 10
4.245120
 20
1.655280
  0
SEQEND
  8
0
  0
SOLID
  8
0
 62
    15
 10
4.308480
 20
1.650880
 11
4.310240
 21
2.387000
 12
4.376240
 22
1.648240
 13
4.378440
 23
2.384800
  0
POLYLINE
  8
0
  6
CONTINUOUS
 66
     1
 40
0.000000
 41
0.000000
  0
VERTEX
  8
0
  6
CONTINUOUS
 10
4.308480
 20
1.650880
  0
VERTEX
  8
0
  6
CONTINUOUS
 10
4.310240
 20
2.387000
  0
VERTEX
  8
0
  6
CONTINUOUS
 10
4.378440
 20
2.384800
  0
VERTEX
  8
0
  6
CONTINUOUS
 10
4.376240
 20
1.648240
  0
VERTEX
  8
0
  6
CONTINUOUS
 10
4.308480
 20
1.650880
  0
SEQEND
  8
0
  0
SOLID
  8
0
 62
    15
 10
4.376240
 20
1.648240
 11
4.378440
 21
2.384800
 12
4.448400
 22
1.646480
 13
4.450160
 23
2.383040
  0
POLYLINE
  8
0
  6
CONTINUOUS
 66
     1
 40
0.000000
 41
0.000000
  0
VERTEX
  8
0
  6
CONTINUOUS
 10
4.376240
 20
1.648240
  0
VERTEX
  8
0
  6
CONTINUOUS
 10
4.378440
 20
2.384800
  0
VERTEX
  8
0
  6
CONTINUOUS
 10
4.450160
 20
2.383040
  0
VERTEX
  8
0
  6
CONTINUOUS
 10
4.448400
 20
1.646480
  0
VERTEX
  8
0
  6
CONTINUOUS
 10
4.376240
 20
1.648240
  0
SEQEND
  8
0
  0
SOLID
  8
0
 62
    15
 10
4.448400
 20
1.646480
 11
4.450160
 21
2.383040
 12
4.524520
 22
1.645160
 13
4.526720
 23
2.381720
  0
POLYLINE
  8
0
  6
CONTINUOUS
 66
     1
 40
0.000000
 41
0.000000
  0
VERTEX
  8
0
  6
CONTINUOUS
 10
4.448400
 20
1.646480
  0
VERTEX
  8
0
  6
CONTINUOUS
 10
4.450160
 20
2.383040
  0
VERTEX
  8
0
  6
CONTINUOUS
 10
4.526720
 20
2.381720
  0
VERTEX
  8
0
  6
CONTINUOUS
 10
4.524520
 20
1.645160
  0
VERTEX
  8
0
  6
CONTINUOUS
 10
4.448400
 20
1.646480
  0
SEQEND
  8
0
  0
SOLID
  8
0
 62
    15
 10
3.262600
 20
2.104960
 11
3.264800
 21
2.841520
 12
3.854400
 22
2.104960
 13
3.856160
 23
2.841520
  0
POLYLINE
  8
0
  6
CONTINUOUS
 66
     1
 40
0.000000
 41
0.000000
  0
VERTEX
  8
0
  6
CONTINUOUS
 10
3.262600
 20
2.104960
  0
VERTEX
  8
0
  6
CONTINUOUS
 10
3.264800
 20
2.841520
  0
VERTEX
  8
0
  6
CONTINUOUS
 10
3.856160
 20
2.841520
  0
VERTEX
  8
0
  6
CONTINUOUS
 10
3.854400
 20
2.104960
  0
VERTEX
  8
0
  6
CONTINUOUS
 10
3.262600
 20
2.104960
  0
SEQEND
  8
0
  0
SOLID
  8
0
 62
    15
 10
4.604600
 20
1.642960
 11
4.606800
 21
2.379520
 12
4.634520
 22
1.529880
 13
4.636720
 23
2.266000
  0
POLYLINE
  8
0
  6
CONTINUOUS
 66
     1
 40
0.000000
 41
0.000000
  0
VERTEX
  8
0
  6
CONTINUOUS
 10
4.604600
 20
1.642960
  0
VERTEX
  8
0
  6
CONTINUOUS
 10
4.606800
 20
2.379520
  0
VERTEX
  8
0
  6
CONTINUOUS
 10
4.636720
 20
2.266000
  0
VERTEX
  8
0
  6
CONTINUOUS
 10
4.634520
 20
1.529880
  0
VERTEX
  8
0
  6
CONTINUOUS
 10
4.604600
 20
1.642960
  0
SEQEND
  8
0
  0
SOLID
  8
0
 62
    15
 10
4.634520
 20
1.529880
 11
4.636720
 21
2.266000
 12
4.682040
 22
1.523720
 13
4.684240
 23
2.260280
  0
POLYLINE
  8
0
  6
CONTINUOUS
 66
     1
 40
0.000000
 41
0.000000
  0
VERTEX
  8
0
  6
CONTINUOUS
 10
4.634520
 20
1.529880
  0
VERTEX
  8
0
  6
CONTINUOUS
 10
4.636720
 20
2.266000
  0
VERTEX
  8
0
  6
CONTINUOUS
 10
4.684240
 20
2.260280
  0
VERTEX
  8
0
  6
CONTINUOUS
 10
4.682040
 20
1.523720
  0
VERTEX
  8
0
  6
CONTINUOUS
 10
4.634520
 20
1.529880
  0
SEQEND
  8
0
  0
SOLID
  8
0
 62
    15
 10
4.682040
 20
1.523720
 11
4.684240
 21
2.260280
 12
4.720320
 22
1.507000
 13
4.722080
 23
2.243560
  0
POLYLINE
  8
0
  6
CONTINUOUS
 66
     1
 40
0.000000
 41
0.000000
  0
VERTEX
  8
0
  6
CONTINUOUS
 10
4.682040
 20
1.523720
  0
VERTEX
  8
0
  6
CONTINUOUS
 10
4.684240
 20
2.260280
  0
VERTEX
  8
0
  6
CONTINUOUS
 10
4.722080
 20
2.243560
  0
VERTEX
  8
0
  6
CONTINUOUS
 10
4.720320
 20
1.507000
  0
VERTEX
  8
0
  6
CONTINUOUS
 10
4.682040
 20
1.523720
  0
SEQEND
  8
0
  0
SOLID
  8
0
 62
    15
 10
4.720320
 20
1.507000
 11
4.722080
 21
2.243560
 12
4.752000
 22
1.481920
 13
4.754200
 23
2.218480
  0
POLYLINE
  8
0
  6
CONTINUOUS
 66
     1
 40
0.000000
 41
0.000000
  0
VERTEX
  8
0
  6
CONTINUOUS
 10
4.720320
 20
1.507000
  0
VERTEX
  8
0
  6
CONTINUOUS
 10
4.722080
 20
2.243560
  0
VERTEX
  8
0
  6
CONTINUOUS
 10
4.754200
 20
2.218480
  0
VERTEX
  8
0
  6
CONTINUOUS
 10
4.752000
 20
1.481920
  0
VERTEX
  8
0
  6
CONTINUOUS
 10
4.720320
 20
1.507000
  0
SEQEND
  8
0
  0
SOLID
  8
0
 62
    15
 10
4.752000
 20
1.481920
 11
4.754200
 21
2.218480
 12
4.781040
 22
1.451120
 13
4.783240
 23
2.187680
  0
POLYLINE
  8
0
  6
CONTINUOUS
 66
     1
 40
0.000000
 41
0.000000
  0
VERTEX
  8
0
  6
CONTINUOUS
 10
4.752000
 20
1.481920
  0
VERTEX
  8
0
  6
CONTINUOUS
 10
4.754200
 20
2.218480
  0
VERTEX
  8
0
  6
CONTINUOUS
 10
4.783240
 20
2.187680
  0
VERTEX
  8
0
  6
CONTINUOUS
 10
4.781040
 20
1.451120
  0
VERTEX
  8
0
  6
CONTINUOUS
 10
4.752000
 20
1.481920
  0
SEQEND
  8
0
  0
SOLID
  8
0
 62
    15
 10
4.781040
 20
1.451120
 11
4.783240
 21
2.187680
 12
4.794680
 22
1.433960
 13
4.796880
 23
2.170520
  0
POLYLINE
  8
0
  6
CONTINUOUS
 66
     1
 40
0.000000
 41
0.000000
  0
VERTEX
  8
0
  6
CONTINUOUS
 10
4.781040
 20
1.451120
  0
VERTEX
  8
0
  6
CONTINUOUS
 10
4.783240
 20
2.187680
  0
VERTEX
  8
0
  6
CONTINUOUS
 10
4.796880
 20
2.170520
  0
VERTEX
  8
0
  6
CONTINUOUS
 10
4.794680
 20
1.433960
  0
VERTEX
  8
0
  6
CONTINUOUS
 10
4.781040
 20
1.451120
  0
SEQEND
  8
0
  0
SOLID
  8
0
 62
    15
 10
4.794680
 20
1.433960
 11
4.796880
 21
2.170520
 12
4.808760
 22
1.416800
 13
4.810960
 23
2.152920
  0
POLYLINE
  8
0
  6
CONTINUOUS
 66
     1
 40
0.000000
 41
0.000000
  0
VERTEX
  8
0
  6
CONTINUOUS
 10
4.794680
 20
1.433960
  0
VERTEX
  8
0
  6
CONTINUOUS
 10
4.796880
 20
2.170520
  0
VERTEX
  8
0
  6
CONTINUOUS
 10
4.810960
 20
2.152920
  0
VERTEX
  8
0
  6
CONTINUOUS
 10
4.808760
 20
1.416800
  0
VERTEX
  8
0
  6
CONTINUOUS
 10
4.794680
 20
1.433960
  0
SEQEND
  8
0
  0
SOLID
  8
0
 62
    15
 10
4.808760
 20
1.416800
 11
4.810960
 21
2.152920
 12
4.838680
 22
1.381600
 13
4.840880
 23
2.118160
  0
POLYLINE
  8
0
  6
CONTINUOUS
 66
     1
 40
0.000000
 41
0.000000
  0
VERTEX
  8
0
  6
CONTINUOUS
 10
4.808760
 20
1.416800
  0
VERTEX
  8
0
  6
CONTINUOUS
 10
4.810960
 20
2.152920
  0
VERTEX
  8
0
  6
CONTINUOUS
 10
4.840880
 20
2.118160
  0
VERTEX
  8
0
  6
CONTINUOUS
 10
4.838680
 20
1.381600
  0
VERTEX
  8
0
  6
CONTINUOUS
 10
4.808760
 20
1.416800
  0
SEQEND
  8
0
  0
SOLID
  8
0
 62
    15
 10
4.838680
 20
1.381600
 11
4.840880
 21
2.118160
 12
4.875200
 22
1.349480
 13
4.877400
 23
2.086040
  0
POLYLINE
  8
0
  6
CONTINUOUS
 66
     1
 40
0.000000
 41
0.000000
  0
VERTEX
  8
0
  6
CONTINUOUS
 10
4.838680
 20
1.381600
  0
VERTEX
  8
0
  6
CONTINUOUS
 10
4.840880
 20
2.118160
  0
VERTEX
  8
0
  6
CONTINUOUS
 10
4.877400
 20
2.086040
  0
VERTEX
  8
0
  6
CONTINUOUS
 10
4.875200
 20
1.349480
  0
VERTEX
  8
0
  6
CONTINUOUS
 10
4.838680
 20
1.381600
  0
SEQEND
  8
0
  0
SOLID
  8
0
 62
    15
 10
4.875200
 20
1.349480
 11
4.877400
 21
2.086040
 12
4.922280
 22
1.323960
 13
4.924480
 23
2.060080
  0
POLYLINE
  8
0
  6
CONTINUOUS
 66
     1
 40
0.000000
 41
0.000000
  0
VERTEX
  8
0
  6
CONTINUOUS
 10
4.875200
 20
1.349480
  0
VERTEX
  8
0
  6
CONTINUOUS
 10
4.877400
 20
2.086040
  0
VERTEX
  8
0
  6
CONTINUOUS
 10
4.924480
 20
2.060080
  0
VERTEX
  8
0
  6
CONTINUOUS
 10
4.922280
 20
1.323960
  0
VERTEX
  8
0
  6
CONTINUOUS
 10
4.875200
 20
1.349480
  0
SEQEND
  8
0
  0
SOLID
  8
0
 62
    15
 10
4.922280
 20
1.323960
 11
4.924480
 21
2.060080
 12
4.946920
 22
1.312520
 13
4.949120
 23
2.049080
  0
POLYLINE
  8
0
  6
CONTINUOUS
 66
     1
 40
0.000000
 41
0.000000
  0
VERTEX
  8
0
  6
CONTINUOUS
 10
4.922280
 20
1.323960
  0
VERTEX
  8
0
  6
CONTINUOUS
 10
4.924480
 20
2.060080
  0
VERTEX
  8
0
  6
CONTINUOUS
 10
4.949120
 20
2.049080
  0
VERTEX
  8
0
  6
CONTINUOUS
 10
4.946920
 20
1.312520
  0
VERTEX
  8
0
  6
CONTINUOUS
 10
4.922280
 20
1.323960
  0
SEQEND
  8
0
  0
SOLID
  8
0
 62
    15
 10
4.946920
 20
1.312520
 11
4.949120
 21
2.049080
 12
4.966280
 22
1.300200
 13
4.968480
 23
2.036760
  0
POLYLINE
  8
0
  6
CONTINUOUS
 66
     1
 40
0.000000
 41
0.000000
  0
VERTEX
  8
0
  6
CONTINUOUS
 10
4.946920
 20
1.312520
  0
VERTEX
  8
0
  6
CONTINUOUS
 10
4.949120
 20
2.049080
  0
VERTEX
  8
0
  6
CONTINUOUS
 10
4.968480
 20
2.036760
  0
VERTEX
  8
0
  6
CONTINUOUS
 10
4.966280
 20
1.300200
  0
VERTEX
  8
0
  6
CONTINUOUS
 10
4.946920
 20
1.312520
  0
SEQEND
  8
0
  0
SOLID
  8
0
 62
    15
 10
4.966280
 20
1.300200
 11
4.968480
 21
2.036760
 12
4.981680
 22
1.286120
 13
4.983440
 23
2.022680
  0
POLYLINE
  8
0
  6
CONTINUOUS
 66
     1
 40
0.000000
 41
0.000000
  0
VERTEX
  8
0
  6
CONTINUOUS
 10
4.966280
 20
1.300200
  0
VERTEX
  8
0
  6
CONTINUOUS
 10
4.968480
 20
2.036760
  0
VERTEX
  8
0
  6
CONTINUOUS
 10
4.983440
 20
2.022680
  0
VERTEX
  8
0
  6
CONTINUOUS
 10
4.981680
 20
1.286120
  0
VERTEX
  8
0
  6
CONTINUOUS
 10
4.966280
 20
1.300200
  0
SEQEND
  8
0
  0
SOLID
  8
0
 62
    15
 10
4.981680
 20
1.286120
 11
4.983440
 21
2.022680
 12
4.992680
 22
1.270280
 13
4.994880
 23
2.006840
  0
POLYLINE
  8
0
  6
CONTINUOUS
 66
     1
 40
0.000000
 41
0.000000
  0
VERTEX
  8
0
  6
CONTINUOUS
 10
4.981680
 20
1.286120
  0
VERTEX
  8
0
  6
CONTINUOUS
 10
4.983440
 20
2.022680
  0
VERTEX
  8
0
  6
CONTINUOUS
 10
4.994880
 20
2.006840
  0
VERTEX
  8
0
  6
CONTINUOUS
 10
4.992680
 20
1.270280
  0
VERTEX
  8
0
  6
CONTINUOUS
 10
4.981680
 20
1.286120
  0
SEQEND
  8
0
  0
SOLID
  8
0
 62
    15
 10
5.005000
 20
1.230680
 11
5.007200
 21
1.967240
 12
5.007200
 22
1.179200
 13
5.009400
 23
1.915320
  0
POLYLINE
  8
0
  6
CONTINUOUS
 66
     1
 40
0.000000
 41
0.000000
  0
VERTEX
  8
0
  6
CONTINUOUS
 10
5.005000
 20
1.230680
  0
VERTEX
  8
0
  6
CONTINUOUS
 10
5.007200
 20
1.967240
  0
VERTEX
  8
0
  6
CONTINUOUS
 10
5.009400
 20
1.915320
  0
VERTEX
  8
0
  6
CONTINUOUS
 10
5.007200
 20
1.179200
  0
VERTEX
  8
0
  6
CONTINUOUS
 10
5.005000
 20
1.230680
  0
SEQEND
  8
0
  0
SOLID
  8
0
 62
    15
 10
4.992680
 20
1.270280
 11
4.994880
 21
2.006840
 12
5.005000
 22
1.230680
 13
5.007200
 23
1.967240
  0
POLYLINE
  8
0
  6
CONTINUOUS
 66
     1
 40
0.000000
 41
0.000000
  0
VERTEX
  8
0
  6
CONTINUOUS
 10
4.992680
 20
1.270280
  0
VERTEX
  8
0
  6
CONTINUOUS
 10
4.994880
 20
2.006840
  0
VERTEX
  8
0
  6
CONTINUOUS
 10
5.007200
 20
1.967240
  0
VERTEX
  8
0
  6
CONTINUOUS
 10
5.005000
 20
1.230680
  0
VERTEX
  8
0
  6
CONTINUOUS
 10
4.992680
 20
1.270280
  0
SEQEND
  8
0
  0
SOLID
  8
0
 62
    15
 10
3.774760
 20
1.174800
 11
3.776520
 21
1.910920
 12
3.831960
 22
1.176560
 13
3.833720
 23
1.913120
  0
POLYLINE
  8
0
  6
CONTINUOUS
 66
     1
 40
0.000000
 41
0.000000
  0
VERTEX
  8
0
  6
CONTINUOUS
 10
3.774760
 20
1.174800
  0
VERTEX
  8
0
  6
CONTINUOUS
 10
3.776520
 20
1.910920
  0
VERTEX
  8
0
  6
CONTINUOUS
 10
3.833720
 20
1.913120
  0
VERTEX
  8
0
  6
CONTINUOUS
 10
3.831960
 20
1.176560
  0
VERTEX
  8
0
  6
CONTINUOUS
 10
3.774760
 20
1.174800
  0
SEQEND
  8
0
  0
POLYLINE
  8
0
  6
CONTINUOUS
 66
     1
 40
0.000000
 41
0.000000
  0
VERTEX
  8
0
  6
CONTINUOUS
 10
3.831960
 20
1.176560
  0
VERTEX
  8
0
  6
CONTINUOUS
 10
3.262600
 20
1.176560
  0
VERTEX
  8
0
  6
CONTINUOUS
 10
3.262600
 20
2.104960
  0
VERTEX
  8
0
  6
CONTINUOUS
 10
3.854400
 20
2.104960
  0
VERTEX
  8
0
  6
CONTINUOUS
 10
3.871120
 20
2.104520
  0
VERTEX
  8
0
  6
CONTINUOUS
 10
3.878160
 20
2.016080
  0
VERTEX
  8
0
  6
CONTINUOUS
 10
3.891360
 20
1.939960
  0
VERTEX
  8
0
  6
CONTINUOUS
 10
3.909840
 20
1.875280
  0
VERTEX
  8
0
  6
CONTINUOUS
 10
3.934040
 20
1.821160
  0
VERTEX
  8
0
  6
CONTINUOUS
 10
3.963520
 20
1.776720
  0
VERTEX
  8
0
  6
CONTINUOUS
 10
3.997840
 20
1.740640
  0
VERTEX
  8
0
  6
CONTINUOUS
 10
4.037880
 20
1.712040
  0
VERTEX
  8
0
  6
CONTINUOUS
 10
4.082320
 20
1.690040
  0
VERTEX
  8
0
  6
CONTINUOUS
 10
4.131600
 20
1.674200
  0
VERTEX
  8
0
  6
CONTINUOUS
 10
4.186160
 20
1.662760
  0
VERTEX
  8
0
  6
CONTINUOUS
 10
4.245120
 20
1.655280
  0
VERTEX
  8
0
  6
CONTINUOUS
 10
4.308480
 20
1.650880
  0
VERTEX
  8
0
  6
CONTINUOUS
 10
4.376240
 20
1.648240
  0
VERTEX
  8
0
  6
CONTINUOUS
 10
4.448400
 20
1.646480
  0
VERTEX
  8
0
  6
CONTINUOUS
 10
4.524520
 20
1.645160
  0
VERTEX
  8
0
  6
CONTINUOUS
 10
4.604600
 20
1.642960
  0
VERTEX
  8
0
  6
CONTINUOUS
 10
4.634520
 20
1.529880
  0
VERTEX
  8
0
  6
CONTINUOUS
 10
4.682040
 20
1.523720
  0
VERTEX
  8
0
  6
CONTINUOUS
 10
4.720320
 20
1.507000
  0
VERTEX
  8
0
  6
CONTINUOUS
 10
4.752000
 20
1.481920
  0
VERTEX
  8
0
  6
CONTINUOUS
 10
4.781040
 20
1.451120
  0
VERTEX
  8
0
  6
CONTINUOUS
 10
4.794680
 20
1.433960
  0
VERTEX
  8
0
  6
CONTINUOUS
 10
4.808760
 20
1.416800
  0
VERTEX
  8
0
  6
CONTINUOUS
 10
4.838680
 20
1.381600
  0
VERTEX
  8
0
  6
CONTINUOUS
 10
4.875200
 20
1.349480
  0
VERTEX
  8
0
  6
CONTINUOUS
 10
4.922280
 20
1.323960
  0
VERTEX
  8
0
  6
CONTINUOUS
 10
4.946920
 20
1.312520
  0
VERTEX
  8
0
  6
CONTINUOUS
 10
4.966280
 20
1.300200
  0
VERTEX
  8
0
  6
CONTINUOUS
 10
4.981680
 20
1.286120
  0
VERTEX
  8
0
  6
CONTINUOUS
 10
4.992680
 20
1.270280
  0
VERTEX
  8
0
  6
CONTINUOUS
 10
5.005000
 20
1.230680
  0
VERTEX
  8
0
  6
CONTINUOUS
 10
5.007200
 20
1.179200
  0
VERTEX
  8
0
  6
CONTINUOUS
 10
5.003680
 20
1.174800
  0
VERTEX
  8
0
  6
CONTINUOUS
 10
3.774760
 20
1.174800
  0
VERTEX
  8
0
  6
CONTINUOUS
 10
3.831960
 20
1.176560
  0
SEQEND
  8
0
  0
POLYLINE
  8
0
  6
CONTINUOUS
 66
     1
 40
0.000000
 41
0.000000
  0
VERTEX
  8
0
  6
CONTINUOUS
 10
3.940200
 20
3.065480
  0
VERTEX
  8
0
  6
CONTINUOUS
 10
3.370840
 20
3.065480
  0
VERTEX
  8
0
  6
CONTINUOUS
 10
3.370840
 20
3.993880
  0
VERTEX
  8
0
  6
CONTINUOUS
 10
3.962640
 20
3.993880
  0
VERTEX
  8
0
  6
CONTINUOUS
 10
3.979360
 20
3.993000
  0
VERTEX
  8
0
  6
CONTINUOUS
 10
3.984200
 20
3.925680
  0
VERTEX
  8
0
  6
CONTINUOUS
 10
3.992560
 20
3.865400
  0
VERTEX
  8
0
  6
CONTINUOUS
 10
4.004000
 20
3.811720
  0
VERTEX
  8
0
  6
CONTINUOUS
 10
4.018520
 20
3.764200
  0
VERTEX
  8
0
  6
CONTINUOUS
 10
4.036120
 20
3.722840
  0
VERTEX
  8
0
  6
CONTINUOUS
 10
4.056360
 20
3.686760
  0
VERTEX
  8
0
  6
CONTINUOUS
 10
4.080120
 20
3.655520
  0
VERTEX
  8
0
  6
CONTINUOUS
 10
4.106520
 20
3.629120
  0
VERTEX
  8
0
  6
CONTINUOUS
 10
4.125440
 20
3.614160
  0
VERTEX
  8
0
  6
CONTINUOUS
 10
4.167680
 20
3.589080
  0
VERTEX
  8
0
  6
CONTINUOUS
 10
4.214760
 20
3.570160
  0
VERTEX
  8
0
  6
CONTINUOUS
 10
4.239840
 20
3.562680
  0
VERTEX
  8
0
  6
CONTINUOUS
 10
4.294400
 20
3.551680
  0
VERTEX
  8
0
  6
CONTINUOUS
 10
4.323000
 20
3.547280
  0
VERTEX
  8
0
  6
CONTINUOUS
 10
4.416720
 20
3.539360
  0
VERTEX
  8
0
  6
CONTINUOUS
 10
4.713280
 20
3.531880
  0
VERTEX
  8
0
  6
CONTINUOUS
 10
4.742760
 20
3.418800
  0
VERTEX
  8
0
  6
CONTINUOUS
 10
4.767840
 20
3.417040
  0
VERTEX
  8
0
  6
CONTINUOUS
 10
4.790280
 20
3.412640
  0
VERTEX
  8
0
  6
CONTINUOUS
 10
4.810080
 20
3.405600
  0
VERTEX
  8
0
  6
CONTINUOUS
 10
4.828560
 20
3.395920
  0
VERTEX
  8
0
  6
CONTINUOUS
 10
4.844840
 20
3.384480
  0
VERTEX
  8
0
  6
CONTINUOUS
 10
4.875200
 20
3.355880
  0
VERTEX
  8
0
  6
CONTINUOUS
 10
4.946920
 20
3.270520
  0
VERTEX
  8
0
  6
CONTINUOUS
 10
4.973320
 20
3.245880
  0
VERTEX
  8
0
  6
CONTINUOUS
 10
5.005440
 20
3.224320
  0
VERTEX
  8
0
  6
CONTINUOUS
 10
5.055160
 20
3.201440
  0
VERTEX
  8
0
  6
CONTINUOUS
 10
5.074520
 20
3.189120
  0
VERTEX
  8
0
  6
CONTINUOUS
 10
5.089920
 20
3.175040
  0
VERTEX
  8
0
  6
CONTINUOUS
 10
5.100920
 20
3.159200
  0
VERTEX
  8
0
  6
CONTINUOUS
 10
5.108400
 20
3.140720
  0
VERTEX
  8
0
  6
CONTINUOUS
 10
5.113240
 20
3.119600
  0
VERTEX
  8
0
  6
CONTINUOUS
 10
5.115440
 20
3.095840
  0
VERTEX
  8
0
  6
CONTINUOUS
 10
5.115440
 20
3.068120
  0
VERTEX
  8
0
  6
CONTINUOUS
 10
5.112360
 20
3.063720
  0
VERTEX
  8
0
  6
CONTINUOUS
 10
3.883000
 20
3.063720
  0
VERTEX
  8
0
  6
CONTINUOUS
 10
3.940200
 20
3.065480
  0
SEQEND
  8
0
  0
TEXT
  8
0
 10
3.943720
 20
3.376560
 40
0.138149
  1
865
 41
1.000000
  7
SN0
 71
     0
 72
     5
 11
4.220829
 21
3.376560
  0
TEXT
  8
0
 10
3.538920
 20
3.184720
 40
0.138149
  1
15/16" x 1-3/4"
 41
1.000000
  7
SN0
 71
     0
 72
     5
 11
4.624537
 21
3.184720
  0
ENDSEC
  0
EOF
