  0
SECTION
  2
HEADER
  9
$ACADVER
  1
AC1006
  9
$EXTMIN
 10
4.860680
 20
0.435600
  9
$EXTMAX
 10
7.913840
 20
2.813800
  9
$LTSCALE
 40
0.044000
  9
$PDMODE
 70
    35
  9
$PDSIZE
 40
0.035200
  0
ENDSEC
  0
SECTION
  2
TABLES
  0
TABLE
  2
LTYPE
 70
     9
  0
LTYPE
  2
CONTINUOUS
 70
    64
  3
Solid line
 72
    65
 73
     0
 40
0.000000
  0
LTYPE
  2
DASHED
 70
    64
  3
__ __ __ __ __ __ __ __ __ __ __ __ __ __ __
 72
    65
 73
     2
 40
0.000330
 49
0.000220
 49
-0.000110
  0
LTYPE
  2
HIDDEN
 70
    64
  3
 _ _ _ _ _ _ _ _ _ _ _ _ _ _ _ _ _ _ _ _ _ _
 72
    65
 73
     2
 40
0.000165
 49
0.000110
 49
-0.000055
  0
LTYPE
  2
CENTER
 70
    64
  3
____ _ ____ _ ____ _ ____ _ ____ _ ____ _ ____
 72
    65
 73
     4
 40
0.000880
 49
0.000550
 49
-0.000110
 49
0.000110
 49
-0.000110
  0
LTYPE
  2
PHANTOM
 70
    64
  3
_____ _ _ _____ _ _ _____ _ _ _____ _ _ ____
 72
    65
 73
     6
 40
0.001100
 49
0.000550
 49
-0.000110
 49
0.000110
 49
-0.000110
 49
0.000110
 49
-0.000110
  0
LTYPE
  2
DOT
 70
    64
  3
...............................................
 72
    65
 73
     2
 40
0.000110
 49
0.000000
 49
-0.000110
  0
LTYPE
  2
DASHDOT
 70
    64
  3
__ . __ . __ . __ . __ . __ . __ . __ . __ . __
 72
    65
 73
     4
 40
0.000440
 49
0.000220
 49
-0.000110
 49
0.000000
 49
-0.000110
  0
LTYPE
  2
BORDER
 70
    64
  3
__ __ . __ __ . __ __ . __ __ . __ __ . __ __
 72
    65
 73
     6
 40
0.000770
 49
0.000220
 49
-0.000110
 49
0.000220
 49
-0.000110
 49
0.000000
 49
-0.000110
  0
LTYPE
  2
DIVIDE
 70
    64
  3
__ . . __ . . __ . . __ . . __ . . __ . . __
 72
    65
 73
     6
 40
0.000550
 49
0.000220
 49
-0.000110
 49
0.000000
 49
-0.000110
 49
0.000000
 49
-0.000110
  0
LTYPE
  2
DOTDOT
 70
    64
  3
 . .  . .  . .  . .  . .  . . 
 72
    65
 73
     5
 40
0.000242
 49
-0.000110
 49
0.000000
 49
-0.000110
 49
0.000000
 49
-0.000110
  0
ENDTAB
  0
TABLE
  2
STYLE
 70
     2
  0
STYLE
 70
     0
  2
SN0
 40
0.000000
 41
0.000440
 50
0.000000
 71
     0
 42
0.000000
  3
ROMAND
  0
STYLE
 70
    68
  2
SV0
 40
0.000000
 41
0.000440
 50
0.000000
 71
     0
 42
0.000000
  3
ROMAND
  0
ENDTAB
  0
TABLE
  2
LAYER
 70
     3
  0
LAYER
  2
FOREGROUND
 70
    64
 62
     7
  6
CONTINUOUS
  0
LAYER
  2
BACKGROUND
 70
    65
 62
    -7
  6
CONTINUOUS
  0
LAYER
  2
0
 70
    64
 62
     7
  6
CONTINUOUS
  0
ENDTAB
  0
ENDSEC
  0
SECTION
  2
ENTITIES
  0
POLYLINE
  8
FOREGROUND
  6
CONTINUOUS
 66
     1
 40
0.000000
 41
0.000000
  0
VERTEX
  8
FOREGROUND
  6
CONTINUOUS
 10
0.000000
 20
3.249400
  0
VERTEX
  8
FOREGROUND
  6
CONTINUOUS
 10
8.499920
 20
3.249400
  0
VERTEX
  8
FOREGROUND
  6
CONTINUOUS
 10
8.499920
 20
-7.750600
  0
VERTEX
  8
FOREGROUND
  6
CONTINUOUS
 10
0.000000
 20
-7.750600
  0
VERTEX
  8
FOREGROUND
  6
CONTINUOUS
 10
0.000000
 20
3.249400
  0
SEQEND
  8
0
  0
POLYLINE
  8
FOREGROUND
  6
CONTINUOUS
 66
     1
 40
0.000000
 41
0.000000
  0
VERTEX
  8
FOREGROUND
  6
CONTINUOUS
 10
0.000000
 20
3.249400
  0
VERTEX
  8
FOREGROUND
  6
CONTINUOUS
 10
8.499920
 20
3.249400
  0
VERTEX
  8
FOREGROUND
  6
CONTINUOUS
 10
8.499920
 20
-7.750600
  0
VERTEX
  8
FOREGROUND
  6
CONTINUOUS
 10
0.000000
 20
-7.750600
  0
VERTEX
  8
FOREGROUND
  6
CONTINUOUS
 10
0.000000
 20
3.249400
  0
SEQEND
  8
0
  0
SOLID
  8
0
 62
    15
 10
5.198600
 20
1.734480
 11
5.844960
 21
2.105840
 12
5.199480
 22
1.699280
 13
5.845840
 23
2.070640
  0
POLYLINE
  8
0
  6
CONTINUOUS
 66
     1
 40
0.000000
 41
0.000000
  0
VERTEX
  8
0
  6
CONTINUOUS
 10
5.198600
 20
1.734480
  0
VERTEX
  8
0
  6
CONTINUOUS
 10
5.844960
 20
2.105840
  0
VERTEX
  8
0
  6
CONTINUOUS
 10
5.845840
 20
2.070640
  0
VERTEX
  8
0
  6
CONTINUOUS
 10
5.199480
 20
1.699280
  0
VERTEX
  8
0
  6
CONTINUOUS
 10
5.198600
 20
1.734480
  0
SEQEND
  8
0
  0
SOLID
  8
0
 62
    15
 10
4.906440
 20
2.434960
 11
5.552800
 21
2.806320
 12
4.935920
 22
2.428360
 13
5.582280
 23
2.799720
  0
POLYLINE
  8
0
  6
CONTINUOUS
 66
     1
 40
0.000000
 41
0.000000
  0
VERTEX
  8
0
  6
CONTINUOUS
 10
4.906440
 20
2.434960
  0
VERTEX
  8
0
  6
CONTINUOUS
 10
5.552800
 20
2.806320
  0
VERTEX
  8
0
  6
CONTINUOUS
 10
5.582280
 20
2.799720
  0
VERTEX
  8
0
  6
CONTINUOUS
 10
4.935920
 20
2.428360
  0
VERTEX
  8
0
  6
CONTINUOUS
 10
4.906440
 20
2.434960
  0
SEQEND
  8
0
  0
SOLID
  8
0
 62
    15
 10
4.935920
 20
2.428360
 11
5.582280
 21
2.799720
 12
4.960120
 22
2.417800
 13
5.606480
 23
2.789600
  0
POLYLINE
  8
0
  6
CONTINUOUS
 66
     1
 40
0.000000
 41
0.000000
  0
VERTEX
  8
0
  6
CONTINUOUS
 10
4.935920
 20
2.428360
  0
VERTEX
  8
0
  6
CONTINUOUS
 10
5.582280
 20
2.799720
  0
VERTEX
  8
0
  6
CONTINUOUS
 10
5.606480
 20
2.789600
  0
VERTEX
  8
0
  6
CONTINUOUS
 10
4.960120
 20
2.417800
  0
VERTEX
  8
0
  6
CONTINUOUS
 10
4.935920
 20
2.428360
  0
SEQEND
  8
0
  0
SOLID
  8
0
 62
    15
 10
4.960120
 20
2.417800
 11
5.606480
 21
2.789600
 12
4.979480
 22
2.404600
 13
5.625840
 23
2.775960
  0
POLYLINE
  8
0
  6
CONTINUOUS
 66
     1
 40
0.000000
 41
0.000000
  0
VERTEX
  8
0
  6
CONTINUOUS
 10
4.960120
 20
2.417800
  0
VERTEX
  8
0
  6
CONTINUOUS
 10
5.606480
 20
2.789600
  0
VERTEX
  8
0
  6
CONTINUOUS
 10
5.625840
 20
2.775960
  0
VERTEX
  8
0
  6
CONTINUOUS
 10
4.979480
 20
2.404600
  0
VERTEX
  8
0
  6
CONTINUOUS
 10
4.960120
 20
2.417800
  0
SEQEND
  8
0
  0
SOLID
  8
0
 62
    15
 10
4.979480
 20
2.404600
 11
5.625840
 21
2.775960
 12
4.994880
 22
2.389200
 13
5.641240
 23
2.760560
  0
POLYLINE
  8
0
  6
CONTINUOUS
 66
     1
 40
0.000000
 41
0.000000
  0
VERTEX
  8
0
  6
CONTINUOUS
 10
4.979480
 20
2.404600
  0
VERTEX
  8
0
  6
CONTINUOUS
 10
5.625840
 20
2.775960
  0
VERTEX
  8
0
  6
CONTINUOUS
 10
5.641240
 20
2.760560
  0
VERTEX
  8
0
  6
CONTINUOUS
 10
4.994880
 20
2.389200
  0
VERTEX
  8
0
  6
CONTINUOUS
 10
4.979480
 20
2.404600
  0
SEQEND
  8
0
  0
SOLID
  8
0
 62
     7
 10
4.994880
 20
2.389200
 11
5.641240
 21
2.760560
 12
5.006320
 22
2.372040
 13
5.652680
 23
2.743400
  0
POLYLINE
  8
0
  6
CONTINUOUS
 66
     1
 40
0.000000
 41
0.000000
  0
VERTEX
  8
0
  6
CONTINUOUS
 10
4.994880
 20
2.389200
  0
VERTEX
  8
0
  6
CONTINUOUS
 10
5.641240
 20
2.760560
  0
VERTEX
  8
0
  6
CONTINUOUS
 10
5.652680
 20
2.743400
  0
VERTEX
  8
0
  6
CONTINUOUS
 10
5.006320
 20
2.372040
  0
VERTEX
  8
0
  6
CONTINUOUS
 10
4.994880
 20
2.389200
  0
SEQEND
  8
0
  0
SOLID
  8
0
 62
     7
 10
5.006320
 20
2.372040
 11
5.652680
 21
2.743400
 12
5.021280
 22
2.334640
 13
5.667640
 23
2.706440
  0
POLYLINE
  8
0
  6
CONTINUOUS
 66
     1
 40
0.000000
 41
0.000000
  0
VERTEX
  8
0
  6
CONTINUOUS
 10
5.006320
 20
2.372040
  0
VERTEX
  8
0
  6
CONTINUOUS
 10
5.652680
 20
2.743400
  0
VERTEX
  8
0
  6
CONTINUOUS
 10
5.667640
 20
2.706440
  0
VERTEX
  8
0
  6
CONTINUOUS
 10
5.021280
 20
2.334640
  0
VERTEX
  8
0
  6
CONTINUOUS
 10
5.006320
 20
2.372040
  0
SEQEND
  8
0
  0
SOLID
  8
0
 62
     7
 10
5.021280
 20
2.334640
 11
5.667640
 21
2.706440
 12
5.032720
 22
2.295920
 13
5.679080
 23
2.667280
  0
POLYLINE
  8
0
  6
CONTINUOUS
 66
     1
 40
0.000000
 41
0.000000
  0
VERTEX
  8
0
  6
CONTINUOUS
 10
5.021280
 20
2.334640
  0
VERTEX
  8
0
  6
CONTINUOUS
 10
5.667640
 20
2.706440
  0
VERTEX
  8
0
  6
CONTINUOUS
 10
5.679080
 20
2.667280
  0
VERTEX
  8
0
  6
CONTINUOUS
 10
5.032720
 20
2.295920
  0
VERTEX
  8
0
  6
CONTINUOUS
 10
5.021280
 20
2.334640
  0
SEQEND
  8
0
  0
SOLID
  8
0
 62
     7
 10
5.032720
 20
2.295920
 11
5.679080
 21
2.667280
 12
5.050320
 22
2.258080
 13
5.696680
 23
2.629440
  0
POLYLINE
  8
0
  6
CONTINUOUS
 66
     1
 40
0.000000
 41
0.000000
  0
VERTEX
  8
0
  6
CONTINUOUS
 10
5.032720
 20
2.295920
  0
VERTEX
  8
0
  6
CONTINUOUS
 10
5.679080
 20
2.667280
  0
VERTEX
  8
0
  6
CONTINUOUS
 10
5.696680
 20
2.629440
  0
VERTEX
  8
0
  6
CONTINUOUS
 10
5.050320
 20
2.258080
  0
VERTEX
  8
0
  6
CONTINUOUS
 10
5.032720
 20
2.295920
  0
SEQEND
  8
0
  0
SOLID
  8
0
 62
     7
 10
5.050320
 20
2.258080
 11
5.696680
 21
2.629440
 12
5.062640
 22
2.241800
 13
5.709000
 23
2.613160
  0
POLYLINE
  8
0
  6
CONTINUOUS
 66
     1
 40
0.000000
 41
0.000000
  0
VERTEX
  8
0
  6
CONTINUOUS
 10
5.050320
 20
2.258080
  0
VERTEX
  8
0
  6
CONTINUOUS
 10
5.696680
 20
2.629440
  0
VERTEX
  8
0
  6
CONTINUOUS
 10
5.709000
 20
2.613160
  0
VERTEX
  8
0
  6
CONTINUOUS
 10
5.062640
 20
2.241800
  0
VERTEX
  8
0
  6
CONTINUOUS
 10
5.050320
 20
2.258080
  0
SEQEND
  8
0
  0
SOLID
  8
0
 62
    15
 10
5.062640
 20
2.241800
 11
5.709000
 21
2.613160
 12
5.077600
 22
2.228160
 13
5.723960
 23
2.599520
  0
POLYLINE
  8
0
  6
CONTINUOUS
 66
     1
 40
0.000000
 41
0.000000
  0
VERTEX
  8
0
  6
CONTINUOUS
 10
5.062640
 20
2.241800
  0
VERTEX
  8
0
  6
CONTINUOUS
 10
5.709000
 20
2.613160
  0
VERTEX
  8
0
  6
CONTINUOUS
 10
5.723960
 20
2.599520
  0
VERTEX
  8
0
  6
CONTINUOUS
 10
5.077600
 20
2.228160
  0
VERTEX
  8
0
  6
CONTINUOUS
 10
5.062640
 20
2.241800
  0
SEQEND
  8
0
  0
SOLID
  8
0
 62
    15
 10
5.077600
 20
2.228160
 11
5.723960
 21
2.599520
 12
5.096080
 22
2.218040
 13
5.742880
 23
2.589400
  0
POLYLINE
  8
0
  6
CONTINUOUS
 66
     1
 40
0.000000
 41
0.000000
  0
VERTEX
  8
0
  6
CONTINUOUS
 10
5.077600
 20
2.228160
  0
VERTEX
  8
0
  6
CONTINUOUS
 10
5.723960
 20
2.599520
  0
VERTEX
  8
0
  6
CONTINUOUS
 10
5.742880
 20
2.589400
  0
VERTEX
  8
0
  6
CONTINUOUS
 10
5.096080
 20
2.218040
  0
VERTEX
  8
0
  6
CONTINUOUS
 10
5.077600
 20
2.228160
  0
SEQEND
  8
0
  0
SOLID
  8
0
 62
    15
 10
5.096080
 20
2.218040
 11
5.742880
 21
2.589400
 12
5.118960
 22
2.211880
 13
5.765320
 23
2.583680
  0
POLYLINE
  8
0
  6
CONTINUOUS
 66
     1
 40
0.000000
 41
0.000000
  0
VERTEX
  8
0
  6
CONTINUOUS
 10
5.096080
 20
2.218040
  0
VERTEX
  8
0
  6
CONTINUOUS
 10
5.742880
 20
2.589400
  0
VERTEX
  8
0
  6
CONTINUOUS
 10
5.765320
 20
2.583680
  0
VERTEX
  8
0
  6
CONTINUOUS
 10
5.118960
 20
2.211880
  0
VERTEX
  8
0
  6
CONTINUOUS
 10
5.096080
 20
2.218040
  0
SEQEND
  8
0
  0
SOLID
  8
0
 62
    15
 10
5.118960
 20
2.211880
 11
5.765320
 21
2.583680
 12
5.118960
 22
2.143680
 13
5.765320
 23
2.515480
  0
POLYLINE
  8
0
  6
CONTINUOUS
 66
     1
 40
0.000000
 41
0.000000
  0
VERTEX
  8
0
  6
CONTINUOUS
 10
5.118960
 20
2.211880
  0
VERTEX
  8
0
  6
CONTINUOUS
 10
5.765320
 20
2.583680
  0
VERTEX
  8
0
  6
CONTINUOUS
 10
5.765320
 20
2.515480
  0
VERTEX
  8
0
  6
CONTINUOUS
 10
5.118960
 20
2.143680
  0
VERTEX
  8
0
  6
CONTINUOUS
 10
5.118960
 20
2.211880
  0
SEQEND
  8
0
  0
SOLID
  8
0
 62
    15
 10
5.118960
 20
2.143680
 11
5.765320
 21
2.515480
 12
5.168680
 22
2.133120
 13
5.815040
 23
2.504480
  0
POLYLINE
  8
0
  6
CONTINUOUS
 66
     1
 40
0.000000
 41
0.000000
  0
VERTEX
  8
0
  6
CONTINUOUS
 10
5.118960
 20
2.143680
  0
VERTEX
  8
0
  6
CONTINUOUS
 10
5.765320
 20
2.515480
  0
VERTEX
  8
0
  6
CONTINUOUS
 10
5.815040
 20
2.504480
  0
VERTEX
  8
0
  6
CONTINUOUS
 10
5.168680
 20
2.133120
  0
VERTEX
  8
0
  6
CONTINUOUS
 10
5.118960
 20
2.143680
  0
SEQEND
  8
0
  0
SOLID
  8
0
 62
    15
 10
5.168680
 20
2.133120
 11
5.815040
 21
2.504480
 12
5.211360
 22
2.117280
 13
5.858160
 23
2.488640
  0
POLYLINE
  8
0
  6
CONTINUOUS
 66
     1
 40
0.000000
 41
0.000000
  0
VERTEX
  8
0
  6
CONTINUOUS
 10
5.168680
 20
2.133120
  0
VERTEX
  8
0
  6
CONTINUOUS
 10
5.815040
 20
2.504480
  0
VERTEX
  8
0
  6
CONTINUOUS
 10
5.858160
 20
2.488640
  0
VERTEX
  8
0
  6
CONTINUOUS
 10
5.211360
 20
2.117280
  0
VERTEX
  8
0
  6
CONTINUOUS
 10
5.168680
 20
2.133120
  0
SEQEND
  8
0
  0
SOLID
  8
0
 62
    15
 10
5.211360
 20
2.117280
 11
5.858160
 21
2.488640
 12
5.247880
 22
2.096600
 13
5.894240
 23
2.467960
  0
POLYLINE
  8
0
  6
CONTINUOUS
 66
     1
 40
0.000000
 41
0.000000
  0
VERTEX
  8
0
  6
CONTINUOUS
 10
5.211360
 20
2.117280
  0
VERTEX
  8
0
  6
CONTINUOUS
 10
5.858160
 20
2.488640
  0
VERTEX
  8
0
  6
CONTINUOUS
 10
5.894240
 20
2.467960
  0
VERTEX
  8
0
  6
CONTINUOUS
 10
5.247880
 20
2.096600
  0
VERTEX
  8
0
  6
CONTINUOUS
 10
5.211360
 20
2.117280
  0
SEQEND
  8
0
  0
SOLID
  8
0
 62
    15
 10
5.247880
 20
2.096600
 11
5.894240
 21
2.467960
 12
5.277360
 22
2.071960
 13
5.923720
 23
2.443320
  0
POLYLINE
  8
0
  6
CONTINUOUS
 66
     1
 40
0.000000
 41
0.000000
  0
VERTEX
  8
0
  6
CONTINUOUS
 10
5.247880
 20
2.096600
  0
VERTEX
  8
0
  6
CONTINUOUS
 10
5.894240
 20
2.467960
  0
VERTEX
  8
0
  6
CONTINUOUS
 10
5.923720
 20
2.443320
  0
VERTEX
  8
0
  6
CONTINUOUS
 10
5.277360
 20
2.071960
  0
VERTEX
  8
0
  6
CONTINUOUS
 10
5.247880
 20
2.096600
  0
SEQEND
  8
0
  0
SOLID
  8
0
 62
    15
 10
5.277360
 20
2.071960
 11
5.923720
 21
2.443320
 12
5.300680
 22
2.044240
 13
5.947040
 23
2.415600
  0
POLYLINE
  8
0
  6
CONTINUOUS
 66
     1
 40
0.000000
 41
0.000000
  0
VERTEX
  8
0
  6
CONTINUOUS
 10
5.277360
 20
2.071960
  0
VERTEX
  8
0
  6
CONTINUOUS
 10
5.923720
 20
2.443320
  0
VERTEX
  8
0
  6
CONTINUOUS
 10
5.947040
 20
2.415600
  0
VERTEX
  8
0
  6
CONTINUOUS
 10
5.300680
 20
2.044240
  0
VERTEX
  8
0
  6
CONTINUOUS
 10
5.277360
 20
2.071960
  0
SEQEND
  8
0
  0
SOLID
  8
0
 62
     7
 10
5.300680
 20
2.044240
 11
5.947040
 21
2.415600
 12
5.318280
 22
2.013880
 13
5.964640
 23
2.385240
  0
POLYLINE
  8
0
  6
CONTINUOUS
 66
     1
 40
0.000000
 41
0.000000
  0
VERTEX
  8
0
  6
CONTINUOUS
 10
5.300680
 20
2.044240
  0
VERTEX
  8
0
  6
CONTINUOUS
 10
5.947040
 20
2.415600
  0
VERTEX
  8
0
  6
CONTINUOUS
 10
5.964640
 20
2.385240
  0
VERTEX
  8
0
  6
CONTINUOUS
 10
5.318280
 20
2.013880
  0
VERTEX
  8
0
  6
CONTINUOUS
 10
5.300680
 20
2.044240
  0
SEQEND
  8
0
  0
SOLID
  8
0
 62
    15
 10
5.318280
 20
2.013880
 11
5.964640
 21
2.385240
 12
5.329280
 22
1.981760
 13
5.976080
 23
2.353120
  0
POLYLINE
  8
0
  6
CONTINUOUS
 66
     1
 40
0.000000
 41
0.000000
  0
VERTEX
  8
0
  6
CONTINUOUS
 10
5.318280
 20
2.013880
  0
VERTEX
  8
0
  6
CONTINUOUS
 10
5.964640
 20
2.385240
  0
VERTEX
  8
0
  6
CONTINUOUS
 10
5.976080
 20
2.353120
  0
VERTEX
  8
0
  6
CONTINUOUS
 10
5.329280
 20
1.981760
  0
VERTEX
  8
0
  6
CONTINUOUS
 10
5.318280
 20
2.013880
  0
SEQEND
  8
0
  0
SOLID
  8
0
 62
    15
 10
5.329280
 20
1.981760
 11
5.976080
 21
2.353120
 12
5.335000
 22
1.948760
 13
5.981360
 23
2.320120
  0
POLYLINE
  8
0
  6
CONTINUOUS
 66
     1
 40
0.000000
 41
0.000000
  0
VERTEX
  8
0
  6
CONTINUOUS
 10
5.329280
 20
1.981760
  0
VERTEX
  8
0
  6
CONTINUOUS
 10
5.976080
 20
2.353120
  0
VERTEX
  8
0
  6
CONTINUOUS
 10
5.981360
 20
2.320120
  0
VERTEX
  8
0
  6
CONTINUOUS
 10
5.335000
 20
1.948760
  0
VERTEX
  8
0
  6
CONTINUOUS
 10
5.329280
 20
1.981760
  0
SEQEND
  8
0
  0
SOLID
  8
0
 62
    15
 10
5.335000
 20
1.948760
 11
5.981360
 21
2.320120
 12
5.335440
 22
1.915320
 13
5.981800
 23
2.286680
  0
POLYLINE
  8
0
  6
CONTINUOUS
 66
     1
 40
0.000000
 41
0.000000
  0
VERTEX
  8
0
  6
CONTINUOUS
 10
5.335000
 20
1.948760
  0
VERTEX
  8
0
  6
CONTINUOUS
 10
5.981360
 20
2.320120
  0
VERTEX
  8
0
  6
CONTINUOUS
 10
5.981800
 20
2.286680
  0
VERTEX
  8
0
  6
CONTINUOUS
 10
5.335440
 20
1.915320
  0
VERTEX
  8
0
  6
CONTINUOUS
 10
5.335000
 20
1.948760
  0
SEQEND
  8
0
  0
SOLID
  8
0
 62
    15
 10
5.335440
 20
1.915320
 11
5.981800
 21
2.286680
 12
5.330160
 22
1.882320
 13
5.976520
 23
2.253680
  0
POLYLINE
  8
0
  6
CONTINUOUS
 66
     1
 40
0.000000
 41
0.000000
  0
VERTEX
  8
0
  6
CONTINUOUS
 10
5.335440
 20
1.915320
  0
VERTEX
  8
0
  6
CONTINUOUS
 10
5.981800
 20
2.286680
  0
VERTEX
  8
0
  6
CONTINUOUS
 10
5.976520
 20
2.253680
  0
VERTEX
  8
0
  6
CONTINUOUS
 10
5.330160
 20
1.882320
  0
VERTEX
  8
0
  6
CONTINUOUS
 10
5.335440
 20
1.915320
  0
SEQEND
  8
0
  0
SOLID
  8
0
 62
    15
 10
5.330160
 20
1.882320
 11
5.976520
 21
2.253680
 12
5.320040
 22
1.850640
 13
5.966400
 23
2.222000
  0
POLYLINE
  8
0
  6
CONTINUOUS
 66
     1
 40
0.000000
 41
0.000000
  0
VERTEX
  8
0
  6
CONTINUOUS
 10
5.330160
 20
1.882320
  0
VERTEX
  8
0
  6
CONTINUOUS
 10
5.976520
 20
2.253680
  0
VERTEX
  8
0
  6
CONTINUOUS
 10
5.966400
 20
2.222000
  0
VERTEX
  8
0
  6
CONTINUOUS
 10
5.320040
 20
1.850640
  0
VERTEX
  8
0
  6
CONTINUOUS
 10
5.330160
 20
1.882320
  0
SEQEND
  8
0
  0
SOLID
  8
0
 62
    15
 10
5.320040
 20
1.850640
 11
5.966400
 21
2.222000
 12
5.304640
 22
1.820720
 13
5.951000
 23
2.192080
  0
POLYLINE
  8
0
  6
CONTINUOUS
 66
     1
 40
0.000000
 41
0.000000
  0
VERTEX
  8
0
  6
CONTINUOUS
 10
5.320040
 20
1.850640
  0
VERTEX
  8
0
  6
CONTINUOUS
 10
5.966400
 20
2.222000
  0
VERTEX
  8
0
  6
CONTINUOUS
 10
5.951000
 20
2.192080
  0
VERTEX
  8
0
  6
CONTINUOUS
 10
5.304640
 20
1.820720
  0
VERTEX
  8
0
  6
CONTINUOUS
 10
5.320040
 20
1.850640
  0
SEQEND
  8
0
  0
SOLID
  8
0
 62
    15
 10
5.304640
 20
1.820720
 11
5.951000
 21
2.192080
 12
5.284840
 22
1.793440
 13
5.931200
 23
2.164800
  0
POLYLINE
  8
0
  6
CONTINUOUS
 66
     1
 40
0.000000
 41
0.000000
  0
VERTEX
  8
0
  6
CONTINUOUS
 10
5.304640
 20
1.820720
  0
VERTEX
  8
0
  6
CONTINUOUS
 10
5.951000
 20
2.192080
  0
VERTEX
  8
0
  6
CONTINUOUS
 10
5.931200
 20
2.164800
  0
VERTEX
  8
0
  6
CONTINUOUS
 10
5.284840
 20
1.793440
  0
VERTEX
  8
0
  6
CONTINUOUS
 10
5.304640
 20
1.820720
  0
SEQEND
  8
0
  0
SOLID
  8
0
 62
    15
 10
4.871240
 20
2.437160
 11
5.517600
 21
2.808520
 12
4.906440
 22
2.434960
 13
5.552800
 23
2.806320
  0
POLYLINE
  8
0
  6
CONTINUOUS
 66
     1
 40
0.000000
 41
0.000000
  0
VERTEX
  8
0
  6
CONTINUOUS
 10
4.871240
 20
2.437160
  0
VERTEX
  8
0
  6
CONTINUOUS
 10
5.517600
 20
2.808520
  0
VERTEX
  8
0
  6
CONTINUOUS
 10
5.552800
 20
2.806320
  0
VERTEX
  8
0
  6
CONTINUOUS
 10
4.906440
 20
2.434960
  0
VERTEX
  8
0
  6
CONTINUOUS
 10
4.871240
 20
2.437160
  0
SEQEND
  8
0
  0
SOLID
  8
0
 62
    15
 10
5.260200
 20
1.769240
 11
5.906560
 21
2.141040
 12
5.231160
 22
1.749440
 13
5.877960
 23
2.120800
  0
POLYLINE
  8
0
  6
CONTINUOUS
 66
     1
 40
0.000000
 41
0.000000
  0
VERTEX
  8
0
  6
CONTINUOUS
 10
5.260200
 20
1.769240
  0
VERTEX
  8
0
  6
CONTINUOUS
 10
5.906560
 20
2.141040
  0
VERTEX
  8
0
  6
CONTINUOUS
 10
5.877960
 20
2.120800
  0
VERTEX
  8
0
  6
CONTINUOUS
 10
5.231160
 20
1.749440
  0
VERTEX
  8
0
  6
CONTINUOUS
 10
5.260200
 20
1.769240
  0
SEQEND
  8
0
  0
SOLID
  8
0
 62
    15
 10
5.284840
 20
1.793440
 11
5.931200
 21
2.164800
 12
5.260200
 22
1.769240
 13
5.906560
 23
2.141040
  0
POLYLINE
  8
0
  6
CONTINUOUS
 66
     1
 40
0.000000
 41
0.000000
  0
VERTEX
  8
0
  6
CONTINUOUS
 10
5.284840
 20
1.793440
  0
VERTEX
  8
0
  6
CONTINUOUS
 10
5.931200
 20
2.164800
  0
VERTEX
  8
0
  6
CONTINUOUS
 10
5.906560
 20
2.141040
  0
VERTEX
  8
0
  6
CONTINUOUS
 10
5.260200
 20
1.769240
  0
VERTEX
  8
0
  6
CONTINUOUS
 10
5.284840
 20
1.793440
  0
SEQEND
  8
0
  0
SOLID
  8
0
 62
    15
 10
5.199480
 20
1.699280
 11
5.845840
 21
2.070640
 12
5.203440
 22
1.660120
 13
5.849800
 23
2.031480
  0
POLYLINE
  8
0
  6
CONTINUOUS
 66
     1
 40
0.000000
 41
0.000000
  0
VERTEX
  8
0
  6
CONTINUOUS
 10
5.199480
 20
1.699280
  0
VERTEX
  8
0
  6
CONTINUOUS
 10
5.845840
 20
2.070640
  0
VERTEX
  8
0
  6
CONTINUOUS
 10
5.849800
 20
2.031480
  0
VERTEX
  8
0
  6
CONTINUOUS
 10
5.203440
 20
1.660120
  0
VERTEX
  8
0
  6
CONTINUOUS
 10
5.199480
 20
1.699280
  0
SEQEND
  8
0
  0
SOLID
  8
0
 62
    15
 10
5.203440
 20
1.660120
 11
5.849800
 21
2.031480
 12
5.212680
 22
1.618320
 13
5.859040
 23
1.990120
  0
POLYLINE
  8
0
  6
CONTINUOUS
 66
     1
 40
0.000000
 41
0.000000
  0
VERTEX
  8
0
  6
CONTINUOUS
 10
5.203440
 20
1.660120
  0
VERTEX
  8
0
  6
CONTINUOUS
 10
5.849800
 20
2.031480
  0
VERTEX
  8
0
  6
CONTINUOUS
 10
5.859040
 20
1.990120
  0
VERTEX
  8
0
  6
CONTINUOUS
 10
5.212680
 20
1.618320
  0
VERTEX
  8
0
  6
CONTINUOUS
 10
5.203440
 20
1.660120
  0
SEQEND
  8
0
  0
SOLID
  8
0
 62
     7
 10
5.212680
 20
1.618320
 11
5.859040
 21
1.990120
 12
5.228080
 22
1.576080
 13
5.874440
 23
1.947440
  0
POLYLINE
  8
0
  6
CONTINUOUS
 66
     1
 40
0.000000
 41
0.000000
  0
VERTEX
  8
0
  6
CONTINUOUS
 10
5.212680
 20
1.618320
  0
VERTEX
  8
0
  6
CONTINUOUS
 10
5.859040
 20
1.990120
  0
VERTEX
  8
0
  6
CONTINUOUS
 10
5.874440
 20
1.947440
  0
VERTEX
  8
0
  6
CONTINUOUS
 10
5.228080
 20
1.576080
  0
VERTEX
  8
0
  6
CONTINUOUS
 10
5.212680
 20
1.618320
  0
SEQEND
  8
0
  0
SOLID
  8
0
 62
     7
 10
5.228080
 20
1.576080
 11
5.874440
 21
1.947440
 12
5.251840
 22
1.534720
 13
5.898200
 23
1.906080
  0
POLYLINE
  8
0
  6
CONTINUOUS
 66
     1
 40
0.000000
 41
0.000000
  0
VERTEX
  8
0
  6
CONTINUOUS
 10
5.228080
 20
1.576080
  0
VERTEX
  8
0
  6
CONTINUOUS
 10
5.874440
 20
1.947440
  0
VERTEX
  8
0
  6
CONTINUOUS
 10
5.898200
 20
1.906080
  0
VERTEX
  8
0
  6
CONTINUOUS
 10
5.251840
 20
1.534720
  0
VERTEX
  8
0
  6
CONTINUOUS
 10
5.228080
 20
1.576080
  0
SEQEND
  8
0
  0
SOLID
  8
0
 62
     7
 10
5.251840
 20
1.534720
 11
5.898200
 21
1.906080
 12
5.285280
 22
1.496000
 13
5.932080
 23
1.867360
  0
POLYLINE
  8
0
  6
CONTINUOUS
 66
     1
 40
0.000000
 41
0.000000
  0
VERTEX
  8
0
  6
CONTINUOUS
 10
5.251840
 20
1.534720
  0
VERTEX
  8
0
  6
CONTINUOUS
 10
5.898200
 20
1.906080
  0
VERTEX
  8
0
  6
CONTINUOUS
 10
5.932080
 20
1.867360
  0
VERTEX
  8
0
  6
CONTINUOUS
 10
5.285280
 20
1.496000
  0
VERTEX
  8
0
  6
CONTINUOUS
 10
5.251840
 20
1.534720
  0
SEQEND
  8
0
  0
SOLID
  8
0
 62
     7
 10
5.285280
 20
1.496000
 11
5.932080
 21
1.867360
 12
5.306400
 22
1.477960
 13
5.953200
 23
1.849320
  0
POLYLINE
  8
0
  6
CONTINUOUS
 66
     1
 40
0.000000
 41
0.000000
  0
VERTEX
  8
0
  6
CONTINUOUS
 10
5.285280
 20
1.496000
  0
VERTEX
  8
0
  6
CONTINUOUS
 10
5.932080
 20
1.867360
  0
VERTEX
  8
0
  6
CONTINUOUS
 10
5.953200
 20
1.849320
  0
VERTEX
  8
0
  6
CONTINUOUS
 10
5.306400
 20
1.477960
  0
VERTEX
  8
0
  6
CONTINUOUS
 10
5.285280
 20
1.496000
  0
SEQEND
  8
0
  0
SOLID
  8
0
 62
    15
 10
5.306400
 20
1.477960
 11
5.953200
 21
1.849320
 12
5.331040
 22
1.461240
 13
5.977400
 23
1.832600
  0
POLYLINE
  8
0
  6
CONTINUOUS
 66
     1
 40
0.000000
 41
0.000000
  0
VERTEX
  8
0
  6
CONTINUOUS
 10
5.306400
 20
1.477960
  0
VERTEX
  8
0
  6
CONTINUOUS
 10
5.953200
 20
1.849320
  0
VERTEX
  8
0
  6
CONTINUOUS
 10
5.977400
 20
1.832600
  0
VERTEX
  8
0
  6
CONTINUOUS
 10
5.331040
 20
1.461240
  0
VERTEX
  8
0
  6
CONTINUOUS
 10
5.306400
 20
1.477960
  0
SEQEND
  8
0
  0
SOLID
  8
0
 62
    15
 10
5.331040
 20
1.461240
 11
5.977400
 21
1.832600
 12
5.358320
 22
1.446280
 13
6.004680
 23
1.817640
  0
POLYLINE
  8
0
  6
CONTINUOUS
 66
     1
 40
0.000000
 41
0.000000
  0
VERTEX
  8
0
  6
CONTINUOUS
 10
5.331040
 20
1.461240
  0
VERTEX
  8
0
  6
CONTINUOUS
 10
5.977400
 20
1.832600
  0
VERTEX
  8
0
  6
CONTINUOUS
 10
6.004680
 20
1.817640
  0
VERTEX
  8
0
  6
CONTINUOUS
 10
5.358320
 20
1.446280
  0
VERTEX
  8
0
  6
CONTINUOUS
 10
5.331040
 20
1.461240
  0
SEQEND
  8
0
  0
SOLID
  8
0
 62
    15
 10
5.358320
 20
1.446280
 11
6.004680
 21
1.817640
 12
5.389560
 22
1.432640
 13
6.035920
 23
1.804000
  0
POLYLINE
  8
0
  6
CONTINUOUS
 66
     1
 40
0.000000
 41
0.000000
  0
VERTEX
  8
0
  6
CONTINUOUS
 10
5.358320
 20
1.446280
  0
VERTEX
  8
0
  6
CONTINUOUS
 10
6.004680
 20
1.817640
  0
VERTEX
  8
0
  6
CONTINUOUS
 10
6.035920
 20
1.804000
  0
VERTEX
  8
0
  6
CONTINUOUS
 10
5.389560
 20
1.432640
  0
VERTEX
  8
0
  6
CONTINUOUS
 10
5.358320
 20
1.446280
  0
SEQEND
  8
0
  0
SOLID
  8
0
 62
    15
 10
5.389560
 20
1.432640
 11
6.035920
 21
1.804000
 12
5.422120
 22
1.416800
 13
6.068480
 23
1.788160
  0
POLYLINE
  8
0
  6
CONTINUOUS
 66
     1
 40
0.000000
 41
0.000000
  0
VERTEX
  8
0
  6
CONTINUOUS
 10
5.389560
 20
1.432640
  0
VERTEX
  8
0
  6
CONTINUOUS
 10
6.035920
 20
1.804000
  0
VERTEX
  8
0
  6
CONTINUOUS
 10
6.068480
 20
1.788160
  0
VERTEX
  8
0
  6
CONTINUOUS
 10
5.422120
 20
1.416800
  0
VERTEX
  8
0
  6
CONTINUOUS
 10
5.389560
 20
1.432640
  0
SEQEND
  8
0
  0
SOLID
  8
0
 62
    15
 10
5.422120
 20
1.416800
 11
6.068480
 21
1.788160
 12
5.452920
 22
1.395240
 13
6.099280
 23
1.767040
  0
POLYLINE
  8
0
  6
CONTINUOUS
 66
     1
 40
0.000000
 41
0.000000
  0
VERTEX
  8
0
  6
CONTINUOUS
 10
5.422120
 20
1.416800
  0
VERTEX
  8
0
  6
CONTINUOUS
 10
6.068480
 20
1.788160
  0
VERTEX
  8
0
  6
CONTINUOUS
 10
6.099280
 20
1.767040
  0
VERTEX
  8
0
  6
CONTINUOUS
 10
5.452920
 20
1.395240
  0
VERTEX
  8
0
  6
CONTINUOUS
 10
5.422120
 20
1.416800
  0
SEQEND
  8
0
  0
SOLID
  8
0
 62
     7
 10
5.452920
 20
1.395240
 11
6.099280
 21
1.767040
 12
5.481080
 22
1.368840
 13
6.127880
 23
1.740640
  0
POLYLINE
  8
0
  6
CONTINUOUS
 66
     1
 40
0.000000
 41
0.000000
  0
VERTEX
  8
0
  6
CONTINUOUS
 10
5.452920
 20
1.395240
  0
VERTEX
  8
0
  6
CONTINUOUS
 10
6.099280
 20
1.767040
  0
VERTEX
  8
0
  6
CONTINUOUS
 10
6.127880
 20
1.740640
  0
VERTEX
  8
0
  6
CONTINUOUS
 10
5.481080
 20
1.368840
  0
VERTEX
  8
0
  6
CONTINUOUS
 10
5.452920
 20
1.395240
  0
SEQEND
  8
0
  0
SOLID
  8
0
 62
     7
 10
5.481080
 20
1.368840
 11
6.127880
 21
1.740640
 12
5.507040
 22
1.338040
 13
6.153400
 23
1.709840
  0
POLYLINE
  8
0
  6
CONTINUOUS
 66
     1
 40
0.000000
 41
0.000000
  0
VERTEX
  8
0
  6
CONTINUOUS
 10
5.481080
 20
1.368840
  0
VERTEX
  8
0
  6
CONTINUOUS
 10
6.127880
 20
1.740640
  0
VERTEX
  8
0
  6
CONTINUOUS
 10
6.153400
 20
1.709840
  0
VERTEX
  8
0
  6
CONTINUOUS
 10
5.507040
 20
1.338040
  0
VERTEX
  8
0
  6
CONTINUOUS
 10
5.481080
 20
1.368840
  0
SEQEND
  8
0
  0
SOLID
  8
0
 62
     7
 10
5.507040
 20
1.338040
 11
6.153400
 21
1.709840
 12
5.529040
 22
1.304160
 13
6.175400
 23
1.675520
  0
POLYLINE
  8
0
  6
CONTINUOUS
 66
     1
 40
0.000000
 41
0.000000
  0
VERTEX
  8
0
  6
CONTINUOUS
 10
5.507040
 20
1.338040
  0
VERTEX
  8
0
  6
CONTINUOUS
 10
6.153400
 20
1.709840
  0
VERTEX
  8
0
  6
CONTINUOUS
 10
6.175400
 20
1.675520
  0
VERTEX
  8
0
  6
CONTINUOUS
 10
5.529040
 20
1.304160
  0
VERTEX
  8
0
  6
CONTINUOUS
 10
5.507040
 20
1.338040
  0
SEQEND
  8
0
  0
SOLID
  8
0
 62
     7
 10
5.529040
 20
1.304160
 11
6.175400
 21
1.675520
 12
5.546640
 22
1.267200
 13
6.193000
 23
1.638560
  0
POLYLINE
  8
0
  6
CONTINUOUS
 66
     1
 40
0.000000
 41
0.000000
  0
VERTEX
  8
0
  6
CONTINUOUS
 10
5.529040
 20
1.304160
  0
VERTEX
  8
0
  6
CONTINUOUS
 10
6.175400
 20
1.675520
  0
VERTEX
  8
0
  6
CONTINUOUS
 10
6.193000
 20
1.638560
  0
VERTEX
  8
0
  6
CONTINUOUS
 10
5.546640
 20
1.267200
  0
VERTEX
  8
0
  6
CONTINUOUS
 10
5.529040
 20
1.304160
  0
SEQEND
  8
0
  0
SOLID
  8
0
 62
    15
 10
5.546640
 20
1.267200
 11
6.193000
 21
1.638560
 12
5.559840
 22
1.228040
 13
6.206200
 23
1.599840
  0
POLYLINE
  8
0
  6
CONTINUOUS
 66
     1
 40
0.000000
 41
0.000000
  0
VERTEX
  8
0
  6
CONTINUOUS
 10
5.546640
 20
1.267200
  0
VERTEX
  8
0
  6
CONTINUOUS
 10
6.193000
 20
1.638560
  0
VERTEX
  8
0
  6
CONTINUOUS
 10
6.206200
 20
1.599840
  0
VERTEX
  8
0
  6
CONTINUOUS
 10
5.559840
 20
1.228040
  0
VERTEX
  8
0
  6
CONTINUOUS
 10
5.546640
 20
1.267200
  0
SEQEND
  8
0
  0
SOLID
  8
0
 62
    15
 10
5.559840
 20
1.228040
 11
6.206200
 21
1.599840
 12
5.567320
 22
1.188000
 13
6.213680
 23
1.559360
  0
POLYLINE
  8
0
  6
CONTINUOUS
 66
     1
 40
0.000000
 41
0.000000
  0
VERTEX
  8
0
  6
CONTINUOUS
 10
5.559840
 20
1.228040
  0
VERTEX
  8
0
  6
CONTINUOUS
 10
6.206200
 20
1.599840
  0
VERTEX
  8
0
  6
CONTINUOUS
 10
6.213680
 20
1.559360
  0
VERTEX
  8
0
  6
CONTINUOUS
 10
5.567320
 20
1.188000
  0
VERTEX
  8
0
  6
CONTINUOUS
 10
5.559840
 20
1.228040
  0
SEQEND
  8
0
  0
SOLID
  8
0
 62
    15
 10
5.567320
 20
1.188000
 11
6.213680
 21
1.559360
 12
5.568640
 22
1.147520
 13
6.215000
 23
1.518880
  0
POLYLINE
  8
0
  6
CONTINUOUS
 66
     1
 40
0.000000
 41
0.000000
  0
VERTEX
  8
0
  6
CONTINUOUS
 10
5.567320
 20
1.188000
  0
VERTEX
  8
0
  6
CONTINUOUS
 10
6.213680
 20
1.559360
  0
VERTEX
  8
0
  6
CONTINUOUS
 10
6.215000
 20
1.518880
  0
VERTEX
  8
0
  6
CONTINUOUS
 10
5.568640
 20
1.147520
  0
VERTEX
  8
0
  6
CONTINUOUS
 10
5.567320
 20
1.188000
  0
SEQEND
  8
0
  0
SOLID
  8
0
 62
    15
 10
5.568640
 20
1.147520
 11
6.215000
 21
1.518880
 12
5.562920
 22
1.107040
 13
6.209280
 23
1.478400
  0
POLYLINE
  8
0
  6
CONTINUOUS
 66
     1
 40
0.000000
 41
0.000000
  0
VERTEX
  8
0
  6
CONTINUOUS
 10
5.568640
 20
1.147520
  0
VERTEX
  8
0
  6
CONTINUOUS
 10
6.215000
 20
1.518880
  0
VERTEX
  8
0
  6
CONTINUOUS
 10
6.209280
 20
1.478400
  0
VERTEX
  8
0
  6
CONTINUOUS
 10
5.562920
 20
1.107040
  0
VERTEX
  8
0
  6
CONTINUOUS
 10
5.568640
 20
1.147520
  0
SEQEND
  8
0
  0
SOLID
  8
0
 62
    15
 10
5.562920
 20
1.107040
 11
6.209280
 21
1.478400
 12
5.550160
 22
1.067880
 13
6.196520
 23
1.439240
  0
POLYLINE
  8
0
  6
CONTINUOUS
 66
     1
 40
0.000000
 41
0.000000
  0
VERTEX
  8
0
  6
CONTINUOUS
 10
5.562920
 20
1.107040
  0
VERTEX
  8
0
  6
CONTINUOUS
 10
6.209280
 20
1.478400
  0
VERTEX
  8
0
  6
CONTINUOUS
 10
6.196520
 20
1.439240
  0
VERTEX
  8
0
  6
CONTINUOUS
 10
5.550160
 20
1.067880
  0
VERTEX
  8
0
  6
CONTINUOUS
 10
5.562920
 20
1.107040
  0
SEQEND
  8
0
  0
SOLID
  8
0
 62
    15
 10
5.550160
 20
1.067880
 11
6.196520
 21
1.439240
 12
5.529040
 22
1.030040
 13
6.175400
 23
1.401400
  0
POLYLINE
  8
0
  6
CONTINUOUS
 66
     1
 40
0.000000
 41
0.000000
  0
VERTEX
  8
0
  6
CONTINUOUS
 10
5.550160
 20
1.067880
  0
VERTEX
  8
0
  6
CONTINUOUS
 10
6.196520
 20
1.439240
  0
VERTEX
  8
0
  6
CONTINUOUS
 10
6.175400
 20
1.401400
  0
VERTEX
  8
0
  6
CONTINUOUS
 10
5.529040
 20
1.030040
  0
VERTEX
  8
0
  6
CONTINUOUS
 10
5.550160
 20
1.067880
  0
SEQEND
  8
0
  0
SOLID
  8
0
 62
    15
 10
5.350840
 20
0.912560
 11
5.997200
 21
1.283920
 12
5.350840
 22
0.860640
 13
5.997200
 23
1.232000
  0
POLYLINE
  8
0
  6
CONTINUOUS
 66
     1
 40
0.000000
 41
0.000000
  0
VERTEX
  8
0
  6
CONTINUOUS
 10
5.350840
 20
0.912560
  0
VERTEX
  8
0
  6
CONTINUOUS
 10
5.997200
 20
1.283920
  0
VERTEX
  8
0
  6
CONTINUOUS
 10
5.997200
 20
1.232000
  0
VERTEX
  8
0
  6
CONTINUOUS
 10
5.350840
 20
0.860640
  0
VERTEX
  8
0
  6
CONTINUOUS
 10
5.350840
 20
0.912560
  0
SEQEND
  8
0
  0
SOLID
  8
0
 62
    15
 10
5.499120
 20
0.994840
 11
6.145480
 21
1.366640
 12
5.459960
 22
0.963160
 13
6.106320
 23
1.334520
  0
POLYLINE
  8
0
  6
CONTINUOUS
 66
     1
 40
0.000000
 41
0.000000
  0
VERTEX
  8
0
  6
CONTINUOUS
 10
5.499120
 20
0.994840
  0
VERTEX
  8
0
  6
CONTINUOUS
 10
6.145480
 20
1.366640
  0
VERTEX
  8
0
  6
CONTINUOUS
 10
6.106320
 20
1.334520
  0
VERTEX
  8
0
  6
CONTINUOUS
 10
5.459960
 20
0.963160
  0
VERTEX
  8
0
  6
CONTINUOUS
 10
5.499120
 20
0.994840
  0
SEQEND
  8
0
  0
SOLID
  8
0
 62
    15
 10
5.529040
 20
1.030040
 11
6.175400
 21
1.401400
 12
5.499120
 22
0.994840
 13
6.145480
 23
1.366640
  0
POLYLINE
  8
0
  6
CONTINUOUS
 66
     1
 40
0.000000
 41
0.000000
  0
VERTEX
  8
0
  6
CONTINUOUS
 10
5.529040
 20
1.030040
  0
VERTEX
  8
0
  6
CONTINUOUS
 10
6.175400
 20
1.401400
  0
VERTEX
  8
0
  6
CONTINUOUS
 10
6.145480
 20
1.366640
  0
VERTEX
  8
0
  6
CONTINUOUS
 10
5.499120
 20
0.994840
  0
VERTEX
  8
0
  6
CONTINUOUS
 10
5.529040
 20
1.030040
  0
SEQEND
  8
0
  0
SOLID
  8
0
 62
    15
 10
4.861560
 20
2.437160
 11
5.507920
 21
2.808520
 12
4.871240
 22
2.437160
 13
5.517600
 23
2.808520
  0
POLYLINE
  8
0
  6
CONTINUOUS
 66
     1
 40
0.000000
 41
0.000000
  0
VERTEX
  8
0
  6
CONTINUOUS
 10
4.861560
 20
2.437160
  0
VERTEX
  8
0
  6
CONTINUOUS
 10
5.507920
 20
2.808520
  0
VERTEX
  8
0
  6
CONTINUOUS
 10
5.517600
 20
2.808520
  0
VERTEX
  8
0
  6
CONTINUOUS
 10
4.871240
 20
2.437160
  0
VERTEX
  8
0
  6
CONTINUOUS
 10
4.861560
 20
2.437160
  0
SEQEND
  8
0
  0
POLYLINE
  8
0
  6
CONTINUOUS
 66
     1
 40
0.000000
 41
0.000000
  0
VERTEX
  8
0
  6
CONTINUOUS
 10
4.871240
 20
2.437160
  0
VERTEX
  8
0
  6
CONTINUOUS
 10
4.906440
 20
2.434960
  0
VERTEX
  8
0
  6
CONTINUOUS
 10
4.935920
 20
2.428360
  0
VERTEX
  8
0
  6
CONTINUOUS
 10
4.960120
 20
2.417800
  0
VERTEX
  8
0
  6
CONTINUOUS
 10
4.979480
 20
2.404600
  0
VERTEX
  8
0
  6
CONTINUOUS
 10
4.994880
 20
2.389200
  0
VERTEX
  8
0
  6
CONTINUOUS
 10
5.006320
 20
2.372040
  0
VERTEX
  8
0
  6
CONTINUOUS
 10
5.021280
 20
2.334640
  0
VERTEX
  8
0
  6
CONTINUOUS
 10
5.032720
 20
2.295920
  0
VERTEX
  8
0
  6
CONTINUOUS
 10
5.050320
 20
2.258080
  0
VERTEX
  8
0
  6
CONTINUOUS
 10
5.062640
 20
2.241800
  0
VERTEX
  8
0
  6
CONTINUOUS
 10
5.077600
 20
2.228160
  0
VERTEX
  8
0
  6
CONTINUOUS
 10
5.096080
 20
2.218040
  0
VERTEX
  8
0
  6
CONTINUOUS
 10
5.118960
 20
2.211880
  0
VERTEX
  8
0
  6
CONTINUOUS
 10
5.118960
 20
2.143680
  0
VERTEX
  8
0
  6
CONTINUOUS
 10
5.168680
 20
2.133120
  0
VERTEX
  8
0
  6
CONTINUOUS
 10
5.211360
 20
2.117280
  0
VERTEX
  8
0
  6
CONTINUOUS
 10
5.247880
 20
2.096600
  0
VERTEX
  8
0
  6
CONTINUOUS
 10
5.277360
 20
2.071960
  0
VERTEX
  8
0
  6
CONTINUOUS
 10
5.300680
 20
2.044240
  0
VERTEX
  8
0
  6
CONTINUOUS
 10
5.318280
 20
2.013880
  0
VERTEX
  8
0
  6
CONTINUOUS
 10
5.329280
 20
1.981760
  0
VERTEX
  8
0
  6
CONTINUOUS
 10
5.335000
 20
1.948760
  0
VERTEX
  8
0
  6
CONTINUOUS
 10
5.335440
 20
1.915320
  0
VERTEX
  8
0
  6
CONTINUOUS
 10
5.330160
 20
1.882320
  0
VERTEX
  8
0
  6
CONTINUOUS
 10
5.320040
 20
1.850640
  0
VERTEX
  8
0
  6
CONTINUOUS
 10
5.304640
 20
1.820720
  0
VERTEX
  8
0
  6
CONTINUOUS
 10
5.284840
 20
1.793440
  0
VERTEX
  8
0
  6
CONTINUOUS
 10
5.260200
 20
1.769240
  0
VERTEX
  8
0
  6
CONTINUOUS
 10
5.231160
 20
1.749440
  0
VERTEX
  8
0
  6
CONTINUOUS
 10
5.198600
 20
1.734480
  0
VERTEX
  8
0
  6
CONTINUOUS
 10
5.199480
 20
1.699280
  0
VERTEX
  8
0
  6
CONTINUOUS
 10
5.203440
 20
1.660120
  0
VERTEX
  8
0
  6
CONTINUOUS
 10
5.212680
 20
1.618320
  0
VERTEX
  8
0
  6
CONTINUOUS
 10
5.228080
 20
1.576080
  0
VERTEX
  8
0
  6
CONTINUOUS
 10
5.251840
 20
1.534720
  0
VERTEX
  8
0
  6
CONTINUOUS
 10
5.285280
 20
1.496000
  0
VERTEX
  8
0
  6
CONTINUOUS
 10
5.306400
 20
1.477960
  0
VERTEX
  8
0
  6
CONTINUOUS
 10
5.331040
 20
1.461240
  0
VERTEX
  8
0
  6
CONTINUOUS
 10
5.358320
 20
1.446280
  0
VERTEX
  8
0
  6
CONTINUOUS
 10
5.422120
 20
1.416800
  0
VERTEX
  8
0
  6
CONTINUOUS
 10
5.452920
 20
1.395240
  0
VERTEX
  8
0
  6
CONTINUOUS
 10
5.481080
 20
1.368840
  0
VERTEX
  8
0
  6
CONTINUOUS
 10
5.507040
 20
1.338040
  0
VERTEX
  8
0
  6
CONTINUOUS
 10
5.529040
 20
1.304160
  0
VERTEX
  8
0
  6
CONTINUOUS
 10
5.546640
 20
1.267200
  0
VERTEX
  8
0
  6
CONTINUOUS
 10
5.559840
 20
1.228040
  0
VERTEX
  8
0
  6
CONTINUOUS
 10
5.567320
 20
1.188000
  0
VERTEX
  8
0
  6
CONTINUOUS
 10
5.568640
 20
1.147520
  0
VERTEX
  8
0
  6
CONTINUOUS
 10
5.562920
 20
1.107040
  0
VERTEX
  8
0
  6
CONTINUOUS
 10
5.550160
 20
1.067880
  0
VERTEX
  8
0
  6
CONTINUOUS
 10
5.529040
 20
1.030040
  0
VERTEX
  8
0
  6
CONTINUOUS
 10
5.499120
 20
0.994840
  0
VERTEX
  8
0
  6
CONTINUOUS
 10
5.459960
 20
0.963160
  0
VERTEX
  8
0
  6
CONTINUOUS
 10
5.410680
 20
0.935440
  0
VERTEX
  8
0
  6
CONTINUOUS
 10
5.350840
 20
0.912560
  0
VERTEX
  8
0
  6
CONTINUOUS
 10
5.350840
 20
0.860640
  0
VERTEX
  8
0
  6
CONTINUOUS
 10
4.861560
 20
0.860640
  0
VERTEX
  8
0
  6
CONTINUOUS
 10
4.861560
 20
2.437160
  0
VERTEX
  8
0
  6
CONTINUOUS
 10
4.871240
 20
2.437160
  0
SEQEND
  8
0
  0
TEXT
  8
0
 10
5.243920
 20
0.670560
 40
0.138122
  1
BA  864
 41
1.000000
  7
SN0
 71
     0
 72
     5
 11
5.834096
 21
0.670560
  0
TEXT
  8
0
 10
5.087720
 20
0.478720
 40
0.138122
  1
3/4" x 1-5/8"
 41
1.000000
  7
SN0
 71
     0
 72
     5
 11
5.988402
 21
0.478720
  0
POLYLINE
  8
0
  6
CONTINUOUS
 66
     1
 40
0.014080
 41
0.014080
  0
VERTEX
  8
0
  6
CONTINUOUS
 10
7.906800
 20
2.108480
  0
VERTEX
  8
0
  6
CONTINUOUS
 10
7.906360
 20
2.126960
  0
VERTEX
  8
0
  6
CONTINUOUS
 10
7.901520
 20
2.159080
  0
VERTEX
  8
0
  6
CONTINUOUS
 10
7.893160
 20
2.185920
  0
VERTEX
  8
0
  6
CONTINUOUS
 10
7.881280
 20
2.207920
  0
VERTEX
  8
0
  6
CONTINUOUS
 10
7.866760
 20
2.225080
  0
VERTEX
  8
0
  6
CONTINUOUS
 10
7.850480
 20
2.238720
  0
VERTEX
  8
0
  6
CONTINUOUS
 10
7.823200
 20
2.252800
  0
VERTEX
  8
0
  6
CONTINUOUS
 10
7.765120
 20
2.270400
  0
VERTEX
  8
0
  6
CONTINUOUS
 10
7.736520
 20
2.282720
  0
VERTEX
  8
0
  6
CONTINUOUS
 10
7.718920
 20
2.293720
  0
VERTEX
  8
0
  6
CONTINUOUS
 10
7.703960
 20
2.307360
  0
VERTEX
  8
0
  6
CONTINUOUS
 10
7.692080
 20
2.324080
  0
VERTEX
  8
0
  6
CONTINUOUS
 10
7.683720
 20
2.344760
  0
VERTEX
  8
0
  6
CONTINUOUS
 10
7.681520
 20
2.356640
  0
VERTEX
  8
0
  6
CONTINUOUS
 10
7.613320
 20
2.356640
  0
VERTEX
  8
0
  6
CONTINUOUS
 10
7.608920
 20
2.382600
  0
VERTEX
  8
0
  6
CONTINUOUS
 10
7.595280
 20
2.428800
  0
VERTEX
  8
0
  6
CONTINUOUS
 10
7.576800
 20
2.468400
  0
VERTEX
  8
0
  6
CONTINUOUS
 10
7.554360
 20
2.500960
  0
VERTEX
  8
0
  6
CONTINUOUS
 10
7.527960
 20
2.527800
  0
VERTEX
  8
0
  6
CONTINUOUS
 10
7.498480
 20
2.548040
  0
VERTEX
  8
0
  6
CONTINUOUS
 10
7.483080
 20
2.555960
  0
VERTEX
  8
0
  6
CONTINUOUS
 10
7.451400
 20
2.567400
  0
VERTEX
  8
0
  6
CONTINUOUS
 10
7.434680
 20
2.570920
  0
VERTEX
  8
0
  6
CONTINUOUS
 10
7.401240
 20
2.573560
  0
VERTEX
  8
0
  6
CONTINUOUS
 10
7.384960
 20
2.573120
  0
VERTEX
  8
0
  6
CONTINUOUS
 10
7.351960
 20
2.567840
  0
VERTEX
  8
0
  6
CONTINUOUS
 10
7.319840
 20
2.557720
  0
VERTEX
  8
0
  6
CONTINUOUS
 10
7.290360
 20
2.542320
  0
VERTEX
  8
0
  6
CONTINUOUS
 10
7.263080
 20
2.522520
  0
VERTEX
  8
0
  6
CONTINUOUS
 10
7.238880
 20
2.497880
  0
VERTEX
  8
0
  6
CONTINUOUS
 10
7.219080
 20
2.469280
  0
VERTEX
  8
0
  6
CONTINUOUS
 10
7.204120
 20
2.436280
  0
VERTEX
  8
0
  6
CONTINUOUS
 10
7.168920
 20
2.437160
  0
VERTEX
  8
0
  6
CONTINUOUS
 10
7.129760
 20
2.441560
  0
VERTEX
  8
0
  6
CONTINUOUS
 10
7.109080
 20
2.445080
  0
VERTEX
  8
0
  6
CONTINUOUS
 10
7.066840
 20
2.456960
  0
VERTEX
  8
0
  6
CONTINUOUS
 10
7.045720
 20
2.465760
  0
VERTEX
  8
0
  6
CONTINUOUS
 10
7.025040
 20
2.476320
  0
VERTEX
  8
0
  6
CONTINUOUS
 10
6.994240
 20
2.497000
  0
VERTEX
  8
0
  6
CONTINUOUS
 10
6.965640
 20
2.522960
  0
VERTEX
  8
0
  6
CONTINUOUS
 10
6.939240
 20
2.555960
  0
VERTEX
  8
0
  6
CONTINUOUS
 10
6.915920
 20
2.596000
  0
VERTEX
  8
0
  6
CONTINUOUS
 10
6.895240
 20
2.643520
  0
VERTEX
  8
0
  6
CONTINUOUS
 10
6.876320
 20
2.675200
  0
VERTEX
  8
0
  6
CONTINUOUS
 10
6.852560
 20
2.705120
  0
VERTEX
  8
0
  6
CONTINUOUS
 10
6.807680
 20
2.744720
  0
VERTEX
  8
0
  6
CONTINUOUS
 10
6.773800
 20
2.766720
  0
VERTEX
  8
0
  6
CONTINUOUS
 10
6.736840
 20
2.784320
  0
VERTEX
  8
0
  6
CONTINUOUS
 10
6.717480
 20
2.791800
  0
VERTEX
  8
0
  6
CONTINUOUS
 10
6.677880
 20
2.801920
  0
VERTEX
  8
0
  6
CONTINUOUS
 10
6.657640
 20
2.805000
  0
VERTEX
  8
0
  6
CONTINUOUS
 10
6.616720
 20
2.806320
  0
VERTEX
  8
0
  6
CONTINUOUS
 10
6.596480
 20
2.804560
  0
VERTEX
  8
0
  6
CONTINUOUS
 10
6.556440
 20
2.795320
  0
VERTEX
  8
0
  6
CONTINUOUS
 10
6.537080
 20
2.787840
  0
VERTEX
  8
0
  6
CONTINUOUS
 10
6.499680
 20
2.766720
  0
VERTEX
  8
0
  6
CONTINUOUS
 10
6.472840
 20
2.745160
  0
VERTEX
  8
0
  6
CONTINUOUS
 10
6.456120
 20
2.728000
  0
VERTEX
  8
0
  6
CONTINUOUS
 10
6.432360
 20
2.697640
  0
VERTEX
  8
0
  6
CONTINUOUS
 10
6.404640
 20
2.648360
  0
VERTEX
  8
0
  6
CONTINUOUS
 10
6.387040
 20
2.604360
  0
VERTEX
  8
0
  6
CONTINUOUS
 10
6.381760
 20
2.588520
  0
VERTEX
  8
0
  6
CONTINUOUS
 10
6.330280
 20
2.588520
  0
VERTEX
  8
0
  6
CONTINUOUS
 10
6.330280
 20
2.099240
  0
VERTEX
  8
0
  6
CONTINUOUS
 10
7.906800
 20
2.099240
  0
VERTEX
  8
0
  6
CONTINUOUS
 10
7.906800
 20
2.108480
  0
SEQEND
  8
0
  0
TEXT
  8
0
 10
6.820440
 20
2.323640
 40
0.138122
  1
864
 41
1.000000
  7
SN0
 71
     0
 72
     5
 11
7.097362
 21
2.323640
  0
TEXT
  8
0
 10
6.507600
 20
2.132240
 40
0.138122
  1
3/4" x 1-5/8"
 41
1.000000
  7
SN0
 71
     0
 72
     5
 11
7.408282
 21
2.132240
  0
ENDSEC
  0
EOF
