  0
SECTION
  2
HEADER
  9
$ACADVER
  1
AC1006
  9
$EXTMIN
 10
3.199680
 20
2.994200
  9
$EXTMAX
 10
6.569640
 20
4.908640
  9
$LTSCALE
 40
0.044000
  9
$PDMODE
 70
    35
  9
$PDSIZE
 40
0.035200
  0
ENDSEC
  0
SECTION
  2
TABLES
  0
TABLE
  2
LTYPE
 70
     9
  0
LTYPE
  2
CONTINUOUS
 70
    64
  3
Solid line
 72
    65
 73
     0
 40
0.000000
  0
LTYPE
  2
DASHED
 70
    64
  3
__ __ __ __ __ __ __ __ __ __ __ __ __ __ __
 72
    65
 73
     2
 40
0.000330
 49
0.000220
 49
-0.000110
  0
LTYPE
  2
HIDDEN
 70
    64
  3
 _ _ _ _ _ _ _ _ _ _ _ _ _ _ _ _ _ _ _ _ _ _
 72
    65
 73
     2
 40
0.000165
 49
0.000110
 49
-0.000055
  0
LTYPE
  2
CENTER
 70
    64
  3
____ _ ____ _ ____ _ ____ _ ____ _ ____ _ ____
 72
    65
 73
     4
 40
0.000880
 49
0.000550
 49
-0.000110
 49
0.000110
 49
-0.000110
  0
LTYPE
  2
PHANTOM
 70
    64
  3
_____ _ _ _____ _ _ _____ _ _ _____ _ _ ____
 72
    65
 73
     6
 40
0.001100
 49
0.000550
 49
-0.000110
 49
0.000110
 49
-0.000110
 49
0.000110
 49
-0.000110
  0
LTYPE
  2
DOT
 70
    64
  3
...............................................
 72
    65
 73
     2
 40
0.000110
 49
0.000000
 49
-0.000110
  0
LTYPE
  2
DASHDOT
 70
    64
  3
__ . __ . __ . __ . __ . __ . __ . __ . __ . __
 72
    65
 73
     4
 40
0.000440
 49
0.000220
 49
-0.000110
 49
0.000000
 49
-0.000110
  0
LTYPE
  2
BORDER
 70
    64
  3
__ __ . __ __ . __ __ . __ __ . __ __ . __ __
 72
    65
 73
     6
 40
0.000770
 49
0.000220
 49
-0.000110
 49
0.000220
 49
-0.000110
 49
0.000000
 49
-0.000110
  0
LTYPE
  2
DIVIDE
 70
    64
  3
__ . . __ . . __ . . __ . . __ . . __ . . __
 72
    65
 73
     6
 40
0.000550
 49
0.000220
 49
-0.000110
 49
0.000000
 49
-0.000110
 49
0.000000
 49
-0.000110
  0
LTYPE
  2
DOTDOT
 70
    64
  3
 . .  . .  . .  . .  . .  . . 
 72
    65
 73
     5
 40
0.000242
 49
-0.000110
 49
0.000000
 49
-0.000110
 49
0.000000
 49
-0.000110
  0
ENDTAB
  0
TABLE
  2
STYLE
 70
     2
  0
STYLE
 70
     0
  2
SN0
 40
0.000000
 41
0.000440
 50
0.000000
 71
     0
 42
0.000000
  3
ROMAND
  0
STYLE
 70
    68
  2
SV0
 40
0.000000
 41
0.000440
 50
0.000000
 71
     0
 42
0.000000
  3
ROMAND
  0
ENDTAB
  0
TABLE
  2
LAYER
 70
     3
  0
LAYER
  2
FOREGROUND
 70
    64
 62
     7
  6
CONTINUOUS
  0
LAYER
  2
BACKGROUND
 70
    65
 62
    -7
  6
CONTINUOUS
  0
LAYER
  2
0
 70
    64
 62
     7
  6
CONTINUOUS
  0
ENDTAB
  0
ENDSEC
  0
SECTION
  2
ENTITIES
  0
POLYLINE
  8
FOREGROUND
  6
CONTINUOUS
 66
     1
 40
0.000000
 41
0.000000
  0
VERTEX
  8
FOREGROUND
  6
CONTINUOUS
 10
0.000000
 20
7.902840
  0
VERTEX
  8
FOREGROUND
  6
CONTINUOUS
 10
8.499920
 20
7.902840
  0
VERTEX
  8
FOREGROUND
  6
CONTINUOUS
 10
8.499920
 20
-3.097160
  0
VERTEX
  8
FOREGROUND
  6
CONTINUOUS
 10
0.000000
 20
-3.097160
  0
VERTEX
  8
FOREGROUND
  6
CONTINUOUS
 10
0.000000
 20
7.902840
  0
SEQEND
  8
0
  0
POLYLINE
  8
FOREGROUND
  6
CONTINUOUS
 66
     1
 40
0.000000
 41
0.000000
  0
VERTEX
  8
FOREGROUND
  6
CONTINUOUS
 10
0.000000
 20
7.902840
  0
VERTEX
  8
FOREGROUND
  6
CONTINUOUS
 10
8.499920
 20
7.902840
  0
VERTEX
  8
FOREGROUND
  6
CONTINUOUS
 10
8.499920
 20
-3.097160
  0
VERTEX
  8
FOREGROUND
  6
CONTINUOUS
 10
0.000000
 20
-3.097160
  0
VERTEX
  8
FOREGROUND
  6
CONTINUOUS
 10
0.000000
 20
7.902840
  0
SEQEND
  8
0
  0
TEXT
  8
0
 10
5.752120
 20
3.229600
 40
0.138089
  1
863
 41
1.000000
  7
SN0
 71
     0
 72
     5
 11
6.028962
 21
3.229600
  0
TEXT
  8
0
 10
5.346880
 20
3.038200
 40
0.138089
  1
11/16" x 1-3/8"
 41
1.000000
  7
SN0
 71
     0
 72
     5
 11
6.431333
 21
3.038200
  0
SOLID
  8
0
 62
    15
 10
6.217200
 20
3.751880
 11
6.209720
 21
4.487560
 12
6.316200
 22
3.751880
 13
6.308280
 23
4.487560
  0
POLYLINE
  8
0
  6
CONTINUOUS
 66
     1
 40
0.000000
 41
0.000000
  0
VERTEX
  8
0
  6
CONTINUOUS
 10
6.217200
 20
3.751880
  0
VERTEX
  8
0
  6
CONTINUOUS
 10
6.209720
 20
4.487560
  0
VERTEX
  8
0
  6
CONTINUOUS
 10
6.308280
 20
4.487560
  0
VERTEX
  8
0
  6
CONTINUOUS
 10
6.316200
 20
3.751880
  0
VERTEX
  8
0
  6
CONTINUOUS
 10
6.217200
 20
3.751880
  0
SEQEND
  8
0
  0
SOLID
  8
0
 62
    15
 10
5.219720
 20
4.171640
 11
5.211800
 21
4.907760
 12
5.221480
 22
4.171640
 13
5.213560
 23
4.907760
  0
POLYLINE
  8
0
  6
CONTINUOUS
 66
     1
 40
0.000000
 41
0.000000
  0
VERTEX
  8
0
  6
CONTINUOUS
 10
5.219720
 20
4.171640
  0
VERTEX
  8
0
  6
CONTINUOUS
 10
5.211800
 20
4.907760
  0
VERTEX
  8
0
  6
CONTINUOUS
 10
5.213560
 20
4.907760
  0
VERTEX
  8
0
  6
CONTINUOUS
 10
5.221480
 20
4.171640
  0
VERTEX
  8
0
  6
CONTINUOUS
 10
5.219720
 20
4.171640
  0
SEQEND
  8
0
  0
SOLID
  8
0
 62
    15
 10
5.221480
 20
3.471600
 11
5.213560
 21
4.207280
 12
5.221480
 22
4.172080
 13
5.213560
 23
4.907760
  0
POLYLINE
  8
0
  6
CONTINUOUS
 66
     1
 40
0.000000
 41
0.000000
  0
VERTEX
  8
0
  6
CONTINUOUS
 10
5.221480
 20
3.471600
  0
VERTEX
  8
0
  6
CONTINUOUS
 10
5.213560
 20
4.207280
  0
VERTEX
  8
0
  6
CONTINUOUS
 10
5.213560
 20
4.907760
  0
VERTEX
  8
0
  6
CONTINUOUS
 10
5.221480
 20
4.172080
  0
VERTEX
  8
0
  6
CONTINUOUS
 10
5.221480
 20
3.471600
  0
SEQEND
  8
0
  0
SOLID
  8
0
 62
    15
 10
5.582280
 20
4.171640
 11
5.574800
 21
4.907760
 12
5.589320
 22
4.124120
 13
5.581840
 23
4.860240
  0
POLYLINE
  8
0
  6
CONTINUOUS
 66
     1
 40
0.000000
 41
0.000000
  0
VERTEX
  8
0
  6
CONTINUOUS
 10
5.582280
 20
4.171640
  0
VERTEX
  8
0
  6
CONTINUOUS
 10
5.574800
 20
4.907760
  0
VERTEX
  8
0
  6
CONTINUOUS
 10
5.581840
 20
4.860240
  0
VERTEX
  8
0
  6
CONTINUOUS
 10
5.589320
 20
4.124120
  0
VERTEX
  8
0
  6
CONTINUOUS
 10
5.582280
 20
4.171640
  0
SEQEND
  8
0
  0
SOLID
  8
0
 62
    15
 10
5.589320
 20
4.124120
 11
5.581840
 21
4.860240
 12
5.602520
 22
4.081440
 13
5.595040
 23
4.817120
  0
POLYLINE
  8
0
  6
CONTINUOUS
 66
     1
 40
0.000000
 41
0.000000
  0
VERTEX
  8
0
  6
CONTINUOUS
 10
5.589320
 20
4.124120
  0
VERTEX
  8
0
  6
CONTINUOUS
 10
5.581840
 20
4.860240
  0
VERTEX
  8
0
  6
CONTINUOUS
 10
5.595040
 20
4.817120
  0
VERTEX
  8
0
  6
CONTINUOUS
 10
5.602520
 20
4.081440
  0
VERTEX
  8
0
  6
CONTINUOUS
 10
5.589320
 20
4.124120
  0
SEQEND
  8
0
  0
SOLID
  8
0
 62
    15
 10
5.602520
 20
4.081440
 11
5.595040
 21
4.817120
 12
5.621880
 22
4.043160
 13
5.613960
 23
4.779280
  0
POLYLINE
  8
0
  6
CONTINUOUS
 66
     1
 40
0.000000
 41
0.000000
  0
VERTEX
  8
0
  6
CONTINUOUS
 10
5.602520
 20
4.081440
  0
VERTEX
  8
0
  6
CONTINUOUS
 10
5.595040
 20
4.817120
  0
VERTEX
  8
0
  6
CONTINUOUS
 10
5.613960
 20
4.779280
  0
VERTEX
  8
0
  6
CONTINUOUS
 10
5.621880
 20
4.043160
  0
VERTEX
  8
0
  6
CONTINUOUS
 10
5.602520
 20
4.081440
  0
SEQEND
  8
0
  0
SOLID
  8
0
 62
    15
 10
5.621880
 20
4.043160
 11
5.613960
 21
4.779280
 12
5.646080
 22
4.009720
 13
5.638600
 23
4.745400
  0
POLYLINE
  8
0
  6
CONTINUOUS
 66
     1
 40
0.000000
 41
0.000000
  0
VERTEX
  8
0
  6
CONTINUOUS
 10
5.621880
 20
4.043160
  0
VERTEX
  8
0
  6
CONTINUOUS
 10
5.613960
 20
4.779280
  0
VERTEX
  8
0
  6
CONTINUOUS
 10
5.638600
 20
4.745400
  0
VERTEX
  8
0
  6
CONTINUOUS
 10
5.646080
 20
4.009720
  0
VERTEX
  8
0
  6
CONTINUOUS
 10
5.621880
 20
4.043160
  0
SEQEND
  8
0
  0
SOLID
  8
0
 62
    15
 10
5.646080
 20
4.009720
 11
5.638600
 21
4.745400
 12
5.675560
 22
3.979800
 13
5.668080
 23
4.715480
  0
POLYLINE
  8
0
  6
CONTINUOUS
 66
     1
 40
0.000000
 41
0.000000
  0
VERTEX
  8
0
  6
CONTINUOUS
 10
5.646080
 20
4.009720
  0
VERTEX
  8
0
  6
CONTINUOUS
 10
5.638600
 20
4.745400
  0
VERTEX
  8
0
  6
CONTINUOUS
 10
5.668080
 20
4.715480
  0
VERTEX
  8
0
  6
CONTINUOUS
 10
5.675560
 20
3.979800
  0
VERTEX
  8
0
  6
CONTINUOUS
 10
5.646080
 20
4.009720
  0
SEQEND
  8
0
  0
SOLID
  8
0
 62
    15
 10
5.675560
 20
3.979800
 11
5.668080
 21
4.715480
 12
5.709880
 22
3.953840
 13
5.701960
 23
4.689960
  0
POLYLINE
  8
0
  6
CONTINUOUS
 66
     1
 40
0.000000
 41
0.000000
  0
VERTEX
  8
0
  6
CONTINUOUS
 10
5.675560
 20
3.979800
  0
VERTEX
  8
0
  6
CONTINUOUS
 10
5.668080
 20
4.715480
  0
VERTEX
  8
0
  6
CONTINUOUS
 10
5.701960
 20
4.689960
  0
VERTEX
  8
0
  6
CONTINUOUS
 10
5.709880
 20
3.953840
  0
VERTEX
  8
0
  6
CONTINUOUS
 10
5.675560
 20
3.979800
  0
SEQEND
  8
0
  0
SOLID
  8
0
 62
    15
 10
5.709880
 20
3.953840
 11
5.701960
 21
4.689960
 12
5.748160
 22
3.931840
 13
5.740240
 23
4.667520
  0
POLYLINE
  8
0
  6
CONTINUOUS
 66
     1
 40
0.000000
 41
0.000000
  0
VERTEX
  8
0
  6
CONTINUOUS
 10
5.709880
 20
3.953840
  0
VERTEX
  8
0
  6
CONTINUOUS
 10
5.701960
 20
4.689960
  0
VERTEX
  8
0
  6
CONTINUOUS
 10
5.740240
 20
4.667520
  0
VERTEX
  8
0
  6
CONTINUOUS
 10
5.748160
 20
3.931840
  0
VERTEX
  8
0
  6
CONTINUOUS
 10
5.709880
 20
3.953840
  0
SEQEND
  8
0
  0
SOLID
  8
0
 62
    15
 10
5.748160
 20
3.931840
 11
5.740240
 21
4.667520
 12
5.790400
 22
3.912920
 13
5.782480
 23
4.648600
  0
POLYLINE
  8
0
  6
CONTINUOUS
 66
     1
 40
0.000000
 41
0.000000
  0
VERTEX
  8
0
  6
CONTINUOUS
 10
5.748160
 20
3.931840
  0
VERTEX
  8
0
  6
CONTINUOUS
 10
5.740240
 20
4.667520
  0
VERTEX
  8
0
  6
CONTINUOUS
 10
5.782480
 20
4.648600
  0
VERTEX
  8
0
  6
CONTINUOUS
 10
5.790400
 20
3.912920
  0
VERTEX
  8
0
  6
CONTINUOUS
 10
5.748160
 20
3.931840
  0
SEQEND
  8
0
  0
SOLID
  8
0
 62
    15
 10
5.790400
 20
3.912920
 11
5.782480
 21
4.648600
 12
5.835720
 22
3.897080
 13
5.828240
 23
4.633200
  0
POLYLINE
  8
0
  6
CONTINUOUS
 66
     1
 40
0.000000
 41
0.000000
  0
VERTEX
  8
0
  6
CONTINUOUS
 10
5.790400
 20
3.912920
  0
VERTEX
  8
0
  6
CONTINUOUS
 10
5.782480
 20
4.648600
  0
VERTEX
  8
0
  6
CONTINUOUS
 10
5.828240
 20
4.633200
  0
VERTEX
  8
0
  6
CONTINUOUS
 10
5.835720
 20
3.897080
  0
VERTEX
  8
0
  6
CONTINUOUS
 10
5.790400
 20
3.912920
  0
SEQEND
  8
0
  0
SOLID
  8
0
 62
    15
 10
5.835720
 20
3.897080
 11
5.828240
 21
4.633200
 12
5.884560
 22
3.884320
 13
5.876640
 23
4.620000
  0
POLYLINE
  8
0
  6
CONTINUOUS
 66
     1
 40
0.000000
 41
0.000000
  0
VERTEX
  8
0
  6
CONTINUOUS
 10
5.835720
 20
3.897080
  0
VERTEX
  8
0
  6
CONTINUOUS
 10
5.828240
 20
4.633200
  0
VERTEX
  8
0
  6
CONTINUOUS
 10
5.876640
 20
4.620000
  0
VERTEX
  8
0
  6
CONTINUOUS
 10
5.884560
 20
3.884320
  0
VERTEX
  8
0
  6
CONTINUOUS
 10
5.835720
 20
3.897080
  0
SEQEND
  8
0
  0
SOLID
  8
0
 62
    15
 10
5.884560
 20
3.884320
 11
5.876640
 21
4.620000
 12
5.989280
 22
3.866280
 13
5.981360
 23
4.602400
  0
POLYLINE
  8
0
  6
CONTINUOUS
 66
     1
 40
0.000000
 41
0.000000
  0
VERTEX
  8
0
  6
CONTINUOUS
 10
5.884560
 20
3.884320
  0
VERTEX
  8
0
  6
CONTINUOUS
 10
5.876640
 20
4.620000
  0
VERTEX
  8
0
  6
CONTINUOUS
 10
5.981360
 20
4.602400
  0
VERTEX
  8
0
  6
CONTINUOUS
 10
5.989280
 20
3.866280
  0
VERTEX
  8
0
  6
CONTINUOUS
 10
5.884560
 20
3.884320
  0
SEQEND
  8
0
  0
SOLID
  8
0
 62
    15
 10
5.989280
 20
3.866280
 11
5.981360
 21
4.602400
 12
6.101040
 22
3.857040
 13
6.093560
 23
4.592720
  0
POLYLINE
  8
0
  6
CONTINUOUS
 66
     1
 40
0.000000
 41
0.000000
  0
VERTEX
  8
0
  6
CONTINUOUS
 10
5.989280
 20
3.866280
  0
VERTEX
  8
0
  6
CONTINUOUS
 10
5.981360
 20
4.602400
  0
VERTEX
  8
0
  6
CONTINUOUS
 10
6.093560
 20
4.592720
  0
VERTEX
  8
0
  6
CONTINUOUS
 10
6.101040
 20
3.857040
  0
VERTEX
  8
0
  6
CONTINUOUS
 10
5.989280
 20
3.866280
  0
SEQEND
  8
0
  0
SOLID
  8
0
 62
    15
 10
5.213560
 20
4.907760
 11
5.574800
 21
4.907760
 12
5.221480
 22
4.171640
 13
5.582280
 23
4.171640
  0
POLYLINE
  8
0
  6
CONTINUOUS
 66
     1
 40
0.000000
 41
0.000000
  0
VERTEX
  8
0
  6
CONTINUOUS
 10
5.213560
 20
4.907760
  0
VERTEX
  8
0
  6
CONTINUOUS
 10
5.574800
 20
4.907760
  0
VERTEX
  8
0
  6
CONTINUOUS
 10
5.582280
 20
4.171640
  0
VERTEX
  8
0
  6
CONTINUOUS
 10
5.221480
 20
4.171640
  0
VERTEX
  8
0
  6
CONTINUOUS
 10
5.213560
 20
4.907760
  0
SEQEND
  8
0
  0
SOLID
  8
0
 62
    15
 10
6.101040
 20
3.857040
 11
6.093560
 21
4.592720
 12
6.217200
 22
3.854400
 13
6.209720
 23
4.590080
  0
POLYLINE
  8
0
  6
CONTINUOUS
 66
     1
 40
0.000000
 41
0.000000
  0
VERTEX
  8
0
  6
CONTINUOUS
 10
6.101040
 20
3.857040
  0
VERTEX
  8
0
  6
CONTINUOUS
 10
6.093560
 20
4.592720
  0
VERTEX
  8
0
  6
CONTINUOUS
 10
6.209720
 20
4.590080
  0
VERTEX
  8
0
  6
CONTINUOUS
 10
6.217200
 20
3.854400
  0
VERTEX
  8
0
  6
CONTINUOUS
 10
6.101040
 20
3.857040
  0
SEQEND
  8
0
  0
SOLID
  8
0
 62
    15
 10
6.316200
 20
3.751880
 11
6.308280
 21
4.487560
 12
6.350080
 22
3.749240
 13
6.342600
 23
4.484920
  0
POLYLINE
  8
0
  6
CONTINUOUS
 66
     1
 40
0.000000
 41
0.000000
  0
VERTEX
  8
0
  6
CONTINUOUS
 10
6.316200
 20
3.751880
  0
VERTEX
  8
0
  6
CONTINUOUS
 10
6.308280
 20
4.487560
  0
VERTEX
  8
0
  6
CONTINUOUS
 10
6.342600
 20
4.484920
  0
VERTEX
  8
0
  6
CONTINUOUS
 10
6.350080
 20
3.749240
  0
VERTEX
  8
0
  6
CONTINUOUS
 10
6.316200
 20
3.751880
  0
SEQEND
  8
0
  0
SOLID
  8
0
 62
    15
 10
6.350080
 20
3.749240
 11
6.342600
 21
4.484920
 12
6.381320
 22
3.741760
 13
6.373840
 23
4.477880
  0
POLYLINE
  8
0
  6
CONTINUOUS
 66
     1
 40
0.000000
 41
0.000000
  0
VERTEX
  8
0
  6
CONTINUOUS
 10
6.350080
 20
3.749240
  0
VERTEX
  8
0
  6
CONTINUOUS
 10
6.342600
 20
4.484920
  0
VERTEX
  8
0
  6
CONTINUOUS
 10
6.373840
 20
4.477880
  0
VERTEX
  8
0
  6
CONTINUOUS
 10
6.381320
 20
3.741760
  0
VERTEX
  8
0
  6
CONTINUOUS
 10
6.350080
 20
3.749240
  0
SEQEND
  8
0
  0
SOLID
  8
0
 62
    15
 10
6.381320
 20
3.741760
 11
6.373840
 21
4.477880
 12
6.409920
 22
3.730320
 13
6.402000
 23
4.466440
  0
POLYLINE
  8
0
  6
CONTINUOUS
 66
     1
 40
0.000000
 41
0.000000
  0
VERTEX
  8
0
  6
CONTINUOUS
 10
6.381320
 20
3.741760
  0
VERTEX
  8
0
  6
CONTINUOUS
 10
6.373840
 20
4.477880
  0
VERTEX
  8
0
  6
CONTINUOUS
 10
6.402000
 20
4.466440
  0
VERTEX
  8
0
  6
CONTINUOUS
 10
6.409920
 20
3.730320
  0
VERTEX
  8
0
  6
CONTINUOUS
 10
6.381320
 20
3.741760
  0
SEQEND
  8
0
  0
SOLID
  8
0
 62
    15
 10
6.409920
 20
3.730320
 11
6.402000
 21
4.466440
 12
6.435440
 22
3.715360
 13
6.427960
 23
4.451480
  0
POLYLINE
  8
0
  6
CONTINUOUS
 66
     1
 40
0.000000
 41
0.000000
  0
VERTEX
  8
0
  6
CONTINUOUS
 10
6.409920
 20
3.730320
  0
VERTEX
  8
0
  6
CONTINUOUS
 10
6.402000
 20
4.466440
  0
VERTEX
  8
0
  6
CONTINUOUS
 10
6.427960
 20
4.451480
  0
VERTEX
  8
0
  6
CONTINUOUS
 10
6.435440
 20
3.715360
  0
VERTEX
  8
0
  6
CONTINUOUS
 10
6.409920
 20
3.730320
  0
SEQEND
  8
0
  0
SOLID
  8
0
 62
    15
 10
6.435440
 20
3.715360
 11
6.427960
 21
4.451480
 12
6.458760
 22
3.697760
 13
6.450840
 23
4.433440
  0
POLYLINE
  8
0
  6
CONTINUOUS
 66
     1
 40
0.000000
 41
0.000000
  0
VERTEX
  8
0
  6
CONTINUOUS
 10
6.435440
 20
3.715360
  0
VERTEX
  8
0
  6
CONTINUOUS
 10
6.427960
 20
4.451480
  0
VERTEX
  8
0
  6
CONTINUOUS
 10
6.450840
 20
4.433440
  0
VERTEX
  8
0
  6
CONTINUOUS
 10
6.458760
 20
3.697760
  0
VERTEX
  8
0
  6
CONTINUOUS
 10
6.435440
 20
3.715360
  0
SEQEND
  8
0
  0
SOLID
  8
0
 62
    15
 10
6.458760
 20
3.697760
 11
6.450840
 21
4.433440
 12
6.479440
 22
3.677080
 13
6.471520
 23
4.413200
  0
POLYLINE
  8
0
  6
CONTINUOUS
 66
     1
 40
0.000000
 41
0.000000
  0
VERTEX
  8
0
  6
CONTINUOUS
 10
6.458760
 20
3.697760
  0
VERTEX
  8
0
  6
CONTINUOUS
 10
6.450840
 20
4.433440
  0
VERTEX
  8
0
  6
CONTINUOUS
 10
6.471520
 20
4.413200
  0
VERTEX
  8
0
  6
CONTINUOUS
 10
6.479440
 20
3.677080
  0
VERTEX
  8
0
  6
CONTINUOUS
 10
6.458760
 20
3.697760
  0
SEQEND
  8
0
  0
SOLID
  8
0
 62
    15
 10
6.479440
 20
3.677080
 11
6.471520
 21
4.413200
 12
6.513760
 22
3.631760
 13
6.505840
 23
4.367880
  0
POLYLINE
  8
0
  6
CONTINUOUS
 66
     1
 40
0.000000
 41
0.000000
  0
VERTEX
  8
0
  6
CONTINUOUS
 10
6.479440
 20
3.677080
  0
VERTEX
  8
0
  6
CONTINUOUS
 10
6.471520
 20
4.413200
  0
VERTEX
  8
0
  6
CONTINUOUS
 10
6.505840
 20
4.367880
  0
VERTEX
  8
0
  6
CONTINUOUS
 10
6.513760
 20
3.631760
  0
VERTEX
  8
0
  6
CONTINUOUS
 10
6.479440
 20
3.677080
  0
SEQEND
  8
0
  0
SOLID
  8
0
 62
    15
 10
6.513760
 20
3.631760
 11
6.505840
 21
4.367880
 12
6.538840
 22
3.583800
 13
6.531360
 23
4.319920
  0
POLYLINE
  8
0
  6
CONTINUOUS
 66
     1
 40
0.000000
 41
0.000000
  0
VERTEX
  8
0
  6
CONTINUOUS
 10
6.513760
 20
3.631760
  0
VERTEX
  8
0
  6
CONTINUOUS
 10
6.505840
 20
4.367880
  0
VERTEX
  8
0
  6
CONTINUOUS
 10
6.531360
 20
4.319920
  0
VERTEX
  8
0
  6
CONTINUOUS
 10
6.538840
 20
3.583800
  0
VERTEX
  8
0
  6
CONTINUOUS
 10
6.513760
 20
3.631760
  0
SEQEND
  8
0
  0
SOLID
  8
0
 62
    15
 10
6.538840
 20
3.583800
 11
6.531360
 21
4.319920
 12
6.556440
 22
3.538040
 13
6.548520
 23
4.274160
  0
POLYLINE
  8
0
  6
CONTINUOUS
 66
     1
 40
0.000000
 41
0.000000
  0
VERTEX
  8
0
  6
CONTINUOUS
 10
6.538840
 20
3.583800
  0
VERTEX
  8
0
  6
CONTINUOUS
 10
6.531360
 20
4.319920
  0
VERTEX
  8
0
  6
CONTINUOUS
 10
6.548520
 20
4.274160
  0
VERTEX
  8
0
  6
CONTINUOUS
 10
6.556440
 20
3.538040
  0
VERTEX
  8
0
  6
CONTINUOUS
 10
6.538840
 20
3.583800
  0
SEQEND
  8
0
  0
SOLID
  8
0
 62
    15
 10
6.556440
 20
3.538040
 11
6.548520
 21
4.274160
 12
6.566120
 22
3.498880
 13
6.558640
 23
4.235000
  0
POLYLINE
  8
0
  6
CONTINUOUS
 66
     1
 40
0.000000
 41
0.000000
  0
VERTEX
  8
0
  6
CONTINUOUS
 10
6.556440
 20
3.538040
  0
VERTEX
  8
0
  6
CONTINUOUS
 10
6.548520
 20
4.274160
  0
VERTEX
  8
0
  6
CONTINUOUS
 10
6.558640
 20
4.235000
  0
VERTEX
  8
0
  6
CONTINUOUS
 10
6.566120
 20
3.498880
  0
VERTEX
  8
0
  6
CONTINUOUS
 10
6.556440
 20
3.538040
  0
SEQEND
  8
0
  0
SOLID
  8
0
 62
    15
 10
6.566120
 20
3.498880
 11
6.558640
 21
4.235000
 12
6.568320
 22
3.483480
 13
6.560840
 23
4.219600
  0
POLYLINE
  8
0
  6
CONTINUOUS
 66
     1
 40
0.000000
 41
0.000000
  0
VERTEX
  8
0
  6
CONTINUOUS
 10
6.566120
 20
3.498880
  0
VERTEX
  8
0
  6
CONTINUOUS
 10
6.558640
 20
4.235000
  0
VERTEX
  8
0
  6
CONTINUOUS
 10
6.560840
 20
4.219600
  0
VERTEX
  8
0
  6
CONTINUOUS
 10
6.568320
 20
3.483480
  0
VERTEX
  8
0
  6
CONTINUOUS
 10
6.566120
 20
3.498880
  0
SEQEND
  8
0
  0
SOLID
  8
0
 62
    15
 10
6.568320
 20
3.483480
 11
6.560840
 21
4.219600
 12
6.569200
 22
3.471600
 13
6.561720
 23
4.207280
  0
POLYLINE
  8
0
  6
CONTINUOUS
 66
     1
 40
0.000000
 41
0.000000
  0
VERTEX
  8
0
  6
CONTINUOUS
 10
6.568320
 20
3.483480
  0
VERTEX
  8
0
  6
CONTINUOUS
 10
6.560840
 20
4.219600
  0
VERTEX
  8
0
  6
CONTINUOUS
 10
6.561720
 20
4.207280
  0
VERTEX
  8
0
  6
CONTINUOUS
 10
6.569200
 20
3.471600
  0
VERTEX
  8
0
  6
CONTINUOUS
 10
6.568320
 20
3.483480
  0
SEQEND
  8
0
  0
POLYLINE
  8
0
  6
CONTINUOUS
 66
     1
 40
0.000000
 41
0.000000
  0
VERTEX
  8
0
  6
CONTINUOUS
 10
6.564800
 20
3.471600
  0
VERTEX
  8
0
  6
CONTINUOUS
 10
5.221480
 20
3.471600
  0
VERTEX
  8
0
  6
CONTINUOUS
 10
5.221480
 20
4.172080
  0
VERTEX
  8
0
  6
CONTINUOUS
 10
5.219720
 20
4.171640
  0
VERTEX
  8
0
  6
CONTINUOUS
 10
5.582280
 20
4.171640
  0
VERTEX
  8
0
  6
CONTINUOUS
 10
5.589320
 20
4.124120
  0
VERTEX
  8
0
  6
CONTINUOUS
 10
5.602520
 20
4.081440
  0
VERTEX
  8
0
  6
CONTINUOUS
 10
5.621880
 20
4.043160
  0
VERTEX
  8
0
  6
CONTINUOUS
 10
5.646080
 20
4.009720
  0
VERTEX
  8
0
  6
CONTINUOUS
 10
5.675560
 20
3.979800
  0
VERTEX
  8
0
  6
CONTINUOUS
 10
5.709880
 20
3.953840
  0
VERTEX
  8
0
  6
CONTINUOUS
 10
5.748160
 20
3.931840
  0
VERTEX
  8
0
  6
CONTINUOUS
 10
5.790400
 20
3.912920
  0
VERTEX
  8
0
  6
CONTINUOUS
 10
5.835720
 20
3.897080
  0
VERTEX
  8
0
  6
CONTINUOUS
 10
5.884560
 20
3.884320
  0
VERTEX
  8
0
  6
CONTINUOUS
 10
5.989280
 20
3.866280
  0
VERTEX
  8
0
  6
CONTINUOUS
 10
6.101040
 20
3.857040
  0
VERTEX
  8
0
  6
CONTINUOUS
 10
6.217200
 20
3.854400
  0
VERTEX
  8
0
  6
CONTINUOUS
 10
6.217200
 20
3.751880
  0
VERTEX
  8
0
  6
CONTINUOUS
 10
6.316200
 20
3.751880
  0
VERTEX
  8
0
  6
CONTINUOUS
 10
6.350080
 20
3.749240
  0
VERTEX
  8
0
  6
CONTINUOUS
 10
6.381320
 20
3.741760
  0
VERTEX
  8
0
  6
CONTINUOUS
 10
6.409920
 20
3.730320
  0
VERTEX
  8
0
  6
CONTINUOUS
 10
6.435440
 20
3.715360
  0
VERTEX
  8
0
  6
CONTINUOUS
 10
6.458760
 20
3.697760
  0
VERTEX
  8
0
  6
CONTINUOUS
 10
6.479440
 20
3.677080
  0
VERTEX
  8
0
  6
CONTINUOUS
 10
6.513760
 20
3.631760
  0
VERTEX
  8
0
  6
CONTINUOUS
 10
6.538840
 20
3.583800
  0
VERTEX
  8
0
  6
CONTINUOUS
 10
6.556440
 20
3.538040
  0
VERTEX
  8
0
  6
CONTINUOUS
 10
6.566120
 20
3.498880
  0
VERTEX
  8
0
  6
CONTINUOUS
 10
6.568320
 20
3.483480
  0
VERTEX
  8
0
  6
CONTINUOUS
 10
6.569200
 20
3.471600
  0
VERTEX
  8
0
  6
CONTINUOUS
 10
6.564800
 20
3.471600
  0
SEQEND
  8
0
  0
POLYLINE
  8
0
  6
CONTINUOUS
 66
     1
 40
0.014080
 41
0.014080
  0
VERTEX
  8
0
  6
CONTINUOUS
 10
4.554880
 20
4.072640
  0
VERTEX
  8
0
  6
CONTINUOUS
 10
4.551800
 20
4.100360
  0
VERTEX
  8
0
  6
CONTINUOUS
 10
4.542120
 20
4.139080
  0
VERTEX
  8
0
  6
CONTINUOUS
 10
4.524520
 20
4.185280
  0
VERTEX
  8
0
  6
CONTINUOUS
 10
4.499440
 20
4.233240
  0
VERTEX
  8
0
  6
CONTINUOUS
 10
4.474360
 20
4.267560
  0
VERTEX
  8
0
  6
CONTINUOUS
 10
4.455000
 20
4.289120
  0
VERTEX
  8
0
  6
CONTINUOUS
 10
4.421120
 20
4.316840
  0
VERTEX
  8
0
  6
CONTINUOUS
 10
4.395600
 20
4.331800
  0
VERTEX
  8
0
  6
CONTINUOUS
 10
4.367000
 20
4.343240
  0
VERTEX
  8
0
  6
CONTINUOUS
 10
4.335760
 20
4.350280
  0
VERTEX
  8
0
  6
CONTINUOUS
 10
4.319040
 20
4.352480
  0
VERTEX
  8
0
  6
CONTINUOUS
 10
4.202880
 20
4.352920
  0
VERTEX
  8
0
  6
CONTINUOUS
 10
4.202880
 20
4.455440
  0
VERTEX
  8
0
  6
CONTINUOUS
 10
4.144360
 20
4.455880
  0
VERTEX
  8
0
  6
CONTINUOUS
 10
4.086720
 20
4.458080
  0
VERTEX
  8
0
  6
CONTINUOUS
 10
4.002240
 20
4.464240
  0
VERTEX
  8
0
  6
CONTINUOUS
 10
3.921280
 20
4.475240
  0
VERTEX
  8
0
  6
CONTINUOUS
 10
3.870240
 20
4.485360
  0
VERTEX
  8
0
  6
CONTINUOUS
 10
3.821400
 20
4.498560
  0
VERTEX
  8
0
  6
CONTINUOUS
 10
3.776080
 20
4.513960
  0
VERTEX
  8
0
  6
CONTINUOUS
 10
3.733840
 20
4.532880
  0
VERTEX
  8
0
  6
CONTINUOUS
 10
3.695560
 20
4.555320
  0
VERTEX
  8
0
  6
CONTINUOUS
 10
3.661240
 20
4.581280
  0
VERTEX
  8
0
  6
CONTINUOUS
 10
3.645840
 20
4.595360
  0
VERTEX
  8
0
  6
CONTINUOUS
 10
3.619000
 20
4.627040
  0
VERTEX
  8
0
  6
CONTINUOUS
 10
3.607120
 20
4.644640
  0
VERTEX
  8
0
  6
CONTINUOUS
 10
3.597000
 20
4.663120
  0
VERTEX
  8
0
  6
CONTINUOUS
 10
3.580720
 20
4.703600
  0
VERTEX
  8
0
  6
CONTINUOUS
 10
3.575000
 20
4.725600
  0
VERTEX
  8
0
  6
CONTINUOUS
 10
3.570600
 20
4.748920
  0
VERTEX
  8
0
  6
CONTINUOUS
 10
3.567960
 20
4.773120
  0
VERTEX
  8
0
  6
CONTINUOUS
 10
3.205400
 20
4.773120
  0
VERTEX
  8
0
  6
CONTINUOUS
 10
3.207160
 20
4.773120
  0
VERTEX
  8
0
  6
CONTINUOUS
 10
3.207160
 20
4.072640
  0
VERTEX
  8
0
  6
CONTINUOUS
 10
4.554880
 20
4.072640
  0
SEQEND
  8
0
  0
TEXT
  8
0
 10
3.746600
 20
3.870680
 40
0.138089
  1
863
 41
1.000000
  7
SN0
 71
     0
 72
     5
 11
4.023442
 21
3.870680
  0
TEXT
  8
0
 10
3.341360
 20
3.679280
 40
0.138089
  1
11/16" x 1-3/8"
 41
1.000000
  7
SN0
 71
     0
 72
     5
 11
4.425813
 21
3.679280
  0
ENDSEC
  0
EOF
