  0
SECTION
  2
HEADER
  9
$ACADVER
  1
AC1006
  9
$EXTMIN
 10
1.121120
 20
0.368280
  9
$EXTMAX
 10
8.066960
 20
4.108720
  9
$LTSCALE
 40
0.044000
  9
$PDMODE
 70
    35
  9
$PDSIZE
 40
0.035200
  0
ENDSEC
  0
SECTION
  2
TABLES
  0
TABLE
  2
LTYPE
 70
     9
  0
LTYPE
  2
CONTINUOUS
 70
    64
  3
Solid line
 72
    65
 73
     0
 40
0.000000
  0
LTYPE
  2
DASHED
 70
    64
  3
__ __ __ __ __ __ __ __ __ __ __ __ __ __ __
 72
    65
 73
     2
 40
0.000330
 49
0.000220
 49
-0.000110
  0
LTYPE
  2
HIDDEN
 70
    64
  3
 _ _ _ _ _ _ _ _ _ _ _ _ _ _ _ _ _ _ _ _ _ _
 72
    65
 73
     2
 40
0.000165
 49
0.000110
 49
-0.000055
  0
LTYPE
  2
CENTER
 70
    64
  3
____ _ ____ _ ____ _ ____ _ ____ _ ____ _ ____
 72
    65
 73
     4
 40
0.000880
 49
0.000550
 49
-0.000110
 49
0.000110
 49
-0.000110
  0
LTYPE
  2
PHANTOM
 70
    64
  3
_____ _ _ _____ _ _ _____ _ _ _____ _ _ ____
 72
    65
 73
     6
 40
0.001100
 49
0.000550
 49
-0.000110
 49
0.000110
 49
-0.000110
 49
0.000110
 49
-0.000110
  0
LTYPE
  2
DOT
 70
    64
  3
...............................................
 72
    65
 73
     2
 40
0.000110
 49
0.000000
 49
-0.000110
  0
LTYPE
  2
DASHDOT
 70
    64
  3
__ . __ . __ . __ . __ . __ . __ . __ . __ . __
 72
    65
 73
     4
 40
0.000440
 49
0.000220
 49
-0.000110
 49
0.000000
 49
-0.000110
  0
LTYPE
  2
BORDER
 70
    64
  3
__ __ . __ __ . __ __ . __ __ . __ __ . __ __
 72
    65
 73
     6
 40
0.000770
 49
0.000220
 49
-0.000110
 49
0.000220
 49
-0.000110
 49
0.000000
 49
-0.000110
  0
LTYPE
  2
DIVIDE
 70
    64
  3
__ . . __ . . __ . . __ . . __ . . __ . . __
 72
    65
 73
     6
 40
0.000550
 49
0.000220
 49
-0.000110
 49
0.000000
 49
-0.000110
 49
0.000000
 49
-0.000110
  0
LTYPE
  2
DOTDOT
 70
    64
  3
 . .  . .  . .  . .  . .  . . 
 72
    65
 73
     5
 40
0.000242
 49
-0.000110
 49
0.000000
 49
-0.000110
 49
0.000000
 49
-0.000110
  0
ENDTAB
  0
TABLE
  2
STYLE
 70
     2
  0
STYLE
 70
     0
  2
SN0
 40
0.000000
 41
0.000440
 50
0.000000
 71
     0
 42
0.000000
  3
ROMAND
  0
STYLE
 70
    68
  2
SV0
 40
0.000000
 41
0.000440
 50
0.000000
 71
     0
 42
0.000000
  3
ROMAND
  0
ENDTAB
  0
TABLE
  2
LAYER
 70
     3
  0
LAYER
  2
FOREGROUND
 70
    64
 62
     7
  6
CONTINUOUS
  0
LAYER
  2
BACKGROUND
 70
    65
 62
    -7
  6
CONTINUOUS
  0
LAYER
  2
0
 70
    64
 62
     7
  6
CONTINUOUS
  0
ENDTAB
  0
ENDSEC
  0
SECTION
  2
ENTITIES
  0
POLYLINE
  8
FOREGROUND
  6
CONTINUOUS
 66
     1
 40
0.000000
 41
0.000000
  0
VERTEX
  8
FOREGROUND
  6
CONTINUOUS
 10
0.000000
 20
4.477000
  0
VERTEX
  8
FOREGROUND
  6
CONTINUOUS
 10
8.499920
 20
4.477000
  0
VERTEX
  8
FOREGROUND
  6
CONTINUOUS
 10
8.499920
 20
-6.523000
  0
VERTEX
  8
FOREGROUND
  6
CONTINUOUS
 10
0.000000
 20
-6.523000
  0
VERTEX
  8
FOREGROUND
  6
CONTINUOUS
 10
0.000000
 20
4.477000
  0
SEQEND
  8
0
  0
POLYLINE
  8
FOREGROUND
  6
CONTINUOUS
 66
     1
 40
0.000000
 41
0.000000
  0
VERTEX
  8
FOREGROUND
  6
CONTINUOUS
 10
0.000000
 20
4.477000
  0
VERTEX
  8
FOREGROUND
  6
CONTINUOUS
 10
8.499920
 20
4.477000
  0
VERTEX
  8
FOREGROUND
  6
CONTINUOUS
 10
8.499920
 20
-6.523000
  0
VERTEX
  8
FOREGROUND
  6
CONTINUOUS
 10
0.000000
 20
-6.523000
  0
VERTEX
  8
FOREGROUND
  6
CONTINUOUS
 10
0.000000
 20
4.477000
  0
SEQEND
  8
0
  0
POLYLINE
  8
0
  6
CONTINUOUS
 66
     1
 40
0.014080
 41
0.014080
  0
VERTEX
  8
0
  6
CONTINUOUS
 10
7.824960
 20
0.465960
  0
VERTEX
  8
0
  6
CONTINUOUS
 10
8.056840
 20
0.707080
  0
VERTEX
  8
0
  6
CONTINUOUS
 10
7.587360
 20
1.159840
  0
VERTEX
  8
0
  6
CONTINUOUS
 10
7.553040
 20
1.130360
  0
VERTEX
  8
0
  6
CONTINUOUS
 10
7.497600
 20
1.092080
  0
VERTEX
  8
0
  6
CONTINUOUS
 10
7.458000
 20
1.070960
  0
VERTEX
  8
0
  6
CONTINUOUS
 10
7.416640
 20
1.052920
  0
VERTEX
  8
0
  6
CONTINUOUS
 10
7.373520
 20
1.038840
  0
VERTEX
  8
0
  6
CONTINUOUS
 10
7.329520
 20
1.028280
  0
VERTEX
  8
0
  6
CONTINUOUS
 10
7.284640
 20
1.022120
  0
VERTEX
  8
0
  6
CONTINUOUS
 10
7.239320
 20
1.020360
  0
VERTEX
  8
0
  6
CONTINUOUS
 10
7.193560
 20
1.022560
  0
VERTEX
  8
0
  6
CONTINUOUS
 10
7.147800
 20
1.029600
  0
VERTEX
  8
0
  6
CONTINUOUS
 10
7.102040
 20
1.041480
  0
VERTEX
  8
0
  6
CONTINUOUS
 10
7.057160
 20
1.058200
  0
VERTEX
  8
0
  6
CONTINUOUS
 10
7.034720
 20
1.068320
  0
VERTEX
  8
0
  6
CONTINUOUS
 10
6.991160
 20
1.092960
  0
VERTEX
  8
0
  6
CONTINUOUS
 10
6.948480
 20
1.123320
  0
VERTEX
  8
0
  6
CONTINUOUS
 10
6.907560
 20
1.158960
  0
VERTEX
  8
0
  6
CONTINUOUS
 10
6.705160
 20
0.948640
  0
VERTEX
  8
0
  6
CONTINUOUS
 10
6.667320
 20
1.025640
  0
VERTEX
  8
0
  6
CONTINUOUS
 10
6.613200
 20
1.119800
  0
VERTEX
  8
0
  6
CONTINUOUS
 10
6.570520
 20
1.184040
  0
VERTEX
  8
0
  6
CONTINUOUS
 10
6.540600
 20
1.224080
  0
VERTEX
  8
0
  6
CONTINUOUS
 10
6.479000
 20
1.297120
  0
VERTEX
  8
0
  6
CONTINUOUS
 10
6.446880
 20
1.330120
  0
VERTEX
  8
0
  6
CONTINUOUS
 10
6.381320
 20
1.389960
  0
VERTEX
  8
0
  6
CONTINUOUS
 10
6.347440
 20
1.416800
  0
VERTEX
  8
0
  6
CONTINUOUS
 10
6.313120
 20
1.441440
  0
VERTEX
  8
0
  6
CONTINUOUS
 10
6.243160
 20
1.485000
  0
VERTEX
  8
0
  6
CONTINUOUS
 10
6.171000
 20
1.520640
  0
VERTEX
  8
0
  6
CONTINUOUS
 10
6.097960
 20
1.548800
  0
VERTEX
  8
0
  6
CONTINUOUS
 10
6.061000
 20
1.560240
  0
VERTEX
  8
0
  6
CONTINUOUS
 10
5.986640
 20
1.578280
  0
VERTEX
  8
0
  6
CONTINUOUS
 10
5.911400
 20
1.589280
  0
VERTEX
  8
0
  6
CONTINUOUS
 10
5.874000
 20
1.592800
  0
VERTEX
  8
0
  6
CONTINUOUS
 10
5.836160
 20
1.594560
  0
VERTEX
  8
0
  6
CONTINUOUS
 10
5.761360
 20
1.593240
  0
VERTEX
  8
0
  6
CONTINUOUS
 10
5.723960
 20
1.591040
  0
VERTEX
  8
0
  6
CONTINUOUS
 10
5.650040
 20
1.581800
  0
VERTEX
  8
0
  6
CONTINUOUS
 10
5.577000
 20
1.567280
  0
VERTEX
  8
0
  6
CONTINUOUS
 10
5.505280
 20
1.547920
  0
VERTEX
  8
0
  6
CONTINUOUS
 10
5.435320
 20
1.524600
  0
VERTEX
  8
0
  6
CONTINUOUS
 10
5.367120
 20
1.496880
  0
VERTEX
  8
0
  6
CONTINUOUS
 10
5.301560
 20
1.465200
  0
VERTEX
  8
0
  6
CONTINUOUS
 10
5.238640
 20
1.430000
  0
VERTEX
  8
0
  6
CONTINUOUS
 10
5.178800
 20
1.391720
  0
VERTEX
  8
0
  6
CONTINUOUS
 10
5.122480
 20
1.350800
  0
VERTEX
  8
0
  6
CONTINUOUS
 10
5.069680
 20
1.306800
  0
VERTEX
  8
0
  6
CONTINUOUS
 10
5.020840
 20
1.261040
  0
VERTEX
  8
0
  6
CONTINUOUS
 10
4.976840
 20
1.213520
  0
VERTEX
  8
0
  6
CONTINUOUS
 10
4.937240
 20
1.164240
  0
VERTEX
  8
0
  6
CONTINUOUS
 10
4.902480
 20
1.113640
  0
VERTEX
  8
0
  6
CONTINUOUS
 10
4.873440
 20
1.062160
  0
VERTEX
  8
0
  6
CONTINUOUS
 10
4.850120
 20
1.010240
  0
VERTEX
  8
0
  6
CONTINUOUS
 10
4.832960
 20
0.957880
  0
VERTEX
  8
0
  6
CONTINUOUS
 10
4.826800
 20
0.931920
  0
VERTEX
  8
0
  6
CONTINUOUS
 10
4.601520
 20
1.148400
  0
VERTEX
  8
0
  6
CONTINUOUS
 10
4.566760
 20
1.116720
  0
VERTEX
  8
0
  6
CONTINUOUS
 10
4.528480
 20
1.090320
  0
VERTEX
  8
0
  6
CONTINUOUS
 10
4.486680
 20
1.067880
  0
VERTEX
  8
0
  6
CONTINUOUS
 10
4.442680
 20
1.050720
  0
VERTEX
  8
0
  6
CONTINUOUS
 10
4.396040
 20
1.037960
  0
VERTEX
  8
0
  6
CONTINUOUS
 10
4.348080
 20
1.029160
  0
VERTEX
  8
0
  6
CONTINUOUS
 10
4.298800
 20
1.025200
  0
VERTEX
  8
0
  6
CONTINUOUS
 10
4.249520
 20
1.025200
  0
VERTEX
  8
0
  6
CONTINUOUS
 10
4.199800
 20
1.029160
  0
VERTEX
  8
0
  6
CONTINUOUS
 10
4.150520
 20
1.037520
  0
VERTEX
  8
0
  6
CONTINUOUS
 10
4.102120
 20
1.049400
  0
VERTEX
  8
0
  6
CONTINUOUS
 10
4.055480
 20
1.065680
  0
VERTEX
  8
0
  6
CONTINUOUS
 10
4.011040
 20
1.085040
  0
VERTEX
  8
0
  6
CONTINUOUS
 10
3.968800
 20
1.108360
  0
VERTEX
  8
0
  6
CONTINUOUS
 10
3.930080
 20
1.135200
  0
VERTEX
  8
0
  6
CONTINUOUS
 10
3.894880
 20
1.165560
  0
VERTEX
  8
0
  6
CONTINUOUS
 10
3.635720
 20
0.896280
  0
VERTEX
  8
0
  6
CONTINUOUS
 10
4.082320
 20
0.466840
  0
VERTEX
  8
0
  6
CONTINUOUS
 10
7.824960
 20
0.465960
  0
SEQEND
  8
0
  0
SOLID
  8
0
 62
    15
 10
2.981880
 20
1.745480
 11
3.627800
 21
1.367960
 12
2.855160
 22
1.668480
 13
3.501080
 23
1.291400
  0
POLYLINE
  8
0
  6
CONTINUOUS
 66
     1
 40
0.000000
 41
0.000000
  0
VERTEX
  8
0
  6
CONTINUOUS
 10
2.981880
 20
1.745480
  0
VERTEX
  8
0
  6
CONTINUOUS
 10
3.627800
 20
1.367960
  0
VERTEX
  8
0
  6
CONTINUOUS
 10
3.501080
 20
1.291400
  0
VERTEX
  8
0
  6
CONTINUOUS
 10
2.855160
 20
1.668480
  0
VERTEX
  8
0
  6
CONTINUOUS
 10
2.981880
 20
1.745480
  0
SEQEND
  8
0
  0
SOLID
  8
0
 62
    15
 10
4.051520
 20
3.455760
 11
4.697440
 21
3.078680
 12
3.962640
 22
3.443440
 13
4.608560
 23
3.066360
  0
POLYLINE
  8
0
  6
CONTINUOUS
 66
     1
 40
0.000000
 41
0.000000
  0
VERTEX
  8
0
  6
CONTINUOUS
 10
4.051520
 20
3.455760
  0
VERTEX
  8
0
  6
CONTINUOUS
 10
4.697440
 20
3.078680
  0
VERTEX
  8
0
  6
CONTINUOUS
 10
4.608560
 20
3.066360
  0
VERTEX
  8
0
  6
CONTINUOUS
 10
3.962640
 20
3.443440
  0
VERTEX
  8
0
  6
CONTINUOUS
 10
4.051520
 20
3.455760
  0
SEQEND
  8
0
  0
SOLID
  8
0
 62
    15
 10
3.962640
 20
3.443440
 11
4.608560
 21
3.066360
 12
3.876840
 22
3.416160
 13
4.522760
 23
3.039080
  0
POLYLINE
  8
0
  6
CONTINUOUS
 66
     1
 40
0.000000
 41
0.000000
  0
VERTEX
  8
0
  6
CONTINUOUS
 10
3.962640
 20
3.443440
  0
VERTEX
  8
0
  6
CONTINUOUS
 10
4.608560
 20
3.066360
  0
VERTEX
  8
0
  6
CONTINUOUS
 10
4.522760
 20
3.039080
  0
VERTEX
  8
0
  6
CONTINUOUS
 10
3.876840
 20
3.416160
  0
VERTEX
  8
0
  6
CONTINUOUS
 10
3.962640
 20
3.443440
  0
SEQEND
  8
0
  0
SOLID
  8
0
 62
    15
 10
3.876840
 20
3.416160
 11
4.522760
 21
3.039080
 12
3.796760
 22
3.373920
 13
4.443120
 23
2.996840
  0
POLYLINE
  8
0
  6
CONTINUOUS
 66
     1
 40
0.000000
 41
0.000000
  0
VERTEX
  8
0
  6
CONTINUOUS
 10
3.876840
 20
3.416160
  0
VERTEX
  8
0
  6
CONTINUOUS
 10
4.522760
 20
3.039080
  0
VERTEX
  8
0
  6
CONTINUOUS
 10
4.443120
 20
2.996840
  0
VERTEX
  8
0
  6
CONTINUOUS
 10
3.796760
 20
3.373920
  0
VERTEX
  8
0
  6
CONTINUOUS
 10
3.876840
 20
3.416160
  0
SEQEND
  8
0
  0
SOLID
  8
0
 62
    15
 10
3.796760
 20
3.373920
 11
4.443120
 21
2.996840
 12
3.725920
 22
3.318040
 13
4.371840
 23
2.940960
  0
POLYLINE
  8
0
  6
CONTINUOUS
 66
     1
 40
0.000000
 41
0.000000
  0
VERTEX
  8
0
  6
CONTINUOUS
 10
3.796760
 20
3.373920
  0
VERTEX
  8
0
  6
CONTINUOUS
 10
4.443120
 20
2.996840
  0
VERTEX
  8
0
  6
CONTINUOUS
 10
4.371840
 20
2.940960
  0
VERTEX
  8
0
  6
CONTINUOUS
 10
3.725920
 20
3.318040
  0
VERTEX
  8
0
  6
CONTINUOUS
 10
3.796760
 20
3.373920
  0
SEQEND
  8
0
  0
SOLID
  8
0
 62
    15
 10
3.725920
 20
3.318040
 11
4.371840
 21
2.940960
 12
3.665640
 22
3.248960
 13
4.311560
 23
2.871440
  0
POLYLINE
  8
0
  6
CONTINUOUS
 66
     1
 40
0.000000
 41
0.000000
  0
VERTEX
  8
0
  6
CONTINUOUS
 10
3.725920
 20
3.318040
  0
VERTEX
  8
0
  6
CONTINUOUS
 10
4.371840
 20
2.940960
  0
VERTEX
  8
0
  6
CONTINUOUS
 10
4.311560
 20
2.871440
  0
VERTEX
  8
0
  6
CONTINUOUS
 10
3.665640
 20
3.248960
  0
VERTEX
  8
0
  6
CONTINUOUS
 10
3.725920
 20
3.318040
  0
SEQEND
  8
0
  0
SOLID
  8
0
 62
    15
 10
3.665640
 20
3.248960
 11
4.311560
 21
2.871440
 12
3.619880
 22
3.166680
 13
4.265800
 23
2.789600
  0
POLYLINE
  8
0
  6
CONTINUOUS
 66
     1
 40
0.000000
 41
0.000000
  0
VERTEX
  8
0
  6
CONTINUOUS
 10
3.665640
 20
3.248960
  0
VERTEX
  8
0
  6
CONTINUOUS
 10
4.311560
 20
2.871440
  0
VERTEX
  8
0
  6
CONTINUOUS
 10
4.265800
 20
2.789600
  0
VERTEX
  8
0
  6
CONTINUOUS
 10
3.619880
 20
3.166680
  0
VERTEX
  8
0
  6
CONTINUOUS
 10
3.665640
 20
3.248960
  0
SEQEND
  8
0
  0
SOLID
  8
0
 62
    15
 10
3.619880
 20
3.166680
 11
4.265800
 21
2.789600
 12
3.589960
 22
3.072520
 13
4.236320
 23
2.695440
  0
POLYLINE
  8
0
  6
CONTINUOUS
 66
     1
 40
0.000000
 41
0.000000
  0
VERTEX
  8
0
  6
CONTINUOUS
 10
3.619880
 20
3.166680
  0
VERTEX
  8
0
  6
CONTINUOUS
 10
4.265800
 20
2.789600
  0
VERTEX
  8
0
  6
CONTINUOUS
 10
4.236320
 20
2.695440
  0
VERTEX
  8
0
  6
CONTINUOUS
 10
3.589960
 20
3.072520
  0
VERTEX
  8
0
  6
CONTINUOUS
 10
3.619880
 20
3.166680
  0
SEQEND
  8
0
  0
SOLID
  8
0
 62
    15
 10
3.589960
 20
3.072520
 11
4.236320
 21
2.695440
 12
3.579840
 22
2.966480
 13
4.225760
 23
2.589400
  0
POLYLINE
  8
0
  6
CONTINUOUS
 66
     1
 40
0.000000
 41
0.000000
  0
VERTEX
  8
0
  6
CONTINUOUS
 10
3.589960
 20
3.072520
  0
VERTEX
  8
0
  6
CONTINUOUS
 10
4.236320
 20
2.695440
  0
VERTEX
  8
0
  6
CONTINUOUS
 10
4.225760
 20
2.589400
  0
VERTEX
  8
0
  6
CONTINUOUS
 10
3.579840
 20
2.966480
  0
VERTEX
  8
0
  6
CONTINUOUS
 10
3.589960
 20
3.072520
  0
SEQEND
  8
0
  0
SOLID
  8
0
 62
    15
 10
3.579840
 20
2.966480
 11
4.225760
 21
2.589400
 12
3.287680
 22
2.966480
 13
3.933600
 23
2.589400
  0
POLYLINE
  8
0
  6
CONTINUOUS
 66
     1
 40
0.000000
 41
0.000000
  0
VERTEX
  8
0
  6
CONTINUOUS
 10
3.579840
 20
2.966480
  0
VERTEX
  8
0
  6
CONTINUOUS
 10
4.225760
 20
2.589400
  0
VERTEX
  8
0
  6
CONTINUOUS
 10
3.933600
 20
2.589400
  0
VERTEX
  8
0
  6
CONTINUOUS
 10
3.287680
 20
2.966480
  0
VERTEX
  8
0
  6
CONTINUOUS
 10
3.579840
 20
2.966480
  0
SEQEND
  8
0
  0
SOLID
  8
0
 62
    15
 10
3.287680
 20
2.966480
 11
3.933600
 21
2.589400
 12
3.353240
 22
2.756160
 13
3.999160
 23
2.379080
  0
POLYLINE
  8
0
  6
CONTINUOUS
 66
     1
 40
0.000000
 41
0.000000
  0
VERTEX
  8
0
  6
CONTINUOUS
 10
3.287680
 20
2.966480
  0
VERTEX
  8
0
  6
CONTINUOUS
 10
3.933600
 20
2.589400
  0
VERTEX
  8
0
  6
CONTINUOUS
 10
3.999160
 20
2.379080
  0
VERTEX
  8
0
  6
CONTINUOUS
 10
3.353240
 20
2.756160
  0
VERTEX
  8
0
  6
CONTINUOUS
 10
3.287680
 20
2.966480
  0
SEQEND
  8
0
  0
SOLID
  8
0
 62
    15
 10
3.353240
 20
2.756160
 11
3.999160
 21
2.379080
 12
3.381840
 22
2.562120
 13
4.027760
 23
2.185040
  0
POLYLINE
  8
0
  6
CONTINUOUS
 66
     1
 40
0.000000
 41
0.000000
  0
VERTEX
  8
0
  6
CONTINUOUS
 10
3.353240
 20
2.756160
  0
VERTEX
  8
0
  6
CONTINUOUS
 10
3.999160
 20
2.379080
  0
VERTEX
  8
0
  6
CONTINUOUS
 10
4.027760
 20
2.185040
  0
VERTEX
  8
0
  6
CONTINUOUS
 10
3.381840
 20
2.562120
  0
VERTEX
  8
0
  6
CONTINUOUS
 10
3.353240
 20
2.756160
  0
SEQEND
  8
0
  0
SOLID
  8
0
 62
    15
 10
3.381840
 20
2.562120
 11
4.027760
 21
2.185040
 12
3.377000
 22
2.384360
 13
4.022920
 23
2.006840
  0
POLYLINE
  8
0
  6
CONTINUOUS
 66
     1
 40
0.000000
 41
0.000000
  0
VERTEX
  8
0
  6
CONTINUOUS
 10
3.381840
 20
2.562120
  0
VERTEX
  8
0
  6
CONTINUOUS
 10
4.027760
 20
2.185040
  0
VERTEX
  8
0
  6
CONTINUOUS
 10
4.022920
 20
2.006840
  0
VERTEX
  8
0
  6
CONTINUOUS
 10
3.377000
 20
2.384360
  0
VERTEX
  8
0
  6
CONTINUOUS
 10
3.381840
 20
2.562120
  0
SEQEND
  8
0
  0
SOLID
  8
0
 62
    15
 10
3.377000
 20
2.384360
 11
4.022920
 21
2.006840
 12
3.342240
 22
2.222880
 13
3.988160
 23
1.845800
  0
POLYLINE
  8
0
  6
CONTINUOUS
 66
     1
 40
0.000000
 41
0.000000
  0
VERTEX
  8
0
  6
CONTINUOUS
 10
3.377000
 20
2.384360
  0
VERTEX
  8
0
  6
CONTINUOUS
 10
4.022920
 20
2.006840
  0
VERTEX
  8
0
  6
CONTINUOUS
 10
3.988160
 20
1.845800
  0
VERTEX
  8
0
  6
CONTINUOUS
 10
3.342240
 20
2.222880
  0
VERTEX
  8
0
  6
CONTINUOUS
 10
3.377000
 20
2.384360
  0
SEQEND
  8
0
  0
SOLID
  8
0
 62
    15
 10
3.342240
 20
2.222880
 11
3.988160
 21
1.845800
 12
3.281520
 22
2.078120
 13
3.927880
 23
1.701040
  0
POLYLINE
  8
0
  6
CONTINUOUS
 66
     1
 40
0.000000
 41
0.000000
  0
VERTEX
  8
0
  6
CONTINUOUS
 10
3.342240
 20
2.222880
  0
VERTEX
  8
0
  6
CONTINUOUS
 10
3.988160
 20
1.845800
  0
VERTEX
  8
0
  6
CONTINUOUS
 10
3.927880
 20
1.701040
  0
VERTEX
  8
0
  6
CONTINUOUS
 10
3.281520
 20
2.078120
  0
VERTEX
  8
0
  6
CONTINUOUS
 10
3.342240
 20
2.222880
  0
SEQEND
  8
0
  0
SOLID
  8
0
 62
    15
 10
3.281520
 20
2.078120
 11
3.927880
 21
1.701040
 12
3.198800
 22
1.950080
 13
3.845160
 23
1.573000
  0
POLYLINE
  8
0
  6
CONTINUOUS
 66
     1
 40
0.000000
 41
0.000000
  0
VERTEX
  8
0
  6
CONTINUOUS
 10
3.281520
 20
2.078120
  0
VERTEX
  8
0
  6
CONTINUOUS
 10
3.927880
 20
1.701040
  0
VERTEX
  8
0
  6
CONTINUOUS
 10
3.845160
 20
1.573000
  0
VERTEX
  8
0
  6
CONTINUOUS
 10
3.198800
 20
1.950080
  0
VERTEX
  8
0
  6
CONTINUOUS
 10
3.281520
 20
2.078120
  0
SEQEND
  8
0
  0
SOLID
  8
0
 62
    15
 10
3.198800
 20
1.950080
 11
3.845160
 21
1.573000
 12
3.097600
 22
1.839200
 13
3.743960
 23
1.462120
  0
POLYLINE
  8
0
  6
CONTINUOUS
 66
     1
 40
0.000000
 41
0.000000
  0
VERTEX
  8
0
  6
CONTINUOUS
 10
3.198800
 20
1.950080
  0
VERTEX
  8
0
  6
CONTINUOUS
 10
3.845160
 20
1.573000
  0
VERTEX
  8
0
  6
CONTINUOUS
 10
3.743960
 20
1.462120
  0
VERTEX
  8
0
  6
CONTINUOUS
 10
3.097600
 20
1.839200
  0
VERTEX
  8
0
  6
CONTINUOUS
 10
3.198800
 20
1.950080
  0
SEQEND
  8
0
  0
SOLID
  8
0
 62
    15
 10
3.097600
 20
1.839200
 11
3.743960
 21
1.462120
 12
2.981880
 22
1.745480
 13
3.627800
 23
1.367960
  0
POLYLINE
  8
0
  6
CONTINUOUS
 66
     1
 40
0.000000
 41
0.000000
  0
VERTEX
  8
0
  6
CONTINUOUS
 10
3.097600
 20
1.839200
  0
VERTEX
  8
0
  6
CONTINUOUS
 10
3.743960
 20
1.462120
  0
VERTEX
  8
0
  6
CONTINUOUS
 10
3.627800
 20
1.367960
  0
VERTEX
  8
0
  6
CONTINUOUS
 10
2.981880
 20
1.745480
  0
VERTEX
  8
0
  6
CONTINUOUS
 10
3.097600
 20
1.839200
  0
SEQEND
  8
0
  0
SOLID
  8
0
 62
    15
 10
4.051080
 20
4.107840
 11
4.697000
 21
3.730760
 12
4.051520
 22
3.455760
 13
4.697440
 23
3.078680
  0
POLYLINE
  8
0
  6
CONTINUOUS
 66
     1
 40
0.000000
 41
0.000000
  0
VERTEX
  8
0
  6
CONTINUOUS
 10
4.051080
 20
4.107840
  0
VERTEX
  8
0
  6
CONTINUOUS
 10
4.697000
 20
3.730760
  0
VERTEX
  8
0
  6
CONTINUOUS
 10
4.697440
 20
3.078680
  0
VERTEX
  8
0
  6
CONTINUOUS
 10
4.051520
 20
3.455760
  0
VERTEX
  8
0
  6
CONTINUOUS
 10
4.051080
 20
4.107840
  0
SEQEND
  8
0
  0
SOLID
  8
0
 62
    15
 10
2.855160
 20
1.668480
 11
3.501080
 21
1.291400
 12
2.720960
 22
1.609080
 13
3.366880
 23
1.232000
  0
POLYLINE
  8
0
  6
CONTINUOUS
 66
     1
 40
0.000000
 41
0.000000
  0
VERTEX
  8
0
  6
CONTINUOUS
 10
2.855160
 20
1.668480
  0
VERTEX
  8
0
  6
CONTINUOUS
 10
3.501080
 20
1.291400
  0
VERTEX
  8
0
  6
CONTINUOUS
 10
3.366880
 20
1.232000
  0
VERTEX
  8
0
  6
CONTINUOUS
 10
2.720960
 20
1.609080
  0
VERTEX
  8
0
  6
CONTINUOUS
 10
2.855160
 20
1.668480
  0
SEQEND
  8
0
  0
SOLID
  8
0
 62
    15
 10
2.720960
 20
1.609080
 11
3.366880
 21
1.232000
 12
2.583240
 22
1.567280
 13
3.229160
 23
1.189760
  0
POLYLINE
  8
0
  6
CONTINUOUS
 66
     1
 40
0.000000
 41
0.000000
  0
VERTEX
  8
0
  6
CONTINUOUS
 10
2.720960
 20
1.609080
  0
VERTEX
  8
0
  6
CONTINUOUS
 10
3.366880
 20
1.232000
  0
VERTEX
  8
0
  6
CONTINUOUS
 10
3.229160
 20
1.189760
  0
VERTEX
  8
0
  6
CONTINUOUS
 10
2.583240
 20
1.567280
  0
VERTEX
  8
0
  6
CONTINUOUS
 10
2.720960
 20
1.609080
  0
SEQEND
  8
0
  0
SOLID
  8
0
 62
    15
 10
2.583240
 20
1.567280
 11
3.229160
 21
1.189760
 12
2.445520
 22
1.542640
 13
3.091880
 23
1.165560
  0
POLYLINE
  8
0
  6
CONTINUOUS
 66
     1
 40
0.000000
 41
0.000000
  0
VERTEX
  8
0
  6
CONTINUOUS
 10
2.583240
 20
1.567280
  0
VERTEX
  8
0
  6
CONTINUOUS
 10
3.229160
 20
1.189760
  0
VERTEX
  8
0
  6
CONTINUOUS
 10
3.091880
 20
1.165560
  0
VERTEX
  8
0
  6
CONTINUOUS
 10
2.445520
 20
1.542640
  0
VERTEX
  8
0
  6
CONTINUOUS
 10
2.583240
 20
1.567280
  0
SEQEND
  8
0
  0
SOLID
  8
0
 62
    15
 10
2.445520
 20
1.542640
 11
3.091880
 21
1.165560
 12
2.312200
 22
1.536040
 13
2.958560
 23
1.158960
  0
POLYLINE
  8
0
  6
CONTINUOUS
 66
     1
 40
0.000000
 41
0.000000
  0
VERTEX
  8
0
  6
CONTINUOUS
 10
2.445520
 20
1.542640
  0
VERTEX
  8
0
  6
CONTINUOUS
 10
3.091880
 20
1.165560
  0
VERTEX
  8
0
  6
CONTINUOUS
 10
2.958560
 20
1.158960
  0
VERTEX
  8
0
  6
CONTINUOUS
 10
2.312200
 20
1.536040
  0
VERTEX
  8
0
  6
CONTINUOUS
 10
2.445520
 20
1.542640
  0
SEQEND
  8
0
  0
SOLID
  8
0
 62
    15
 10
2.312200
 20
1.536040
 11
2.958560
 21
1.158960
 12
2.186360
 22
1.547480
 13
2.832720
 23
1.170400
  0
POLYLINE
  8
0
  6
CONTINUOUS
 66
     1
 40
0.000000
 41
0.000000
  0
VERTEX
  8
0
  6
CONTINUOUS
 10
2.312200
 20
1.536040
  0
VERTEX
  8
0
  6
CONTINUOUS
 10
2.958560
 20
1.158960
  0
VERTEX
  8
0
  6
CONTINUOUS
 10
2.832720
 20
1.170400
  0
VERTEX
  8
0
  6
CONTINUOUS
 10
2.186360
 20
1.547480
  0
VERTEX
  8
0
  6
CONTINUOUS
 10
2.312200
 20
1.536040
  0
SEQEND
  8
0
  0
SOLID
  8
0
 62
    15
 10
1.972960
 20
1.624480
 11
2.619320
 21
1.247400
 12
1.972960
 22
1.312080
 13
2.619320
 23
0.935000
  0
POLYLINE
  8
0
  6
CONTINUOUS
 66
     1
 40
0.000000
 41
0.000000
  0
VERTEX
  8
0
  6
CONTINUOUS
 10
1.972960
 20
1.624480
  0
VERTEX
  8
0
  6
CONTINUOUS
 10
2.619320
 20
1.247400
  0
VERTEX
  8
0
  6
CONTINUOUS
 10
2.619320
 20
0.935000
  0
VERTEX
  8
0
  6
CONTINUOUS
 10
1.972960
 20
1.312080
  0
VERTEX
  8
0
  6
CONTINUOUS
 10
1.972960
 20
1.624480
  0
SEQEND
  8
0
  0
SOLID
  8
0
 62
    15
 10
2.072400
 20
1.576960
 11
2.718320
 21
1.199880
 12
1.972960
 22
1.624480
 13
2.619320
 23
1.247400
  0
POLYLINE
  8
0
  6
CONTINUOUS
 66
     1
 40
0.000000
 41
0.000000
  0
VERTEX
  8
0
  6
CONTINUOUS
 10
2.072400
 20
1.576960
  0
VERTEX
  8
0
  6
CONTINUOUS
 10
2.718320
 20
1.199880
  0
VERTEX
  8
0
  6
CONTINUOUS
 10
2.619320
 20
1.247400
  0
VERTEX
  8
0
  6
CONTINUOUS
 10
1.972960
 20
1.624480
  0
VERTEX
  8
0
  6
CONTINUOUS
 10
2.072400
 20
1.576960
  0
SEQEND
  8
0
  0
SOLID
  8
0
 62
    15
 10
2.186360
 20
1.547480
 11
2.832720
 21
1.170400
 12
2.072400
 22
1.576960
 13
2.718320
 23
1.199880
  0
POLYLINE
  8
0
  6
CONTINUOUS
 66
     1
 40
0.000000
 41
0.000000
  0
VERTEX
  8
0
  6
CONTINUOUS
 10
2.186360
 20
1.547480
  0
VERTEX
  8
0
  6
CONTINUOUS
 10
2.832720
 20
1.170400
  0
VERTEX
  8
0
  6
CONTINUOUS
 10
2.718320
 20
1.199880
  0
VERTEX
  8
0
  6
CONTINUOUS
 10
2.072400
 20
1.576960
  0
VERTEX
  8
0
  6
CONTINUOUS
 10
2.186360
 20
1.547480
  0
SEQEND
  8
0
  0
SOLID
  8
0
 62
    15
 10
1.972960
 20
1.312080
 11
2.619320
 21
0.935000
 12
1.880560
 22
1.300200
 13
2.526480
 23
0.922680
  0
POLYLINE
  8
0
  6
CONTINUOUS
 66
     1
 40
0.000000
 41
0.000000
  0
VERTEX
  8
0
  6
CONTINUOUS
 10
1.972960
 20
1.312080
  0
VERTEX
  8
0
  6
CONTINUOUS
 10
2.619320
 20
0.935000
  0
VERTEX
  8
0
  6
CONTINUOUS
 10
2.526480
 20
0.922680
  0
VERTEX
  8
0
  6
CONTINUOUS
 10
1.880560
 20
1.300200
  0
VERTEX
  8
0
  6
CONTINUOUS
 10
1.972960
 20
1.312080
  0
SEQEND
  8
0
  0
SOLID
  8
0
 62
    15
 10
1.880560
 20
1.300200
 11
2.526480
 21
0.922680
 12
1.792560
 22
1.265440
 13
2.438480
 23
0.888360
  0
POLYLINE
  8
0
  6
CONTINUOUS
 66
     1
 40
0.000000
 41
0.000000
  0
VERTEX
  8
0
  6
CONTINUOUS
 10
1.880560
 20
1.300200
  0
VERTEX
  8
0
  6
CONTINUOUS
 10
2.526480
 20
0.922680
  0
VERTEX
  8
0
  6
CONTINUOUS
 10
2.438480
 20
0.888360
  0
VERTEX
  8
0
  6
CONTINUOUS
 10
1.792560
 20
1.265440
  0
VERTEX
  8
0
  6
CONTINUOUS
 10
1.880560
 20
1.300200
  0
SEQEND
  8
0
  0
SOLID
  8
0
 62
    15
 10
1.792560
 20
1.265440
 11
2.438480
 21
0.888360
 12
1.711600
 22
1.212200
 13
2.357520
 23
0.835120
  0
POLYLINE
  8
0
  6
CONTINUOUS
 66
     1
 40
0.000000
 41
0.000000
  0
VERTEX
  8
0
  6
CONTINUOUS
 10
1.792560
 20
1.265440
  0
VERTEX
  8
0
  6
CONTINUOUS
 10
2.438480
 20
0.888360
  0
VERTEX
  8
0
  6
CONTINUOUS
 10
2.357520
 20
0.835120
  0
VERTEX
  8
0
  6
CONTINUOUS
 10
1.711600
 20
1.212200
  0
VERTEX
  8
0
  6
CONTINUOUS
 10
1.792560
 20
1.265440
  0
SEQEND
  8
0
  0
SOLID
  8
0
 62
    15
 10
1.711600
 20
1.212200
 11
2.357520
 21
0.835120
 12
1.639880
 22
1.144000
 13
2.286240
 23
0.766480
  0
POLYLINE
  8
0
  6
CONTINUOUS
 66
     1
 40
0.000000
 41
0.000000
  0
VERTEX
  8
0
  6
CONTINUOUS
 10
1.711600
 20
1.212200
  0
VERTEX
  8
0
  6
CONTINUOUS
 10
2.357520
 20
0.835120
  0
VERTEX
  8
0
  6
CONTINUOUS
 10
2.286240
 20
0.766480
  0
VERTEX
  8
0
  6
CONTINUOUS
 10
1.639880
 20
1.144000
  0
VERTEX
  8
0
  6
CONTINUOUS
 10
1.711600
 20
1.212200
  0
SEQEND
  8
0
  0
SOLID
  8
0
 62
    15
 10
1.639880
 20
1.144000
 11
2.286240
 21
0.766480
 12
1.580480
 22
1.063920
 13
2.226400
 23
0.686840
  0
POLYLINE
  8
0
  6
CONTINUOUS
 66
     1
 40
0.000000
 41
0.000000
  0
VERTEX
  8
0
  6
CONTINUOUS
 10
1.639880
 20
1.144000
  0
VERTEX
  8
0
  6
CONTINUOUS
 10
2.286240
 20
0.766480
  0
VERTEX
  8
0
  6
CONTINUOUS
 10
2.226400
 20
0.686840
  0
VERTEX
  8
0
  6
CONTINUOUS
 10
1.580480
 20
1.063920
  0
VERTEX
  8
0
  6
CONTINUOUS
 10
1.639880
 20
1.144000
  0
SEQEND
  8
0
  0
SOLID
  8
0
 62
    15
 10
1.580480
 20
1.063920
 11
2.226400
 21
0.686840
 12
1.534720
 22
0.976360
 13
2.180640
 23
0.598840
  0
POLYLINE
  8
0
  6
CONTINUOUS
 66
     1
 40
0.000000
 41
0.000000
  0
VERTEX
  8
0
  6
CONTINUOUS
 10
1.580480
 20
1.063920
  0
VERTEX
  8
0
  6
CONTINUOUS
 10
2.226400
 20
0.686840
  0
VERTEX
  8
0
  6
CONTINUOUS
 10
2.180640
 20
0.598840
  0
VERTEX
  8
0
  6
CONTINUOUS
 10
1.534720
 20
0.976360
  0
VERTEX
  8
0
  6
CONTINUOUS
 10
1.580480
 20
1.063920
  0
SEQEND
  8
0
  0
SOLID
  8
0
 62
    15
 10
1.534720
 20
0.976360
 11
2.180640
 21
0.598840
 12
1.505680
 22
0.883960
 13
2.151600
 23
0.506880
  0
POLYLINE
  8
0
  6
CONTINUOUS
 66
     1
 40
0.000000
 41
0.000000
  0
VERTEX
  8
0
  6
CONTINUOUS
 10
1.534720
 20
0.976360
  0
VERTEX
  8
0
  6
CONTINUOUS
 10
2.180640
 20
0.598840
  0
VERTEX
  8
0
  6
CONTINUOUS
 10
2.151600
 20
0.506880
  0
VERTEX
  8
0
  6
CONTINUOUS
 10
1.505680
 20
0.883960
  0
VERTEX
  8
0
  6
CONTINUOUS
 10
1.534720
 20
0.976360
  0
SEQEND
  8
0
  0
SOLID
  8
0
 62
    15
 10
1.505680
 20
0.883960
 11
2.151600
 21
0.506880
 12
1.495560
 22
0.791120
 13
2.141480
 23
0.413600
  0
POLYLINE
  8
0
  6
CONTINUOUS
 66
     1
 40
0.000000
 41
0.000000
  0
VERTEX
  8
0
  6
CONTINUOUS
 10
1.505680
 20
0.883960
  0
VERTEX
  8
0
  6
CONTINUOUS
 10
2.151600
 20
0.506880
  0
VERTEX
  8
0
  6
CONTINUOUS
 10
2.141480
 20
0.413600
  0
VERTEX
  8
0
  6
CONTINUOUS
 10
1.495560
 20
0.791120
  0
VERTEX
  8
0
  6
CONTINUOUS
 10
1.505680
 20
0.883960
  0
SEQEND
  8
0
  0
SOLID
  8
0
 62
    15
 10
1.495560
 20
0.791120
 11
2.141480
 21
0.413600
 12
1.121560
 22
0.791120
 13
1.767920
 23
0.413600
  0
POLYLINE
  8
0
  6
CONTINUOUS
 66
     1
 40
0.000000
 41
0.000000
  0
VERTEX
  8
0
  6
CONTINUOUS
 10
1.495560
 20
0.791120
  0
VERTEX
  8
0
  6
CONTINUOUS
 10
2.141480
 20
0.413600
  0
VERTEX
  8
0
  6
CONTINUOUS
 10
1.767920
 20
0.413600
  0
VERTEX
  8
0
  6
CONTINUOUS
 10
1.121560
 20
0.791120
  0
VERTEX
  8
0
  6
CONTINUOUS
 10
1.495560
 20
0.791120
  0
SEQEND
  8
0
  0
POLYLINE
  8
0
  6
CONTINUOUS
 66
     1
 40
0.000000
 41
0.000000
  0
VERTEX
  8
0
  6
CONTINUOUS
 10
3.716680
 20
4.107840
  0
VERTEX
  8
0
  6
CONTINUOUS
 10
4.051080
 20
4.107840
  0
VERTEX
  8
0
  6
CONTINUOUS
 10
4.051520
 20
3.455760
  0
VERTEX
  8
0
  6
CONTINUOUS
 10
3.962640
 20
3.443440
  0
VERTEX
  8
0
  6
CONTINUOUS
 10
3.876840
 20
3.416160
  0
VERTEX
  8
0
  6
CONTINUOUS
 10
3.796760
 20
3.373920
  0
VERTEX
  8
0
  6
CONTINUOUS
 10
3.725920
 20
3.318040
  0
VERTEX
  8
0
  6
CONTINUOUS
 10
3.665640
 20
3.248960
  0
VERTEX
  8
0
  6
CONTINUOUS
 10
3.619880
 20
3.166680
  0
VERTEX
  8
0
  6
CONTINUOUS
 10
3.589960
 20
3.072520
  0
VERTEX
  8
0
  6
CONTINUOUS
 10
3.579840
 20
2.966480
  0
VERTEX
  8
0
  6
CONTINUOUS
 10
3.287680
 20
2.966480
  0
VERTEX
  8
0
  6
CONTINUOUS
 10
3.353240
 20
2.756160
  0
VERTEX
  8
0
  6
CONTINUOUS
 10
3.381840
 20
2.562120
  0
VERTEX
  8
0
  6
CONTINUOUS
 10
3.377000
 20
2.384360
  0
VERTEX
  8
0
  6
CONTINUOUS
 10
3.342240
 20
2.222880
  0
VERTEX
  8
0
  6
CONTINUOUS
 10
3.281520
 20
2.078120
  0
VERTEX
  8
0
  6
CONTINUOUS
 10
3.198800
 20
1.950080
  0
VERTEX
  8
0
  6
CONTINUOUS
 10
3.097600
 20
1.839200
  0
VERTEX
  8
0
  6
CONTINUOUS
 10
2.981880
 20
1.745480
  0
VERTEX
  8
0
  6
CONTINUOUS
 10
2.855160
 20
1.668480
  0
VERTEX
  8
0
  6
CONTINUOUS
 10
2.720960
 20
1.609080
  0
VERTEX
  8
0
  6
CONTINUOUS
 10
2.583240
 20
1.567280
  0
VERTEX
  8
0
  6
CONTINUOUS
 10
2.445520
 20
1.542640
  0
VERTEX
  8
0
  6
CONTINUOUS
 10
2.312200
 20
1.536040
  0
VERTEX
  8
0
  6
CONTINUOUS
 10
2.186360
 20
1.547480
  0
VERTEX
  8
0
  6
CONTINUOUS
 10
2.072400
 20
1.576960
  0
VERTEX
  8
0
  6
CONTINUOUS
 10
1.972960
 20
1.624480
  0
VERTEX
  8
0
  6
CONTINUOUS
 10
1.972960
 20
1.312080
  0
VERTEX
  8
0
  6
CONTINUOUS
 10
1.880560
 20
1.300200
  0
VERTEX
  8
0
  6
CONTINUOUS
 10
1.792560
 20
1.265440
  0
VERTEX
  8
0
  6
CONTINUOUS
 10
1.711600
 20
1.212200
  0
VERTEX
  8
0
  6
CONTINUOUS
 10
1.639880
 20
1.144000
  0
VERTEX
  8
0
  6
CONTINUOUS
 10
1.580480
 20
1.063920
  0
VERTEX
  8
0
  6
CONTINUOUS
 10
1.534720
 20
0.976360
  0
VERTEX
  8
0
  6
CONTINUOUS
 10
1.505680
 20
0.883960
  0
VERTEX
  8
0
  6
CONTINUOUS
 10
1.495560
 20
0.791120
  0
VERTEX
  8
0
  6
CONTINUOUS
 10
1.121560
 20
0.791120
  0
VERTEX
  8
0
  6
CONTINUOUS
 10
1.121560
 20
1.410640
  0
VERTEX
  8
0
  6
CONTINUOUS
 10
3.716680
 20
4.107840
  0
SEQEND
  8
0
  0
TEXT
  8
0
 10
2.819960
 20
0.602800
 40
0.138169
  1
BA  862
 41
1.000000
  7
SN0
 71
     0
 72
     5
 11
3.408967
 21
0.602800
  0
TEXT
  8
0
 10
2.544080
 20
0.411400
 40
0.138169
  1
1-1/8" x 4-7/16"
 41
1.000000
  7
SN0
 71
     0
 72
     5
 11
3.682850
 21
0.411400
  0
ENDSEC
  0
EOF
