  0
SECTION
  2
HEADER
  9
$ACADVER
  1
AC1006
  9
$EXTMIN
 10
3.959560
 20
1.595440
  9
$EXTMAX
 10
5.235560
 20
5.313000
  9
$LTSCALE
 40
0.044000
  9
$PDMODE
 70
    35
  9
$PDSIZE
 40
0.035200
  0
ENDSEC
  0
SECTION
  2
TABLES
  0
TABLE
  2
LTYPE
 70
     9
  0
LTYPE
  2
CONTINUOUS
 70
    64
  3
Solid line
 72
    65
 73
     0
 40
0.000000
  0
LTYPE
  2
DASHED
 70
    64
  3
__ __ __ __ __ __ __ __ __ __ __ __ __ __ __
 72
    65
 73
     2
 40
0.000330
 49
0.000220
 49
-0.000110
  0
LTYPE
  2
HIDDEN
 70
    64
  3
 _ _ _ _ _ _ _ _ _ _ _ _ _ _ _ _ _ _ _ _ _ _
 72
    65
 73
     2
 40
0.000165
 49
0.000110
 49
-0.000055
  0
LTYPE
  2
CENTER
 70
    64
  3
____ _ ____ _ ____ _ ____ _ ____ _ ____ _ ____
 72
    65
 73
     4
 40
0.000880
 49
0.000550
 49
-0.000110
 49
0.000110
 49
-0.000110
  0
LTYPE
  2
PHANTOM
 70
    64
  3
_____ _ _ _____ _ _ _____ _ _ _____ _ _ ____
 72
    65
 73
     6
 40
0.001100
 49
0.000550
 49
-0.000110
 49
0.000110
 49
-0.000110
 49
0.000110
 49
-0.000110
  0
LTYPE
  2
DOT
 70
    64
  3
...............................................
 72
    65
 73
     2
 40
0.000110
 49
0.000000
 49
-0.000110
  0
LTYPE
  2
DASHDOT
 70
    64
  3
__ . __ . __ . __ . __ . __ . __ . __ . __ . __
 72
    65
 73
     4
 40
0.000440
 49
0.000220
 49
-0.000110
 49
0.000000
 49
-0.000110
  0
LTYPE
  2
BORDER
 70
    64
  3
__ __ . __ __ . __ __ . __ __ . __ __ . __ __
 72
    65
 73
     6
 40
0.000770
 49
0.000220
 49
-0.000110
 49
0.000220
 49
-0.000110
 49
0.000000
 49
-0.000110
  0
LTYPE
  2
DIVIDE
 70
    64
  3
__ . . __ . . __ . . __ . . __ . . __ . . __
 72
    65
 73
     6
 40
0.000550
 49
0.000220
 49
-0.000110
 49
0.000000
 49
-0.000110
 49
0.000000
 49
-0.000110
  0
LTYPE
  2
DOTDOT
 70
    64
  3
 . .  . .  . .  . .  . .  . . 
 72
    65
 73
     5
 40
0.000242
 49
-0.000110
 49
0.000000
 49
-0.000110
 49
0.000000
 49
-0.000110
  0
ENDTAB
  0
TABLE
  2
STYLE
 70
     2
  0
STYLE
 70
     0
  2
SN0
 40
0.000000
 41
0.000440
 50
0.000000
 71
     0
 42
0.000000
  3
ROMAND
  0
STYLE
 70
    68
  2
SV0
 40
0.000000
 41
0.000440
 50
0.000000
 71
     0
 42
0.000000
  3
ROMAND
  0
ENDTAB
  0
TABLE
  2
LAYER
 70
     3
  0
LAYER
  2
FOREGROUND
 70
    64
 62
     7
  6
CONTINUOUS
  0
LAYER
  2
BACKGROUND
 70
    65
 62
    -7
  6
CONTINUOUS
  0
LAYER
  2
0
 70
    64
 62
     7
  6
CONTINUOUS
  0
ENDTAB
  0
ENDSEC
  0
SECTION
  2
ENTITIES
  0
POLYLINE
  8
FOREGROUND
  6
CONTINUOUS
 66
     1
 40
0.000000
 41
0.000000
  0
VERTEX
  8
FOREGROUND
  6
CONTINUOUS
 10
0.000000
 20
6.908440
  0
VERTEX
  8
FOREGROUND
  6
CONTINUOUS
 10
8.499920
 20
6.908440
  0
VERTEX
  8
FOREGROUND
  6
CONTINUOUS
 10
8.499920
 20
-4.091560
  0
VERTEX
  8
FOREGROUND
  6
CONTINUOUS
 10
0.000000
 20
-4.091560
  0
VERTEX
  8
FOREGROUND
  6
CONTINUOUS
 10
0.000000
 20
6.908440
  0
SEQEND
  8
0
  0
POLYLINE
  8
FOREGROUND
  6
CONTINUOUS
 66
     1
 40
0.000000
 41
0.000000
  0
VERTEX
  8
FOREGROUND
  6
CONTINUOUS
 10
0.000000
 20
6.908440
  0
VERTEX
  8
FOREGROUND
  6
CONTINUOUS
 10
8.499920
 20
6.908440
  0
VERTEX
  8
FOREGROUND
  6
CONTINUOUS
 10
8.499920
 20
-4.091560
  0
VERTEX
  8
FOREGROUND
  6
CONTINUOUS
 10
0.000000
 20
-4.091560
  0
VERTEX
  8
FOREGROUND
  6
CONTINUOUS
 10
0.000000
 20
6.908440
  0
SEQEND
  8
0
  0
SOLID
  8
0
 62
    15
 10
4.458080
 20
4.492400
 11
5.103120
 21
4.863320
 12
4.455000
 22
4.451040
 13
5.099600
 23
4.821960
  0
POLYLINE
  8
0
  6
CONTINUOUS
 66
     1
 40
0.000000
 41
0.000000
  0
VERTEX
  8
0
  6
CONTINUOUS
 10
4.458080
 20
4.492400
  0
VERTEX
  8
0
  6
CONTINUOUS
 10
5.103120
 20
4.863320
  0
VERTEX
  8
0
  6
CONTINUOUS
 10
5.099600
 20
4.821960
  0
VERTEX
  8
0
  6
CONTINUOUS
 10
4.455000
 20
4.451040
  0
VERTEX
  8
0
  6
CONTINUOUS
 10
4.458080
 20
4.492400
  0
SEQEND
  8
0
  0
SOLID
  8
0
 62
    15
 10
4.234120
 20
2.482480
 11
4.878720
 21
2.853400
 12
4.231480
 22
2.461800
 13
4.876520
 23
2.832720
  0
POLYLINE
  8
0
  6
CONTINUOUS
 66
     1
 40
0.000000
 41
0.000000
  0
VERTEX
  8
0
  6
CONTINUOUS
 10
4.234120
 20
2.482480
  0
VERTEX
  8
0
  6
CONTINUOUS
 10
4.878720
 20
2.853400
  0
VERTEX
  8
0
  6
CONTINUOUS
 10
4.876520
 20
2.832720
  0
VERTEX
  8
0
  6
CONTINUOUS
 10
4.231480
 20
2.461800
  0
VERTEX
  8
0
  6
CONTINUOUS
 10
4.234120
 20
2.482480
  0
SEQEND
  8
0
  0
SOLID
  8
0
 62
    15
 10
4.231480
 20
2.461800
 11
4.876520
 21
2.832720
 12
4.224000
 22
2.440240
 13
4.869040
 23
2.811160
  0
POLYLINE
  8
0
  6
CONTINUOUS
 66
     1
 40
0.000000
 41
0.000000
  0
VERTEX
  8
0
  6
CONTINUOUS
 10
4.231480
 20
2.461800
  0
VERTEX
  8
0
  6
CONTINUOUS
 10
4.876520
 20
2.832720
  0
VERTEX
  8
0
  6
CONTINUOUS
 10
4.869040
 20
2.811160
  0
VERTEX
  8
0
  6
CONTINUOUS
 10
4.224000
 20
2.440240
  0
VERTEX
  8
0
  6
CONTINUOUS
 10
4.231480
 20
2.461800
  0
SEQEND
  8
0
  0
SOLID
  8
0
 62
    15
 10
4.092000
 20
2.352680
 11
4.736600
 21
2.724040
 12
4.094640
 22
2.167000
 13
4.739240
 23
2.537920
  0
POLYLINE
  8
0
  6
CONTINUOUS
 66
     1
 40
0.000000
 41
0.000000
  0
VERTEX
  8
0
  6
CONTINUOUS
 10
4.092000
 20
2.352680
  0
VERTEX
  8
0
  6
CONTINUOUS
 10
4.736600
 20
2.724040
  0
VERTEX
  8
0
  6
CONTINUOUS
 10
4.739240
 20
2.537920
  0
VERTEX
  8
0
  6
CONTINUOUS
 10
4.094640
 20
2.167000
  0
VERTEX
  8
0
  6
CONTINUOUS
 10
4.092000
 20
2.352680
  0
SEQEND
  8
0
  0
SOLID
  8
0
 62
    15
 10
4.211680
 20
2.418240
 11
4.856720
 21
2.789600
 12
4.194960
 22
2.398000
 13
4.840000
 23
2.768920
  0
POLYLINE
  8
0
  6
CONTINUOUS
 66
     1
 40
0.000000
 41
0.000000
  0
VERTEX
  8
0
  6
CONTINUOUS
 10
4.211680
 20
2.418240
  0
VERTEX
  8
0
  6
CONTINUOUS
 10
4.856720
 20
2.789600
  0
VERTEX
  8
0
  6
CONTINUOUS
 10
4.840000
 20
2.768920
  0
VERTEX
  8
0
  6
CONTINUOUS
 10
4.194960
 20
2.398000
  0
VERTEX
  8
0
  6
CONTINUOUS
 10
4.211680
 20
2.418240
  0
SEQEND
  8
0
  0
SOLID
  8
0
 62
    15
 10
4.174720
 20
2.379960
 11
4.819320
 21
2.750880
 12
4.150080
 22
2.365880
 13
4.795120
 23
2.736800
  0
POLYLINE
  8
0
  6
CONTINUOUS
 66
     1
 40
0.000000
 41
0.000000
  0
VERTEX
  8
0
  6
CONTINUOUS
 10
4.174720
 20
2.379960
  0
VERTEX
  8
0
  6
CONTINUOUS
 10
4.819320
 20
2.750880
  0
VERTEX
  8
0
  6
CONTINUOUS
 10
4.795120
 20
2.736800
  0
VERTEX
  8
0
  6
CONTINUOUS
 10
4.150080
 20
2.365880
  0
VERTEX
  8
0
  6
CONTINUOUS
 10
4.174720
 20
2.379960
  0
SEQEND
  8
0
  0
SOLID
  8
0
 62
    15
 10
4.194960
 20
2.398000
 11
4.840000
 21
2.768920
 12
4.174720
 22
2.379960
 13
4.819320
 23
2.750880
  0
POLYLINE
  8
0
  6
CONTINUOUS
 66
     1
 40
0.000000
 41
0.000000
  0
VERTEX
  8
0
  6
CONTINUOUS
 10
4.194960
 20
2.398000
  0
VERTEX
  8
0
  6
CONTINUOUS
 10
4.840000
 20
2.768920
  0
VERTEX
  8
0
  6
CONTINUOUS
 10
4.819320
 20
2.750880
  0
VERTEX
  8
0
  6
CONTINUOUS
 10
4.174720
 20
2.379960
  0
VERTEX
  8
0
  6
CONTINUOUS
 10
4.194960
 20
2.398000
  0
SEQEND
  8
0
  0
SOLID
  8
0
 62
    15
 10
4.224000
 20
2.440240
 11
4.869040
 21
2.811160
 12
4.211680
 22
2.418240
 13
4.856720
 23
2.789600
  0
POLYLINE
  8
0
  6
CONTINUOUS
 66
     1
 40
0.000000
 41
0.000000
  0
VERTEX
  8
0
  6
CONTINUOUS
 10
4.224000
 20
2.440240
  0
VERTEX
  8
0
  6
CONTINUOUS
 10
4.869040
 20
2.811160
  0
VERTEX
  8
0
  6
CONTINUOUS
 10
4.856720
 20
2.789600
  0
VERTEX
  8
0
  6
CONTINUOUS
 10
4.211680
 20
2.418240
  0
VERTEX
  8
0
  6
CONTINUOUS
 10
4.224000
 20
2.440240
  0
SEQEND
  8
0
  0
SOLID
  8
0
 62
    15
 10
4.094640
 20
2.167000
 11
4.739240
 21
2.537920
 12
4.092440
 22
2.147200
 13
4.737480
 23
2.518560
  0
POLYLINE
  8
0
  6
CONTINUOUS
 66
     1
 40
0.000000
 41
0.000000
  0
VERTEX
  8
0
  6
CONTINUOUS
 10
4.094640
 20
2.167000
  0
VERTEX
  8
0
  6
CONTINUOUS
 10
4.739240
 20
2.537920
  0
VERTEX
  8
0
  6
CONTINUOUS
 10
4.737480
 20
2.518560
  0
VERTEX
  8
0
  6
CONTINUOUS
 10
4.092440
 20
2.147200
  0
VERTEX
  8
0
  6
CONTINUOUS
 10
4.094640
 20
2.167000
  0
SEQEND
  8
0
  0
SOLID
  8
0
 62
    15
 10
4.092440
 20
2.147200
 11
4.737480
 21
2.518560
 12
4.087600
 22
2.130480
 13
4.732640
 23
2.501400
  0
POLYLINE
  8
0
  6
CONTINUOUS
 66
     1
 40
0.000000
 41
0.000000
  0
VERTEX
  8
0
  6
CONTINUOUS
 10
4.092440
 20
2.147200
  0
VERTEX
  8
0
  6
CONTINUOUS
 10
4.737480
 20
2.518560
  0
VERTEX
  8
0
  6
CONTINUOUS
 10
4.732640
 20
2.501400
  0
VERTEX
  8
0
  6
CONTINUOUS
 10
4.087600
 20
2.130480
  0
VERTEX
  8
0
  6
CONTINUOUS
 10
4.092440
 20
2.147200
  0
SEQEND
  8
0
  0
SOLID
  8
0
 62
    15
 10
4.087600
 20
2.130480
 11
4.732640
 21
2.501400
 12
4.080560
 22
2.116400
 13
4.725160
 23
2.487320
  0
POLYLINE
  8
0
  6
CONTINUOUS
 66
     1
 40
0.000000
 41
0.000000
  0
VERTEX
  8
0
  6
CONTINUOUS
 10
4.087600
 20
2.130480
  0
VERTEX
  8
0
  6
CONTINUOUS
 10
4.732640
 20
2.501400
  0
VERTEX
  8
0
  6
CONTINUOUS
 10
4.725160
 20
2.487320
  0
VERTEX
  8
0
  6
CONTINUOUS
 10
4.080560
 20
2.116400
  0
VERTEX
  8
0
  6
CONTINUOUS
 10
4.087600
 20
2.130480
  0
SEQEND
  8
0
  0
SOLID
  8
0
 62
    15
 10
4.080560
 20
2.116400
 11
4.725160
 21
2.487320
 12
4.071320
 22
2.104520
 13
4.715920
 23
2.475440
  0
POLYLINE
  8
0
  6
CONTINUOUS
 66
     1
 40
0.000000
 41
0.000000
  0
VERTEX
  8
0
  6
CONTINUOUS
 10
4.080560
 20
2.116400
  0
VERTEX
  8
0
  6
CONTINUOUS
 10
4.725160
 20
2.487320
  0
VERTEX
  8
0
  6
CONTINUOUS
 10
4.715920
 20
2.475440
  0
VERTEX
  8
0
  6
CONTINUOUS
 10
4.071320
 20
2.104520
  0
VERTEX
  8
0
  6
CONTINUOUS
 10
4.080560
 20
2.116400
  0
SEQEND
  8
0
  0
SOLID
  8
0
 62
    15
 10
4.071320
 20
2.104520
 11
4.715920
 21
2.475440
 12
4.060320
 22
2.095720
 13
4.704920
 23
2.466640
  0
POLYLINE
  8
0
  6
CONTINUOUS
 66
     1
 40
0.000000
 41
0.000000
  0
VERTEX
  8
0
  6
CONTINUOUS
 10
4.071320
 20
2.104520
  0
VERTEX
  8
0
  6
CONTINUOUS
 10
4.715920
 20
2.475440
  0
VERTEX
  8
0
  6
CONTINUOUS
 10
4.704920
 20
2.466640
  0
VERTEX
  8
0
  6
CONTINUOUS
 10
4.060320
 20
2.095720
  0
VERTEX
  8
0
  6
CONTINUOUS
 10
4.071320
 20
2.104520
  0
SEQEND
  8
0
  0
SOLID
  8
0
 62
    15
 10
3.960440
 20
4.941200
 11
4.605040
 21
5.312560
 12
4.590520
 22
4.941200
 13
5.235120
 23
5.312560
  0
POLYLINE
  8
0
  6
CONTINUOUS
 66
     1
 40
0.000000
 41
0.000000
  0
VERTEX
  8
0
  6
CONTINUOUS
 10
3.960440
 20
4.941200
  0
VERTEX
  8
0
  6
CONTINUOUS
 10
4.605040
 20
5.312560
  0
VERTEX
  8
0
  6
CONTINUOUS
 10
5.235120
 20
5.312560
  0
VERTEX
  8
0
  6
CONTINUOUS
 10
4.590520
 20
4.941200
  0
VERTEX
  8
0
  6
CONTINUOUS
 10
3.960440
 20
4.941200
  0
SEQEND
  8
0
  0
SOLID
  8
0
 62
    15
 10
4.566760
 20
4.663560
 11
5.211360
 21
5.034480
 12
4.543880
 22
4.649480
 13
5.188480
 23
5.020400
  0
POLYLINE
  8
0
  6
CONTINUOUS
 66
     1
 40
0.000000
 41
0.000000
  0
VERTEX
  8
0
  6
CONTINUOUS
 10
4.566760
 20
4.663560
  0
VERTEX
  8
0
  6
CONTINUOUS
 10
5.211360
 20
5.034480
  0
VERTEX
  8
0
  6
CONTINUOUS
 10
5.188480
 20
5.020400
  0
VERTEX
  8
0
  6
CONTINUOUS
 10
4.543880
 20
4.649480
  0
VERTEX
  8
0
  6
CONTINUOUS
 10
4.566760
 20
4.663560
  0
SEQEND
  8
0
  0
SOLID
  8
0
 62
    15
 10
4.543880
 20
4.649480
 11
5.188480
 21
5.020400
 12
4.521440
 22
4.627920
 13
5.166040
 23
4.998840
  0
POLYLINE
  8
0
  6
CONTINUOUS
 66
     1
 40
0.000000
 41
0.000000
  0
VERTEX
  8
0
  6
CONTINUOUS
 10
4.543880
 20
4.649480
  0
VERTEX
  8
0
  6
CONTINUOUS
 10
5.188480
 20
5.020400
  0
VERTEX
  8
0
  6
CONTINUOUS
 10
5.166040
 20
4.998840
  0
VERTEX
  8
0
  6
CONTINUOUS
 10
4.521440
 20
4.627920
  0
VERTEX
  8
0
  6
CONTINUOUS
 10
4.543880
 20
4.649480
  0
SEQEND
  8
0
  0
SOLID
  8
0
 62
    15
 10
4.590520
 20
4.941200
 11
5.235120
 21
5.312560
 12
4.590520
 22
4.669720
 13
5.235120
 23
5.041080
  0
POLYLINE
  8
0
  6
CONTINUOUS
 66
     1
 40
0.000000
 41
0.000000
  0
VERTEX
  8
0
  6
CONTINUOUS
 10
4.590520
 20
4.941200
  0
VERTEX
  8
0
  6
CONTINUOUS
 10
5.235120
 20
5.312560
  0
VERTEX
  8
0
  6
CONTINUOUS
 10
5.235120
 20
5.041080
  0
VERTEX
  8
0
  6
CONTINUOUS
 10
4.590520
 20
4.669720
  0
VERTEX
  8
0
  6
CONTINUOUS
 10
4.590520
 20
4.941200
  0
SEQEND
  8
0
  0
SOLID
  8
0
 62
    15
 10
4.521440
 20
4.627920
 11
5.166040
 21
4.998840
 12
4.500320
 22
4.600640
 13
5.145360
 23
4.971560
  0
POLYLINE
  8
0
  6
CONTINUOUS
 66
     1
 40
0.000000
 41
0.000000
  0
VERTEX
  8
0
  6
CONTINUOUS
 10
4.521440
 20
4.627920
  0
VERTEX
  8
0
  6
CONTINUOUS
 10
5.166040
 20
4.998840
  0
VERTEX
  8
0
  6
CONTINUOUS
 10
5.145360
 20
4.971560
  0
VERTEX
  8
0
  6
CONTINUOUS
 10
4.500320
 20
4.600640
  0
VERTEX
  8
0
  6
CONTINUOUS
 10
4.521440
 20
4.627920
  0
SEQEND
  8
0
  0
SOLID
  8
0
 62
    15
 10
4.500320
 20
4.600640
 11
5.145360
 21
4.971560
 12
4.482280
 22
4.568080
 13
5.126880
 23
4.939000
  0
POLYLINE
  8
0
  6
CONTINUOUS
 66
     1
 40
0.000000
 41
0.000000
  0
VERTEX
  8
0
  6
CONTINUOUS
 10
4.500320
 20
4.600640
  0
VERTEX
  8
0
  6
CONTINUOUS
 10
5.145360
 20
4.971560
  0
VERTEX
  8
0
  6
CONTINUOUS
 10
5.126880
 20
4.939000
  0
VERTEX
  8
0
  6
CONTINUOUS
 10
4.482280
 20
4.568080
  0
VERTEX
  8
0
  6
CONTINUOUS
 10
4.500320
 20
4.600640
  0
SEQEND
  8
0
  0
SOLID
  8
0
 62
    15
 10
4.482280
 20
4.568080
 11
5.126880
 21
4.939000
 12
4.467760
 22
4.531560
 13
5.112360
 23
4.902920
  0
POLYLINE
  8
0
  6
CONTINUOUS
 66
     1
 40
0.000000
 41
0.000000
  0
VERTEX
  8
0
  6
CONTINUOUS
 10
4.482280
 20
4.568080
  0
VERTEX
  8
0
  6
CONTINUOUS
 10
5.126880
 20
4.939000
  0
VERTEX
  8
0
  6
CONTINUOUS
 10
5.112360
 20
4.902920
  0
VERTEX
  8
0
  6
CONTINUOUS
 10
4.467760
 20
4.531560
  0
VERTEX
  8
0
  6
CONTINUOUS
 10
4.482280
 20
4.568080
  0
SEQEND
  8
0
  0
SOLID
  8
0
 62
    15
 10
4.467760
 20
4.531560
 11
5.112360
 21
4.902920
 12
4.458080
 22
4.492400
 13
5.103120
 23
4.863320
  0
POLYLINE
  8
0
  6
CONTINUOUS
 66
     1
 40
0.000000
 41
0.000000
  0
VERTEX
  8
0
  6
CONTINUOUS
 10
4.467760
 20
4.531560
  0
VERTEX
  8
0
  6
CONTINUOUS
 10
5.112360
 20
4.902920
  0
VERTEX
  8
0
  6
CONTINUOUS
 10
5.103120
 20
4.863320
  0
VERTEX
  8
0
  6
CONTINUOUS
 10
4.458080
 20
4.492400
  0
VERTEX
  8
0
  6
CONTINUOUS
 10
4.467760
 20
4.531560
  0
SEQEND
  8
0
  0
SOLID
  8
0
 62
    15
 10
4.234120
 20
2.614040
 11
4.878720
 21
2.984960
 12
4.234120
 22
2.482480
 13
4.878720
 23
2.853400
  0
POLYLINE
  8
0
  6
CONTINUOUS
 66
     1
 40
0.000000
 41
0.000000
  0
VERTEX
  8
0
  6
CONTINUOUS
 10
4.234120
 20
2.614040
  0
VERTEX
  8
0
  6
CONTINUOUS
 10
4.878720
 20
2.984960
  0
VERTEX
  8
0
  6
CONTINUOUS
 10
4.878720
 20
2.853400
  0
VERTEX
  8
0
  6
CONTINUOUS
 10
4.234120
 20
2.482480
  0
VERTEX
  8
0
  6
CONTINUOUS
 10
4.234120
 20
2.614040
  0
SEQEND
  8
0
  0
SOLID
  8
0
 62
    15
 10
4.455000
 20
4.451040
 11
5.099600
 21
4.821960
 12
4.455000
 22
3.260840
 13
5.099600
 23
3.631760
  0
POLYLINE
  8
0
  6
CONTINUOUS
 66
     1
 40
0.000000
 41
0.000000
  0
VERTEX
  8
0
  6
CONTINUOUS
 10
4.455000
 20
4.451040
  0
VERTEX
  8
0
  6
CONTINUOUS
 10
5.099600
 20
4.821960
  0
VERTEX
  8
0
  6
CONTINUOUS
 10
5.099600
 20
3.631760
  0
VERTEX
  8
0
  6
CONTINUOUS
 10
4.455000
 20
3.260840
  0
VERTEX
  8
0
  6
CONTINUOUS
 10
4.455000
 20
4.451040
  0
SEQEND
  8
0
  0
SOLID
  8
0
 62
    15
 10
4.455000
 20
3.260840
 11
5.099600
 21
3.631760
 12
4.452360
 22
3.230040
 13
5.097400
 23
3.601400
  0
POLYLINE
  8
0
  6
CONTINUOUS
 66
     1
 40
0.000000
 41
0.000000
  0
VERTEX
  8
0
  6
CONTINUOUS
 10
4.455000
 20
3.260840
  0
VERTEX
  8
0
  6
CONTINUOUS
 10
5.099600
 20
3.631760
  0
VERTEX
  8
0
  6
CONTINUOUS
 10
5.097400
 20
3.601400
  0
VERTEX
  8
0
  6
CONTINUOUS
 10
4.452360
 20
3.230040
  0
VERTEX
  8
0
  6
CONTINUOUS
 10
4.455000
 20
3.260840
  0
SEQEND
  8
0
  0
SOLID
  8
0
 62
    15
 10
4.452360
 20
3.230040
 11
5.097400
 21
3.601400
 12
4.441800
 22
3.200120
 13
5.086400
 23
3.571040
  0
POLYLINE
  8
0
  6
CONTINUOUS
 66
     1
 40
0.000000
 41
0.000000
  0
VERTEX
  8
0
  6
CONTINUOUS
 10
4.452360
 20
3.230040
  0
VERTEX
  8
0
  6
CONTINUOUS
 10
5.097400
 20
3.601400
  0
VERTEX
  8
0
  6
CONTINUOUS
 10
5.086400
 20
3.571040
  0
VERTEX
  8
0
  6
CONTINUOUS
 10
4.441800
 20
3.200120
  0
VERTEX
  8
0
  6
CONTINUOUS
 10
4.452360
 20
3.230040
  0
SEQEND
  8
0
  0
SOLID
  8
0
 62
    15
 10
4.270200
 20
3.091000
 11
4.915240
 21
3.461920
 12
4.270640
 22
3.052720
 13
4.915680
 23
3.424080
  0
POLYLINE
  8
0
  6
CONTINUOUS
 66
     1
 40
0.000000
 41
0.000000
  0
VERTEX
  8
0
  6
CONTINUOUS
 10
4.270200
 20
3.091000
  0
VERTEX
  8
0
  6
CONTINUOUS
 10
4.915240
 20
3.461920
  0
VERTEX
  8
0
  6
CONTINUOUS
 10
4.915680
 20
3.424080
  0
VERTEX
  8
0
  6
CONTINUOUS
 10
4.270640
 20
3.052720
  0
VERTEX
  8
0
  6
CONTINUOUS
 10
4.270200
 20
3.091000
  0
SEQEND
  8
0
  0
SOLID
  8
0
 62
    15
 10
4.423760
 20
3.171960
 11
5.068800
 21
3.542880
 12
4.400440
 22
3.146440
 13
5.045040
 23
3.517360
  0
POLYLINE
  8
0
  6
CONTINUOUS
 66
     1
 40
0.000000
 41
0.000000
  0
VERTEX
  8
0
  6
CONTINUOUS
 10
4.423760
 20
3.171960
  0
VERTEX
  8
0
  6
CONTINUOUS
 10
5.068800
 20
3.542880
  0
VERTEX
  8
0
  6
CONTINUOUS
 10
5.045040
 20
3.517360
  0
VERTEX
  8
0
  6
CONTINUOUS
 10
4.400440
 20
3.146440
  0
VERTEX
  8
0
  6
CONTINUOUS
 10
4.423760
 20
3.171960
  0
SEQEND
  8
0
  0
SOLID
  8
0
 62
    15
 10
4.400440
 20
3.146440
 11
5.045040
 21
3.517360
 12
4.371840
 22
3.124440
 13
5.016880
 23
3.495360
  0
POLYLINE
  8
0
  6
CONTINUOUS
 66
     1
 40
0.000000
 41
0.000000
  0
VERTEX
  8
0
  6
CONTINUOUS
 10
4.400440
 20
3.146440
  0
VERTEX
  8
0
  6
CONTINUOUS
 10
5.045040
 20
3.517360
  0
VERTEX
  8
0
  6
CONTINUOUS
 10
5.016880
 20
3.495360
  0
VERTEX
  8
0
  6
CONTINUOUS
 10
4.371840
 20
3.124440
  0
VERTEX
  8
0
  6
CONTINUOUS
 10
4.400440
 20
3.146440
  0
SEQEND
  8
0
  0
SOLID
  8
0
 62
    15
 10
4.441800
 20
3.200120
 11
5.086400
 21
3.571040
 12
4.423760
 22
3.171960
 13
5.068800
 23
3.542880
  0
POLYLINE
  8
0
  6
CONTINUOUS
 66
     1
 40
0.000000
 41
0.000000
  0
VERTEX
  8
0
  6
CONTINUOUS
 10
4.441800
 20
3.200120
  0
VERTEX
  8
0
  6
CONTINUOUS
 10
5.086400
 20
3.571040
  0
VERTEX
  8
0
  6
CONTINUOUS
 10
5.068800
 20
3.542880
  0
VERTEX
  8
0
  6
CONTINUOUS
 10
4.423760
 20
3.171960
  0
VERTEX
  8
0
  6
CONTINUOUS
 10
4.441800
 20
3.200120
  0
SEQEND
  8
0
  0
SOLID
  8
0
 62
    15
 10
4.270640
 20
3.052720
 11
4.915680
 21
3.424080
 12
4.275040
 22
3.053160
 13
4.919640
 23
3.424080
  0
POLYLINE
  8
0
  6
CONTINUOUS
 66
     1
 40
0.000000
 41
0.000000
  0
VERTEX
  8
0
  6
CONTINUOUS
 10
4.270640
 20
3.052720
  0
VERTEX
  8
0
  6
CONTINUOUS
 10
4.915680
 20
3.424080
  0
VERTEX
  8
0
  6
CONTINUOUS
 10
4.919640
 20
3.424080
  0
VERTEX
  8
0
  6
CONTINUOUS
 10
4.275040
 20
3.053160
  0
VERTEX
  8
0
  6
CONTINUOUS
 10
4.270640
 20
3.052720
  0
SEQEND
  8
0
  0
SOLID
  8
0
 62
    15
 10
4.275040
 20
3.053160
 11
4.919640
 21
3.424080
 12
4.313760
 22
3.043920
 13
4.958800
 23
3.414840
  0
POLYLINE
  8
0
  6
CONTINUOUS
 66
     1
 40
0.000000
 41
0.000000
  0
VERTEX
  8
0
  6
CONTINUOUS
 10
4.275040
 20
3.053160
  0
VERTEX
  8
0
  6
CONTINUOUS
 10
4.919640
 20
3.424080
  0
VERTEX
  8
0
  6
CONTINUOUS
 10
4.958800
 20
3.414840
  0
VERTEX
  8
0
  6
CONTINUOUS
 10
4.313760
 20
3.043920
  0
VERTEX
  8
0
  6
CONTINUOUS
 10
4.275040
 20
3.053160
  0
SEQEND
  8
0
  0
SOLID
  8
0
 62
    15
 10
4.313760
 20
3.043920
 11
4.958800
 21
3.414840
 12
4.349840
 22
3.028520
 13
4.994880
 23
3.399440
  0
POLYLINE
  8
0
  6
CONTINUOUS
 66
     1
 40
0.000000
 41
0.000000
  0
VERTEX
  8
0
  6
CONTINUOUS
 10
4.313760
 20
3.043920
  0
VERTEX
  8
0
  6
CONTINUOUS
 10
4.958800
 20
3.414840
  0
VERTEX
  8
0
  6
CONTINUOUS
 10
4.994880
 20
3.399440
  0
VERTEX
  8
0
  6
CONTINUOUS
 10
4.349840
 20
3.028520
  0
VERTEX
  8
0
  6
CONTINUOUS
 10
4.313760
 20
3.043920
  0
SEQEND
  8
0
  0
SOLID
  8
0
 62
    15
 10
4.349840
 20
3.028520
 11
4.994880
 21
3.399440
 12
4.382400
 22
3.006960
 13
5.027440
 23
3.377880
  0
POLYLINE
  8
0
  6
CONTINUOUS
 66
     1
 40
0.000000
 41
0.000000
  0
VERTEX
  8
0
  6
CONTINUOUS
 10
4.349840
 20
3.028520
  0
VERTEX
  8
0
  6
CONTINUOUS
 10
4.994880
 20
3.399440
  0
VERTEX
  8
0
  6
CONTINUOUS
 10
5.027440
 20
3.377880
  0
VERTEX
  8
0
  6
CONTINUOUS
 10
4.382400
 20
3.006960
  0
VERTEX
  8
0
  6
CONTINUOUS
 10
4.349840
 20
3.028520
  0
SEQEND
  8
0
  0
SOLID
  8
0
 62
    15
 10
4.382400
 20
3.006960
 11
5.027440
 21
3.377880
 12
4.410560
 22
2.980120
 13
5.055160
 23
3.351040
  0
POLYLINE
  8
0
  6
CONTINUOUS
 66
     1
 40
0.000000
 41
0.000000
  0
VERTEX
  8
0
  6
CONTINUOUS
 10
4.382400
 20
3.006960
  0
VERTEX
  8
0
  6
CONTINUOUS
 10
5.027440
 20
3.377880
  0
VERTEX
  8
0
  6
CONTINUOUS
 10
5.055160
 20
3.351040
  0
VERTEX
  8
0
  6
CONTINUOUS
 10
4.410560
 20
2.980120
  0
VERTEX
  8
0
  6
CONTINUOUS
 10
4.382400
 20
3.006960
  0
SEQEND
  8
0
  0
SOLID
  8
0
 62
    15
 10
4.410560
 20
2.980120
 11
5.055160
 21
3.351040
 12
4.433440
 22
2.948880
 13
5.078480
 23
3.319800
  0
POLYLINE
  8
0
  6
CONTINUOUS
 66
     1
 40
0.000000
 41
0.000000
  0
VERTEX
  8
0
  6
CONTINUOUS
 10
4.410560
 20
2.980120
  0
VERTEX
  8
0
  6
CONTINUOUS
 10
5.055160
 20
3.351040
  0
VERTEX
  8
0
  6
CONTINUOUS
 10
5.078480
 20
3.319800
  0
VERTEX
  8
0
  6
CONTINUOUS
 10
4.433440
 20
2.948880
  0
VERTEX
  8
0
  6
CONTINUOUS
 10
4.410560
 20
2.980120
  0
SEQEND
  8
0
  0
SOLID
  8
0
 62
    15
 10
4.433440
 20
2.948880
 11
5.078480
 21
3.319800
 12
4.450600
 22
2.913680
 13
5.095640
 23
3.284600
  0
POLYLINE
  8
0
  6
CONTINUOUS
 66
     1
 40
0.000000
 41
0.000000
  0
VERTEX
  8
0
  6
CONTINUOUS
 10
4.433440
 20
2.948880
  0
VERTEX
  8
0
  6
CONTINUOUS
 10
5.078480
 20
3.319800
  0
VERTEX
  8
0
  6
CONTINUOUS
 10
5.095640
 20
3.284600
  0
VERTEX
  8
0
  6
CONTINUOUS
 10
4.450600
 20
2.913680
  0
VERTEX
  8
0
  6
CONTINUOUS
 10
4.433440
 20
2.948880
  0
SEQEND
  8
0
  0
SOLID
  8
0
 62
    15
 10
4.450600
 20
2.913680
 11
5.095640
 21
3.284600
 12
4.461600
 22
2.875400
 13
5.106200
 23
3.246320
  0
POLYLINE
  8
0
  6
CONTINUOUS
 66
     1
 40
0.000000
 41
0.000000
  0
VERTEX
  8
0
  6
CONTINUOUS
 10
4.450600
 20
2.913680
  0
VERTEX
  8
0
  6
CONTINUOUS
 10
5.095640
 20
3.284600
  0
VERTEX
  8
0
  6
CONTINUOUS
 10
5.106200
 20
3.246320
  0
VERTEX
  8
0
  6
CONTINUOUS
 10
4.461600
 20
2.875400
  0
VERTEX
  8
0
  6
CONTINUOUS
 10
4.450600
 20
2.913680
  0
SEQEND
  8
0
  0
SOLID
  8
0
 62
    15
 10
4.461600
 20
2.875400
 11
5.106200
 21
3.246320
 12
4.465560
 22
2.834480
 13
5.110160
 23
3.205400
  0
POLYLINE
  8
0
  6
CONTINUOUS
 66
     1
 40
0.000000
 41
0.000000
  0
VERTEX
  8
0
  6
CONTINUOUS
 10
4.461600
 20
2.875400
  0
VERTEX
  8
0
  6
CONTINUOUS
 10
5.106200
 20
3.246320
  0
VERTEX
  8
0
  6
CONTINUOUS
 10
5.110160
 20
3.205400
  0
VERTEX
  8
0
  6
CONTINUOUS
 10
4.465560
 20
2.834480
  0
VERTEX
  8
0
  6
CONTINUOUS
 10
4.461600
 20
2.875400
  0
SEQEND
  8
0
  0
SOLID
  8
0
 62
    15
 10
4.465560
 20
2.834480
 11
5.110160
 21
3.205400
 12
4.460720
 22
2.790040
 13
5.105760
 23
3.160960
  0
POLYLINE
  8
0
  6
CONTINUOUS
 66
     1
 40
0.000000
 41
0.000000
  0
VERTEX
  8
0
  6
CONTINUOUS
 10
4.465560
 20
2.834480
  0
VERTEX
  8
0
  6
CONTINUOUS
 10
5.110160
 20
3.205400
  0
VERTEX
  8
0
  6
CONTINUOUS
 10
5.105760
 20
3.160960
  0
VERTEX
  8
0
  6
CONTINUOUS
 10
4.460720
 20
2.790040
  0
VERTEX
  8
0
  6
CONTINUOUS
 10
4.465560
 20
2.834480
  0
SEQEND
  8
0
  0
SOLID
  8
0
 62
    15
 10
4.460720
 20
2.790040
 11
5.105760
 21
3.160960
 12
4.447960
 22
2.748680
 13
5.093000
 23
3.119600
  0
POLYLINE
  8
0
  6
CONTINUOUS
 66
     1
 40
0.000000
 41
0.000000
  0
VERTEX
  8
0
  6
CONTINUOUS
 10
4.460720
 20
2.790040
  0
VERTEX
  8
0
  6
CONTINUOUS
 10
5.105760
 20
3.160960
  0
VERTEX
  8
0
  6
CONTINUOUS
 10
5.093000
 20
3.119600
  0
VERTEX
  8
0
  6
CONTINUOUS
 10
4.447960
 20
2.748680
  0
VERTEX
  8
0
  6
CONTINUOUS
 10
4.460720
 20
2.790040
  0
SEQEND
  8
0
  0
SOLID
  8
0
 62
    15
 10
4.447960
 20
2.748680
 11
5.093000
 21
3.119600
 12
4.427720
 22
2.710840
 13
5.072320
 23
3.082200
  0
POLYLINE
  8
0
  6
CONTINUOUS
 66
     1
 40
0.000000
 41
0.000000
  0
VERTEX
  8
0
  6
CONTINUOUS
 10
4.447960
 20
2.748680
  0
VERTEX
  8
0
  6
CONTINUOUS
 10
5.093000
 20
3.119600
  0
VERTEX
  8
0
  6
CONTINUOUS
 10
5.072320
 20
3.082200
  0
VERTEX
  8
0
  6
CONTINUOUS
 10
4.427720
 20
2.710840
  0
VERTEX
  8
0
  6
CONTINUOUS
 10
4.447960
 20
2.748680
  0
SEQEND
  8
0
  0
SOLID
  8
0
 62
    15
 10
4.427720
 20
2.710840
 11
5.072320
 21
3.082200
 12
4.400880
 22
2.678280
 13
5.045480
 23
3.049200
  0
POLYLINE
  8
0
  6
CONTINUOUS
 66
     1
 40
0.000000
 41
0.000000
  0
VERTEX
  8
0
  6
CONTINUOUS
 10
4.427720
 20
2.710840
  0
VERTEX
  8
0
  6
CONTINUOUS
 10
5.072320
 20
3.082200
  0
VERTEX
  8
0
  6
CONTINUOUS
 10
5.045480
 20
3.049200
  0
VERTEX
  8
0
  6
CONTINUOUS
 10
4.400880
 20
2.678280
  0
VERTEX
  8
0
  6
CONTINUOUS
 10
4.427720
 20
2.710840
  0
SEQEND
  8
0
  0
SOLID
  8
0
 62
    15
 10
4.400880
 20
2.678280
 11
5.045480
 21
3.049200
 12
4.367880
 22
2.651440
 13
5.012920
 23
3.022360
  0
POLYLINE
  8
0
  6
CONTINUOUS
 66
     1
 40
0.000000
 41
0.000000
  0
VERTEX
  8
0
  6
CONTINUOUS
 10
4.400880
 20
2.678280
  0
VERTEX
  8
0
  6
CONTINUOUS
 10
5.045480
 20
3.049200
  0
VERTEX
  8
0
  6
CONTINUOUS
 10
5.012920
 20
3.022360
  0
VERTEX
  8
0
  6
CONTINUOUS
 10
4.367880
 20
2.651440
  0
VERTEX
  8
0
  6
CONTINUOUS
 10
4.400880
 20
2.678280
  0
SEQEND
  8
0
  0
POLYLINE
  8
0
  6
CONTINUOUS
 66
     1
 40
0.000000
 41
0.000000
  0
VERTEX
  8
0
  6
CONTINUOUS
 10
4.234120
 20
2.614040
  0
VERTEX
  8
0
  6
CONTINUOUS
 10
4.234120
 20
2.482480
  0
VERTEX
  8
0
  6
CONTINUOUS
 10
4.231480
 20
2.461800
  0
VERTEX
  8
0
  6
CONTINUOUS
 10
4.224000
 20
2.440240
  0
VERTEX
  8
0
  6
CONTINUOUS
 10
4.211680
 20
2.418240
  0
VERTEX
  8
0
  6
CONTINUOUS
 10
4.194960
 20
2.398000
  0
VERTEX
  8
0
  6
CONTINUOUS
 10
4.174720
 20
2.379960
  0
VERTEX
  8
0
  6
CONTINUOUS
 10
4.150080
 20
2.365880
  0
VERTEX
  8
0
  6
CONTINUOUS
 10
4.122360
 20
2.356200
  0
VERTEX
  8
0
  6
CONTINUOUS
 10
4.092000
 20
2.352680
  0
VERTEX
  8
0
  6
CONTINUOUS
 10
4.094640
 20
2.167000
  0
VERTEX
  8
0
  6
CONTINUOUS
 10
4.092440
 20
2.147200
  0
VERTEX
  8
0
  6
CONTINUOUS
 10
4.087600
 20
2.130480
  0
VERTEX
  8
0
  6
CONTINUOUS
 10
4.080560
 20
2.116400
  0
VERTEX
  8
0
  6
CONTINUOUS
 10
4.071320
 20
2.104520
  0
VERTEX
  8
0
  6
CONTINUOUS
 10
4.060320
 20
2.095720
  0
VERTEX
  8
0
  6
CONTINUOUS
 10
4.048000
 20
2.089120
  0
VERTEX
  8
0
  6
CONTINUOUS
 10
4.021160
 20
2.084280
  0
VERTEX
  8
0
  6
CONTINUOUS
 10
3.960440
 20
2.084280
  0
VERTEX
  8
0
  6
CONTINUOUS
 10
3.960440
 20
4.941200
  0
VERTEX
  8
0
  6
CONTINUOUS
 10
4.590520
 20
4.941200
  0
VERTEX
  8
0
  6
CONTINUOUS
 10
4.590520
 20
4.669720
  0
VERTEX
  8
0
  6
CONTINUOUS
 10
4.566760
 20
4.663560
  0
VERTEX
  8
0
  6
CONTINUOUS
 10
4.543880
 20
4.649480
  0
VERTEX
  8
0
  6
CONTINUOUS
 10
4.521440
 20
4.627920
  0
VERTEX
  8
0
  6
CONTINUOUS
 10
4.500320
 20
4.600640
  0
VERTEX
  8
0
  6
CONTINUOUS
 10
4.482280
 20
4.568080
  0
VERTEX
  8
0
  6
CONTINUOUS
 10
4.467760
 20
4.531560
  0
VERTEX
  8
0
  6
CONTINUOUS
 10
4.458080
 20
4.492400
  0
VERTEX
  8
0
  6
CONTINUOUS
 10
4.455000
 20
4.451040
  0
VERTEX
  8
0
  6
CONTINUOUS
 10
4.455000
 20
3.260840
  0
VERTEX
  8
0
  6
CONTINUOUS
 10
4.452360
 20
3.230040
  0
VERTEX
  8
0
  6
CONTINUOUS
 10
4.441800
 20
3.200120
  0
VERTEX
  8
0
  6
CONTINUOUS
 10
4.423760
 20
3.171960
  0
VERTEX
  8
0
  6
CONTINUOUS
 10
4.400440
 20
3.146440
  0
VERTEX
  8
0
  6
CONTINUOUS
 10
4.371840
 20
3.124440
  0
VERTEX
  8
0
  6
CONTINUOUS
 10
4.340160
 20
3.107280
  0
VERTEX
  8
0
  6
CONTINUOUS
 10
4.305840
 20
3.095840
  0
VERTEX
  8
0
  6
CONTINUOUS
 10
4.270200
 20
3.091000
  0
VERTEX
  8
0
  6
CONTINUOUS
 10
4.270640
 20
3.052720
  0
VERTEX
  8
0
  6
CONTINUOUS
 10
4.275040
 20
3.053160
  0
VERTEX
  8
0
  6
CONTINUOUS
 10
4.313760
 20
3.043920
  0
VERTEX
  8
0
  6
CONTINUOUS
 10
4.349840
 20
3.028520
  0
VERTEX
  8
0
  6
CONTINUOUS
 10
4.382400
 20
3.006960
  0
VERTEX
  8
0
  6
CONTINUOUS
 10
4.410560
 20
2.980120
  0
VERTEX
  8
0
  6
CONTINUOUS
 10
4.433440
 20
2.948880
  0
VERTEX
  8
0
  6
CONTINUOUS
 10
4.450600
 20
2.913680
  0
VERTEX
  8
0
  6
CONTINUOUS
 10
4.461600
 20
2.875400
  0
VERTEX
  8
0
  6
CONTINUOUS
 10
4.465560
 20
2.834480
  0
VERTEX
  8
0
  6
CONTINUOUS
 10
4.460720
 20
2.790040
  0
VERTEX
  8
0
  6
CONTINUOUS
 10
4.447960
 20
2.748680
  0
VERTEX
  8
0
  6
CONTINUOUS
 10
4.427720
 20
2.710840
  0
VERTEX
  8
0
  6
CONTINUOUS
 10
4.400880
 20
2.678280
  0
VERTEX
  8
0
  6
CONTINUOUS
 10
4.367880
 20
2.651440
  0
VERTEX
  8
0
  6
CONTINUOUS
 10
4.330480
 20
2.631200
  0
VERTEX
  8
0
  6
CONTINUOUS
 10
4.289120
 20
2.618000
  0
VERTEX
  8
0
  6
CONTINUOUS
 10
4.244680
 20
2.613600
  0
VERTEX
  8
0
  6
CONTINUOUS
 10
4.234120
 20
2.614040
  0
SEQEND
  8
0
  0
TEXT
  8
0
 10
4.301880
 20
1.833920
 40
0.138019
  1
BA  861
 41
1.000000
  7
SN0
 71
     0
 72
     5
 11
4.891857
 21
1.833920
  0
TEXT
  8
0
 10
4.146120
 20
1.642520
 40
0.138019
  1
5/8" x 2-7/8"
 41
1.000000
  7
SN0
 71
     0
 72
     5
 11
5.046513
 21
1.642520
  0
ENDSEC
  0
EOF
