  0
SECTION
  2
HEADER
  9
$ACADVER
  1
AC1006
  9
$EXTMIN
 10
3.695120
 20
0.699160
  9
$EXTMAX
 10
7.693400
 20
5.302880
  9
$LTSCALE
 40
0.044000
  9
$PDMODE
 70
    35
  9
$PDSIZE
 40
0.035200
  0
ENDSEC
  0
SECTION
  2
TABLES
  0
TABLE
  2
LTYPE
 70
     9
  0
LTYPE
  2
CONTINUOUS
 70
    64
  3
Solid line
 72
    65
 73
     0
 40
0.000000
  0
LTYPE
  2
DASHED
 70
    64
  3
__ __ __ __ __ __ __ __ __ __ __ __ __ __ __
 72
    65
 73
     2
 40
0.000330
 49
0.000220
 49
-0.000110
  0
LTYPE
  2
HIDDEN
 70
    64
  3
 _ _ _ _ _ _ _ _ _ _ _ _ _ _ _ _ _ _ _ _ _ _
 72
    65
 73
     2
 40
0.000165
 49
0.000110
 49
-0.000055
  0
LTYPE
  2
CENTER
 70
    64
  3
____ _ ____ _ ____ _ ____ _ ____ _ ____ _ ____
 72
    65
 73
     4
 40
0.000880
 49
0.000550
 49
-0.000110
 49
0.000110
 49
-0.000110
  0
LTYPE
  2
PHANTOM
 70
    64
  3
_____ _ _ _____ _ _ _____ _ _ _____ _ _ ____
 72
    65
 73
     6
 40
0.001100
 49
0.000550
 49
-0.000110
 49
0.000110
 49
-0.000110
 49
0.000110
 49
-0.000110
  0
LTYPE
  2
DOT
 70
    64
  3
...............................................
 72
    65
 73
     2
 40
0.000110
 49
0.000000
 49
-0.000110
  0
LTYPE
  2
DASHDOT
 70
    64
  3
__ . __ . __ . __ . __ . __ . __ . __ . __ . __
 72
    65
 73
     4
 40
0.000440
 49
0.000220
 49
-0.000110
 49
0.000000
 49
-0.000110
  0
LTYPE
  2
BORDER
 70
    64
  3
__ __ . __ __ . __ __ . __ __ . __ __ . __ __
 72
    65
 73
     6
 40
0.000770
 49
0.000220
 49
-0.000110
 49
0.000220
 49
-0.000110
 49
0.000000
 49
-0.000110
  0
LTYPE
  2
DIVIDE
 70
    64
  3
__ . . __ . . __ . . __ . . __ . . __ . . __
 72
    65
 73
     6
 40
0.000550
 49
0.000220
 49
-0.000110
 49
0.000000
 49
-0.000110
 49
0.000000
 49
-0.000110
  0
LTYPE
  2
DOTDOT
 70
    64
  3
 . .  . .  . .  . .  . .  . . 
 72
    65
 73
     5
 40
0.000242
 49
-0.000110
 49
0.000000
 49
-0.000110
 49
0.000000
 49
-0.000110
  0
ENDTAB
  0
TABLE
  2
STYLE
 70
     2
  0
STYLE
 70
     0
  2
SN0
 40
0.000000
 41
0.000440
 50
0.000000
 71
     0
 42
0.000000
  3
ROMAND
  0
STYLE
 70
    68
  2
SV0
 40
0.000000
 41
0.000440
 50
0.000000
 71
     0
 42
0.000000
  3
ROMAND
  0
ENDTAB
  0
TABLE
  2
LAYER
 70
     3
  0
LAYER
  2
FOREGROUND
 70
    64
 62
     7
  6
CONTINUOUS
  0
LAYER
  2
BACKGROUND
 70
    65
 62
    -7
  6
CONTINUOUS
  0
LAYER
  2
0
 70
    64
 62
     7
  6
CONTINUOUS
  0
ENDTAB
  0
ENDSEC
  0
SECTION
  2
ENTITIES
  0
POLYLINE
  8
FOREGROUND
  6
CONTINUOUS
 66
     1
 40
0.000000
 41
0.000000
  0
VERTEX
  8
FOREGROUND
  6
CONTINUOUS
 10
0.000000
 20
6.002040
  0
VERTEX
  8
FOREGROUND
  6
CONTINUOUS
 10
8.499920
 20
6.002040
  0
VERTEX
  8
FOREGROUND
  6
CONTINUOUS
 10
8.499920
 20
-4.997960
  0
VERTEX
  8
FOREGROUND
  6
CONTINUOUS
 10
0.000000
 20
-4.997960
  0
VERTEX
  8
FOREGROUND
  6
CONTINUOUS
 10
0.000000
 20
6.002040
  0
SEQEND
  8
0
  0
POLYLINE
  8
FOREGROUND
  6
CONTINUOUS
 66
     1
 40
0.000000
 41
0.000000
  0
VERTEX
  8
FOREGROUND
  6
CONTINUOUS
 10
0.000000
 20
6.002040
  0
VERTEX
  8
FOREGROUND
  6
CONTINUOUS
 10
8.499920
 20
6.002040
  0
VERTEX
  8
FOREGROUND
  6
CONTINUOUS
 10
8.499920
 20
-4.997960
  0
VERTEX
  8
FOREGROUND
  6
CONTINUOUS
 10
0.000000
 20
-4.997960
  0
VERTEX
  8
FOREGROUND
  6
CONTINUOUS
 10
0.000000
 20
6.002040
  0
SEQEND
  8
0
  0
POLYLINE
  8
0
  6
CONTINUOUS
 66
     1
 40
0.014080
 41
0.014080
  0
VERTEX
  8
0
  6
CONTINUOUS
 10
4.633640
 20
0.706640
  0
VERTEX
  8
0
  6
CONTINUOUS
 10
6.984120
 20
0.706640
  0
VERTEX
  8
0
  6
CONTINUOUS
 10
7.683720
 20
1.370600
  0
VERTEX
  8
0
  6
CONTINUOUS
 10
7.572840
 20
1.498640
  0
VERTEX
  8
0
  6
CONTINUOUS
 10
7.534560
 20
1.460800
  0
VERTEX
  8
0
  6
CONTINUOUS
 10
7.493640
 20
1.427800
  0
VERTEX
  8
0
  6
CONTINUOUS
 10
7.472080
 20
1.413720
  0
VERTEX
  8
0
  6
CONTINUOUS
 10
7.450080
 20
1.401840
  0
VERTEX
  8
0
  6
CONTINUOUS
 10
7.427640
 20
1.391720
  0
VERTEX
  8
0
  6
CONTINUOUS
 10
7.404760
 20
1.383360
  0
VERTEX
  8
0
  6
CONTINUOUS
 10
7.369560
 20
1.375880
  0
VERTEX
  8
0
  6
CONTINUOUS
 10
7.345360
 20
1.373680
  0
VERTEX
  8
0
  6
CONTINUOUS
 10
7.308400
 20
1.375880
  0
VERTEX
  8
0
  6
CONTINUOUS
 10
7.283320
 20
1.381160
  0
VERTEX
  8
0
  6
CONTINUOUS
 10
7.245040
 20
1.394800
  0
VERTEX
  8
0
  6
CONTINUOUS
 10
7.206320
 20
1.415920
  0
VERTEX
  8
0
  6
CONTINUOUS
 10
7.157040
 20
1.445400
  0
VERTEX
  8
0
  6
CONTINUOUS
 10
7.112160
 20
1.465640
  0
VERTEX
  8
0
  6
CONTINUOUS
 10
7.081360
 20
1.474440
  0
VERTEX
  8
0
  6
CONTINUOUS
 10
7.052320
 20
1.477960
  0
VERTEX
  8
0
  6
CONTINUOUS
 10
7.032960
 20
1.477080
  0
VERTEX
  8
0
  6
CONTINUOUS
 10
7.004800
 20
1.470920
  0
VERTEX
  8
0
  6
CONTINUOUS
 10
6.976640
 20
1.458160
  0
VERTEX
  8
0
  6
CONTINUOUS
 10
6.948040
 20
1.439680
  0
VERTEX
  8
0
  6
CONTINUOUS
 10
6.907560
 20
1.404040
  0
VERTEX
  8
0
  6
CONTINUOUS
 10
6.875000
 20
1.369720
  0
VERTEX
  8
0
  6
CONTINUOUS
 10
6.721000
 20
1.500840
  0
VERTEX
  8
0
  6
CONTINUOUS
 10
6.622000
 20
1.384240
  0
VERTEX
  8
0
  6
CONTINUOUS
 10
6.580640
 20
1.405800
  0
VERTEX
  8
0
  6
CONTINUOUS
 10
6.516840
 20
1.433080
  0
VERTEX
  8
0
  6
CONTINUOUS
 10
6.451280
 20
1.453320
  0
VERTEX
  8
0
  6
CONTINUOUS
 10
6.384840
 20
1.467400
  0
VERTEX
  8
0
  6
CONTINUOUS
 10
6.339520
 20
1.472680
  0
VERTEX
  8
0
  6
CONTINUOUS
 10
6.294640
 20
1.475320
  0
VERTEX
  8
0
  6
CONTINUOUS
 10
6.249320
 20
1.474880
  0
VERTEX
  8
0
  6
CONTINUOUS
 10
6.203560
 20
1.471800
  0
VERTEX
  8
0
  6
CONTINUOUS
 10
6.158240
 20
1.465640
  0
VERTEX
  8
0
  6
CONTINUOUS
 10
6.090480
 20
1.450680
  0
VERTEX
  8
0
  6
CONTINUOUS
 10
6.024040
 20
1.429120
  0
VERTEX
  8
0
  6
CONTINUOUS
 10
5.958040
 20
1.401400
  0
VERTEX
  8
0
  6
CONTINUOUS
 10
5.915360
 20
1.378960
  0
VERTEX
  8
0
  6
CONTINUOUS
 10
5.800960
 20
1.485000
  0
VERTEX
  8
0
  6
CONTINUOUS
 10
5.644320
 20
1.333200
  0
VERTEX
  8
0
  6
CONTINUOUS
 10
5.570400
 20
1.395680
  0
VERTEX
  8
0
  6
CONTINUOUS
 10
5.521560
 20
1.432640
  0
VERTEX
  8
0
  6
CONTINUOUS
 10
5.475360
 20
1.460800
  0
VERTEX
  8
0
  6
CONTINUOUS
 10
5.445440
 20
1.474440
  0
VERTEX
  8
0
  6
CONTINUOUS
 10
5.415080
 20
1.483680
  0
VERTEX
  8
0
  6
CONTINUOUS
 10
5.383840
 20
1.488520
  0
VERTEX
  8
0
  6
CONTINUOUS
 10
5.350840
 20
1.488960
  0
VERTEX
  8
0
  6
CONTINUOUS
 10
5.316080
 20
1.485000
  0
VERTEX
  8
0
  6
CONTINUOUS
 10
5.278240
 20
1.475760
  0
VERTEX
  8
0
  6
CONTINUOUS
 10
5.236880
 20
1.462120
  0
VERTEX
  8
0
  6
CONTINUOUS
 10
5.191120
 20
1.443640
  0
VERTEX
  8
0
  6
CONTINUOUS
 10
5.113680
 20
1.405800
  0
VERTEX
  8
0
  6
CONTINUOUS
 10
4.991360
 20
1.339360
  0
VERTEX
  8
0
  6
CONTINUOUS
 10
4.960560
 20
1.323960
  0
VERTEX
  8
0
  6
CONTINUOUS
 10
4.900720
 20
1.300200
  0
VERTEX
  8
0
  6
CONTINUOUS
 10
4.844840
 20
1.284360
  0
VERTEX
  8
0
  6
CONTINUOUS
 10
4.792480
 20
1.276000
  0
VERTEX
  8
0
  6
CONTINUOUS
 10
4.767400
 20
1.274240
  0
VERTEX
  8
0
  6
CONTINUOUS
 10
4.742760
 20
1.274240
  0
VERTEX
  8
0
  6
CONTINUOUS
 10
4.696560
 20
1.278200
  0
VERTEX
  8
0
  6
CONTINUOUS
 10
4.675000
 20
1.282160
  0
VERTEX
  8
0
  6
CONTINUOUS
 10
4.633200
 20
1.294040
  0
VERTEX
  8
0
  6
CONTINUOUS
 10
4.594480
 20
1.310320
  0
VERTEX
  8
0
  6
CONTINUOUS
 10
4.558400
 20
1.329680
  0
VERTEX
  8
0
  6
CONTINUOUS
 10
4.524960
 20
1.352120
  0
VERTEX
  8
0
  6
CONTINUOUS
 10
4.479640
 20
1.389960
  0
VERTEX
  8
0
  6
CONTINUOUS
 10
4.452360
 20
1.416800
  0
VERTEX
  8
0
  6
CONTINUOUS
 10
4.404840
 20
1.471800
  0
VERTEX
  8
0
  6
CONTINUOUS
 10
4.384160
 20
1.498200
  0
VERTEX
  8
0
  6
CONTINUOUS
 10
4.250840
 20
1.349040
  0
VERTEX
  8
0
  6
CONTINUOUS
 10
4.126760
 20
1.487200
  0
VERTEX
  8
0
  6
CONTINUOUS
 10
3.956480
 20
1.316920
  0
VERTEX
  8
0
  6
CONTINUOUS
 10
4.631440
 20
0.707080
  0
VERTEX
  8
0
  6
CONTINUOUS
 10
4.633640
 20
0.706640
  0
SEQEND
  8
0
  0
SOLID
  8
0
 62
    15
 10
5.088160
 20
3.860560
 11
5.723960
 21
3.485240
 12
4.932400
 22
3.852200
 13
5.568640
 23
3.476440
  0
POLYLINE
  8
0
  6
CONTINUOUS
 66
     1
 40
0.000000
 41
0.000000
  0
VERTEX
  8
0
  6
CONTINUOUS
 10
5.088160
 20
3.860560
  0
VERTEX
  8
0
  6
CONTINUOUS
 10
5.723960
 20
3.485240
  0
VERTEX
  8
0
  6
CONTINUOUS
 10
5.568640
 20
3.476440
  0
VERTEX
  8
0
  6
CONTINUOUS
 10
4.932400
 20
3.852200
  0
VERTEX
  8
0
  6
CONTINUOUS
 10
5.088160
 20
3.860560
  0
SEQEND
  8
0
  0
SOLID
  8
0
 62
    15
 10
6.255040
 20
5.061320
 11
6.890840
 21
4.686000
 12
6.069360
 22
5.068800
 13
6.705600
 23
4.693040
  0
POLYLINE
  8
0
  6
CONTINUOUS
 66
     1
 40
0.000000
 41
0.000000
  0
VERTEX
  8
0
  6
CONTINUOUS
 10
6.255040
 20
5.061320
  0
VERTEX
  8
0
  6
CONTINUOUS
 10
6.890840
 20
4.686000
  0
VERTEX
  8
0
  6
CONTINUOUS
 10
6.705600
 20
4.693040
  0
VERTEX
  8
0
  6
CONTINUOUS
 10
6.069360
 20
5.068800
  0
VERTEX
  8
0
  6
CONTINUOUS
 10
6.255040
 20
5.061320
  0
SEQEND
  8
0
  0
SOLID
  8
0
 62
    15
 10
6.069360
 20
5.068800
 11
6.705600
 21
4.693040
 12
6.083880
 22
4.869040
 13
6.719680
 23
4.493280
  0
POLYLINE
  8
0
  6
CONTINUOUS
 66
     1
 40
0.000000
 41
0.000000
  0
VERTEX
  8
0
  6
CONTINUOUS
 10
6.069360
 20
5.068800
  0
VERTEX
  8
0
  6
CONTINUOUS
 10
6.705600
 20
4.693040
  0
VERTEX
  8
0
  6
CONTINUOUS
 10
6.719680
 20
4.493280
  0
VERTEX
  8
0
  6
CONTINUOUS
 10
6.083880
 20
4.869040
  0
VERTEX
  8
0
  6
CONTINUOUS
 10
6.069360
 20
5.068800
  0
SEQEND
  8
0
  0
SOLID
  8
0
 62
    15
 10
6.083880
 20
4.869040
 11
6.719680
 21
4.493280
 12
5.939560
 22
4.875640
 13
6.575360
 23
4.500320
  0
POLYLINE
  8
0
  6
CONTINUOUS
 66
     1
 40
0.000000
 41
0.000000
  0
VERTEX
  8
0
  6
CONTINUOUS
 10
6.083880
 20
4.869040
  0
VERTEX
  8
0
  6
CONTINUOUS
 10
6.719680
 20
4.493280
  0
VERTEX
  8
0
  6
CONTINUOUS
 10
6.575360
 20
4.500320
  0
VERTEX
  8
0
  6
CONTINUOUS
 10
5.939560
 20
4.875640
  0
VERTEX
  8
0
  6
CONTINUOUS
 10
6.083880
 20
4.869040
  0
SEQEND
  8
0
  0
SOLID
  8
0
 62
    15
 10
5.939560
 20
4.875640
 11
6.575360
 21
4.500320
 12
5.861240
 22
4.865520
 13
6.497040
 23
4.490200
  0
POLYLINE
  8
0
  6
CONTINUOUS
 66
     1
 40
0.000000
 41
0.000000
  0
VERTEX
  8
0
  6
CONTINUOUS
 10
5.939560
 20
4.875640
  0
VERTEX
  8
0
  6
CONTINUOUS
 10
6.575360
 20
4.500320
  0
VERTEX
  8
0
  6
CONTINUOUS
 10
6.497040
 20
4.490200
  0
VERTEX
  8
0
  6
CONTINUOUS
 10
5.861240
 20
4.865520
  0
VERTEX
  8
0
  6
CONTINUOUS
 10
5.939560
 20
4.875640
  0
SEQEND
  8
0
  0
SOLID
  8
0
 62
    15
 10
5.861240
 20
4.865520
 11
6.497040
 21
4.490200
 12
5.782920
 22
4.840880
 13
6.419160
 23
4.465560
  0
POLYLINE
  8
0
  6
CONTINUOUS
 66
     1
 40
0.000000
 41
0.000000
  0
VERTEX
  8
0
  6
CONTINUOUS
 10
5.861240
 20
4.865520
  0
VERTEX
  8
0
  6
CONTINUOUS
 10
6.497040
 20
4.490200
  0
VERTEX
  8
0
  6
CONTINUOUS
 10
6.419160
 20
4.465560
  0
VERTEX
  8
0
  6
CONTINUOUS
 10
5.782920
 20
4.840880
  0
VERTEX
  8
0
  6
CONTINUOUS
 10
5.861240
 20
4.865520
  0
SEQEND
  8
0
  0
SOLID
  8
0
 62
    15
 10
5.782920
 20
4.840880
 11
6.419160
 21
4.465560
 12
5.708120
 22
4.797320
 13
6.344360
 23
4.422000
  0
POLYLINE
  8
0
  6
CONTINUOUS
 66
     1
 40
0.000000
 41
0.000000
  0
VERTEX
  8
0
  6
CONTINUOUS
 10
5.782920
 20
4.840880
  0
VERTEX
  8
0
  6
CONTINUOUS
 10
6.419160
 20
4.465560
  0
VERTEX
  8
0
  6
CONTINUOUS
 10
6.344360
 20
4.422000
  0
VERTEX
  8
0
  6
CONTINUOUS
 10
5.708120
 20
4.797320
  0
VERTEX
  8
0
  6
CONTINUOUS
 10
5.782920
 20
4.840880
  0
SEQEND
  8
0
  0
SOLID
  8
0
 62
    15
 10
5.708120
 20
4.797320
 11
6.344360
 21
4.422000
 12
5.640360
 22
4.730440
 13
6.276160
 23
4.355120
  0
POLYLINE
  8
0
  6
CONTINUOUS
 66
     1
 40
0.000000
 41
0.000000
  0
VERTEX
  8
0
  6
CONTINUOUS
 10
5.708120
 20
4.797320
  0
VERTEX
  8
0
  6
CONTINUOUS
 10
6.344360
 20
4.422000
  0
VERTEX
  8
0
  6
CONTINUOUS
 10
6.276160
 20
4.355120
  0
VERTEX
  8
0
  6
CONTINUOUS
 10
5.640360
 20
4.730440
  0
VERTEX
  8
0
  6
CONTINUOUS
 10
5.708120
 20
4.797320
  0
SEQEND
  8
0
  0
SOLID
  8
0
 62
    15
 10
5.640360
 20
4.730440
 11
6.276160
 21
4.355120
 12
5.582280
 22
4.635400
 13
6.218080
 23
4.260080
  0
POLYLINE
  8
0
  6
CONTINUOUS
 66
     1
 40
0.000000
 41
0.000000
  0
VERTEX
  8
0
  6
CONTINUOUS
 10
5.640360
 20
4.730440
  0
VERTEX
  8
0
  6
CONTINUOUS
 10
6.276160
 20
4.355120
  0
VERTEX
  8
0
  6
CONTINUOUS
 10
6.218080
 20
4.260080
  0
VERTEX
  8
0
  6
CONTINUOUS
 10
5.582280
 20
4.635400
  0
VERTEX
  8
0
  6
CONTINUOUS
 10
5.640360
 20
4.730440
  0
SEQEND
  8
0
  0
SOLID
  8
0
 62
    15
 10
5.582280
 20
4.635400
 11
6.218080
 21
4.260080
 12
5.536960
 22
4.508240
 13
6.173200
 23
4.132920
  0
POLYLINE
  8
0
  6
CONTINUOUS
 66
     1
 40
0.000000
 41
0.000000
  0
VERTEX
  8
0
  6
CONTINUOUS
 10
5.582280
 20
4.635400
  0
VERTEX
  8
0
  6
CONTINUOUS
 10
6.218080
 20
4.260080
  0
VERTEX
  8
0
  6
CONTINUOUS
 10
6.173200
 20
4.132920
  0
VERTEX
  8
0
  6
CONTINUOUS
 10
5.536960
 20
4.508240
  0
VERTEX
  8
0
  6
CONTINUOUS
 10
5.582280
 20
4.635400
  0
SEQEND
  8
0
  0
SOLID
  8
0
 62
    15
 10
5.536960
 20
4.508240
 11
6.173200
 21
4.132920
 12
5.500880
 22
4.379760
 13
6.136680
 23
4.004440
  0
POLYLINE
  8
0
  6
CONTINUOUS
 66
     1
 40
0.000000
 41
0.000000
  0
VERTEX
  8
0
  6
CONTINUOUS
 10
5.536960
 20
4.508240
  0
VERTEX
  8
0
  6
CONTINUOUS
 10
6.173200
 20
4.132920
  0
VERTEX
  8
0
  6
CONTINUOUS
 10
6.136680
 20
4.004440
  0
VERTEX
  8
0
  6
CONTINUOUS
 10
5.500880
 20
4.379760
  0
VERTEX
  8
0
  6
CONTINUOUS
 10
5.536960
 20
4.508240
  0
SEQEND
  8
0
  0
SOLID
  8
0
 62
    15
 10
5.500880
 20
4.379760
 11
6.136680
 21
4.004440
 12
5.464800
 22
4.281640
 13
6.100600
 23
3.906320
  0
POLYLINE
  8
0
  6
CONTINUOUS
 66
     1
 40
0.000000
 41
0.000000
  0
VERTEX
  8
0
  6
CONTINUOUS
 10
5.500880
 20
4.379760
  0
VERTEX
  8
0
  6
CONTINUOUS
 10
6.136680
 20
4.004440
  0
VERTEX
  8
0
  6
CONTINUOUS
 10
6.100600
 20
3.906320
  0
VERTEX
  8
0
  6
CONTINUOUS
 10
5.464800
 20
4.281640
  0
VERTEX
  8
0
  6
CONTINUOUS
 10
5.500880
 20
4.379760
  0
SEQEND
  8
0
  0
SOLID
  8
0
 62
    15
 10
5.464800
 20
4.281640
 11
6.100600
 21
3.906320
 12
5.426080
 22
4.209040
 13
6.061880
 23
3.833720
  0
POLYLINE
  8
0
  6
CONTINUOUS
 66
     1
 40
0.000000
 41
0.000000
  0
VERTEX
  8
0
  6
CONTINUOUS
 10
5.464800
 20
4.281640
  0
VERTEX
  8
0
  6
CONTINUOUS
 10
6.100600
 20
3.906320
  0
VERTEX
  8
0
  6
CONTINUOUS
 10
6.061880
 20
3.833720
  0
VERTEX
  8
0
  6
CONTINUOUS
 10
5.426080
 20
4.209040
  0
VERTEX
  8
0
  6
CONTINUOUS
 10
5.464800
 20
4.281640
  0
SEQEND
  8
0
  0
SOLID
  8
0
 62
    15
 10
5.426080
 20
4.209040
 11
6.061880
 21
3.833720
 12
5.381200
 22
4.157560
 13
6.017440
 23
3.782240
  0
POLYLINE
  8
0
  6
CONTINUOUS
 66
     1
 40
0.000000
 41
0.000000
  0
VERTEX
  8
0
  6
CONTINUOUS
 10
5.426080
 20
4.209040
  0
VERTEX
  8
0
  6
CONTINUOUS
 10
6.061880
 20
3.833720
  0
VERTEX
  8
0
  6
CONTINUOUS
 10
6.017440
 20
3.782240
  0
VERTEX
  8
0
  6
CONTINUOUS
 10
5.381200
 20
4.157560
  0
VERTEX
  8
0
  6
CONTINUOUS
 10
5.426080
 20
4.209040
  0
SEQEND
  8
0
  0
SOLID
  8
0
 62
    15
 10
5.381200
 20
4.157560
 11
6.017440
 21
3.782240
 12
5.328400
 22
4.123240
 13
5.964200
 23
3.747920
  0
POLYLINE
  8
0
  6
CONTINUOUS
 66
     1
 40
0.000000
 41
0.000000
  0
VERTEX
  8
0
  6
CONTINUOUS
 10
5.381200
 20
4.157560
  0
VERTEX
  8
0
  6
CONTINUOUS
 10
6.017440
 20
3.782240
  0
VERTEX
  8
0
  6
CONTINUOUS
 10
5.964200
 20
3.747920
  0
VERTEX
  8
0
  6
CONTINUOUS
 10
5.328400
 20
4.123240
  0
VERTEX
  8
0
  6
CONTINUOUS
 10
5.381200
 20
4.157560
  0
SEQEND
  8
0
  0
SOLID
  8
0
 62
    15
 10
5.328400
 20
4.123240
 11
5.964200
 21
3.747920
 12
5.263720
 22
4.101680
 13
5.899520
 23
3.725920
  0
POLYLINE
  8
0
  6
CONTINUOUS
 66
     1
 40
0.000000
 41
0.000000
  0
VERTEX
  8
0
  6
CONTINUOUS
 10
5.328400
 20
4.123240
  0
VERTEX
  8
0
  6
CONTINUOUS
 10
5.964200
 20
3.747920
  0
VERTEX
  8
0
  6
CONTINUOUS
 10
5.899520
 20
3.725920
  0
VERTEX
  8
0
  6
CONTINUOUS
 10
5.263720
 20
4.101680
  0
VERTEX
  8
0
  6
CONTINUOUS
 10
5.328400
 20
4.123240
  0
SEQEND
  8
0
  0
SOLID
  8
0
 62
    15
 10
5.263720
 20
4.101680
 11
5.899520
 21
3.725920
 12
5.184520
 22
4.088040
 13
5.820320
 23
3.712720
  0
POLYLINE
  8
0
  6
CONTINUOUS
 66
     1
 40
0.000000
 41
0.000000
  0
VERTEX
  8
0
  6
CONTINUOUS
 10
5.263720
 20
4.101680
  0
VERTEX
  8
0
  6
CONTINUOUS
 10
5.899520
 20
3.725920
  0
VERTEX
  8
0
  6
CONTINUOUS
 10
5.820320
 20
3.712720
  0
VERTEX
  8
0
  6
CONTINUOUS
 10
5.184520
 20
4.088040
  0
VERTEX
  8
0
  6
CONTINUOUS
 10
5.263720
 20
4.101680
  0
SEQEND
  8
0
  0
SOLID
  8
0
 62
    15
 10
5.184520
 20
4.088040
 11
5.820320
 21
3.712720
 12
5.088160
 22
4.078800
 13
5.723960
 23
3.703040
  0
POLYLINE
  8
0
  6
CONTINUOUS
 66
     1
 40
0.000000
 41
0.000000
  0
VERTEX
  8
0
  6
CONTINUOUS
 10
5.184520
 20
4.088040
  0
VERTEX
  8
0
  6
CONTINUOUS
 10
5.820320
 20
3.712720
  0
VERTEX
  8
0
  6
CONTINUOUS
 10
5.723960
 20
3.703040
  0
VERTEX
  8
0
  6
CONTINUOUS
 10
5.088160
 20
4.078800
  0
VERTEX
  8
0
  6
CONTINUOUS
 10
5.184520
 20
4.088040
  0
SEQEND
  8
0
  0
SOLID
  8
0
 62
    15
 10
5.088160
 20
4.078800
 11
5.723960
 21
3.703040
 12
5.088160
 22
3.860560
 13
5.723960
 23
3.485240
  0
POLYLINE
  8
0
  6
CONTINUOUS
 66
     1
 40
0.000000
 41
0.000000
  0
VERTEX
  8
0
  6
CONTINUOUS
 10
5.088160
 20
4.078800
  0
VERTEX
  8
0
  6
CONTINUOUS
 10
5.723960
 20
3.703040
  0
VERTEX
  8
0
  6
CONTINUOUS
 10
5.723960
 20
3.485240
  0
VERTEX
  8
0
  6
CONTINUOUS
 10
5.088160
 20
3.860560
  0
VERTEX
  8
0
  6
CONTINUOUS
 10
5.088160
 20
4.078800
  0
SEQEND
  8
0
  0
SOLID
  8
0
 62
    15
 10
6.251080
 20
5.302440
 11
6.887320
 21
4.927120
 12
6.255040
 22
5.061320
 13
6.890840
 23
4.686000
  0
POLYLINE
  8
0
  6
CONTINUOUS
 66
     1
 40
0.000000
 41
0.000000
  0
VERTEX
  8
0
  6
CONTINUOUS
 10
6.251080
 20
5.302440
  0
VERTEX
  8
0
  6
CONTINUOUS
 10
6.887320
 20
4.927120
  0
VERTEX
  8
0
  6
CONTINUOUS
 10
6.890840
 20
4.686000
  0
VERTEX
  8
0
  6
CONTINUOUS
 10
6.255040
 20
5.061320
  0
VERTEX
  8
0
  6
CONTINUOUS
 10
6.251080
 20
5.302440
  0
SEQEND
  8
0
  0
SOLID
  8
0
 62
    15
 10
4.932400
 20
3.852200
 11
5.568640
 21
3.476440
 12
4.902480
 22
3.761120
 13
5.538280
 23
3.385800
  0
POLYLINE
  8
0
  6
CONTINUOUS
 66
     1
 40
0.000000
 41
0.000000
  0
VERTEX
  8
0
  6
CONTINUOUS
 10
4.932400
 20
3.852200
  0
VERTEX
  8
0
  6
CONTINUOUS
 10
5.568640
 20
3.476440
  0
VERTEX
  8
0
  6
CONTINUOUS
 10
5.538280
 20
3.385800
  0
VERTEX
  8
0
  6
CONTINUOUS
 10
4.902480
 20
3.761120
  0
VERTEX
  8
0
  6
CONTINUOUS
 10
4.932400
 20
3.852200
  0
SEQEND
  8
0
  0
SOLID
  8
0
 62
    15
 10
4.902480
 20
3.761120
 11
5.538280
 21
3.385800
 12
4.862000
 22
3.676200
 13
5.498240
 23
3.300880
  0
POLYLINE
  8
0
  6
CONTINUOUS
 66
     1
 40
0.000000
 41
0.000000
  0
VERTEX
  8
0
  6
CONTINUOUS
 10
4.902480
 20
3.761120
  0
VERTEX
  8
0
  6
CONTINUOUS
 10
5.538280
 20
3.385800
  0
VERTEX
  8
0
  6
CONTINUOUS
 10
5.498240
 20
3.300880
  0
VERTEX
  8
0
  6
CONTINUOUS
 10
4.862000
 20
3.676200
  0
VERTEX
  8
0
  6
CONTINUOUS
 10
4.902480
 20
3.761120
  0
SEQEND
  8
0
  0
SOLID
  8
0
 62
    15
 10
4.862000
 20
3.676200
 11
5.498240
 21
3.300880
 12
4.753760
 22
3.529240
 13
5.389560
 23
3.153480
  0
POLYLINE
  8
0
  6
CONTINUOUS
 66
     1
 40
0.000000
 41
0.000000
  0
VERTEX
  8
0
  6
CONTINUOUS
 10
4.862000
 20
3.676200
  0
VERTEX
  8
0
  6
CONTINUOUS
 10
5.498240
 20
3.300880
  0
VERTEX
  8
0
  6
CONTINUOUS
 10
5.389560
 20
3.153480
  0
VERTEX
  8
0
  6
CONTINUOUS
 10
4.753760
 20
3.529240
  0
VERTEX
  8
0
  6
CONTINUOUS
 10
4.862000
 20
3.676200
  0
SEQEND
  8
0
  0
SOLID
  8
0
 62
    15
 10
4.753760
 20
3.529240
 11
5.389560
 21
3.153480
 12
4.612960
 22
3.415720
 13
5.248760
 23
3.039960
  0
POLYLINE
  8
0
  6
CONTINUOUS
 66
     1
 40
0.000000
 41
0.000000
  0
VERTEX
  8
0
  6
CONTINUOUS
 10
4.753760
 20
3.529240
  0
VERTEX
  8
0
  6
CONTINUOUS
 10
5.389560
 20
3.153480
  0
VERTEX
  8
0
  6
CONTINUOUS
 10
5.248760
 20
3.039960
  0
VERTEX
  8
0
  6
CONTINUOUS
 10
4.612960
 20
3.415720
  0
VERTEX
  8
0
  6
CONTINUOUS
 10
4.753760
 20
3.529240
  0
SEQEND
  8
0
  0
SOLID
  8
0
 62
    15
 10
4.612960
 20
3.415720
 11
5.248760
 21
3.039960
 12
4.531560
 22
3.373040
 13
5.167800
 23
2.997720
  0
POLYLINE
  8
0
  6
CONTINUOUS
 66
     1
 40
0.000000
 41
0.000000
  0
VERTEX
  8
0
  6
CONTINUOUS
 10
4.612960
 20
3.415720
  0
VERTEX
  8
0
  6
CONTINUOUS
 10
5.248760
 20
3.039960
  0
VERTEX
  8
0
  6
CONTINUOUS
 10
5.167800
 20
2.997720
  0
VERTEX
  8
0
  6
CONTINUOUS
 10
4.531560
 20
3.373040
  0
VERTEX
  8
0
  6
CONTINUOUS
 10
4.612960
 20
3.415720
  0
SEQEND
  8
0
  0
SOLID
  8
0
 62
    15
 10
4.531560
 20
3.373040
 11
5.167800
 21
2.997720
 12
4.444440
 22
3.341360
 13
5.080240
 23
2.965600
  0
POLYLINE
  8
0
  6
CONTINUOUS
 66
     1
 40
0.000000
 41
0.000000
  0
VERTEX
  8
0
  6
CONTINUOUS
 10
4.531560
 20
3.373040
  0
VERTEX
  8
0
  6
CONTINUOUS
 10
5.167800
 20
2.997720
  0
VERTEX
  8
0
  6
CONTINUOUS
 10
5.080240
 20
2.965600
  0
VERTEX
  8
0
  6
CONTINUOUS
 10
4.444440
 20
3.341360
  0
VERTEX
  8
0
  6
CONTINUOUS
 10
4.531560
 20
3.373040
  0
SEQEND
  8
0
  0
SOLID
  8
0
 62
    15
 10
4.444440
 20
3.341360
 11
5.080240
 21
2.965600
 12
4.459400
 22
3.189120
 13
5.095200
 23
2.813800
  0
POLYLINE
  8
0
  6
CONTINUOUS
 66
     1
 40
0.000000
 41
0.000000
  0
VERTEX
  8
0
  6
CONTINUOUS
 10
4.444440
 20
3.341360
  0
VERTEX
  8
0
  6
CONTINUOUS
 10
5.080240
 20
2.965600
  0
VERTEX
  8
0
  6
CONTINUOUS
 10
5.095200
 20
2.813800
  0
VERTEX
  8
0
  6
CONTINUOUS
 10
4.459400
 20
3.189120
  0
VERTEX
  8
0
  6
CONTINUOUS
 10
4.444440
 20
3.341360
  0
SEQEND
  8
0
  0
SOLID
  8
0
 62
    15
 10
4.459400
 20
3.189120
 11
5.095200
 21
2.813800
 12
4.257880
 22
3.169760
 13
4.894120
 23
2.794440
  0
POLYLINE
  8
0
  6
CONTINUOUS
 66
     1
 40
0.000000
 41
0.000000
  0
VERTEX
  8
0
  6
CONTINUOUS
 10
4.459400
 20
3.189120
  0
VERTEX
  8
0
  6
CONTINUOUS
 10
5.095200
 20
2.813800
  0
VERTEX
  8
0
  6
CONTINUOUS
 10
4.894120
 20
2.794440
  0
VERTEX
  8
0
  6
CONTINUOUS
 10
4.257880
 20
3.169760
  0
VERTEX
  8
0
  6
CONTINUOUS
 10
4.459400
 20
3.189120
  0
SEQEND
  8
0
  0
SOLID
  8
0
 62
    15
 10
4.257880
 20
3.169760
 11
4.894120
 21
2.794440
 12
4.260080
 22
3.108160
 13
4.896320
 23
2.732400
  0
POLYLINE
  8
0
  6
CONTINUOUS
 66
     1
 40
0.000000
 41
0.000000
  0
VERTEX
  8
0
  6
CONTINUOUS
 10
4.257880
 20
3.169760
  0
VERTEX
  8
0
  6
CONTINUOUS
 10
4.894120
 20
2.794440
  0
VERTEX
  8
0
  6
CONTINUOUS
 10
4.896320
 20
2.732400
  0
VERTEX
  8
0
  6
CONTINUOUS
 10
4.260080
 20
3.108160
  0
VERTEX
  8
0
  6
CONTINUOUS
 10
4.257880
 20
3.169760
  0
SEQEND
  8
0
  0
SOLID
  8
0
 62
    15
 10
4.260080
 20
3.108160
 11
4.896320
 21
2.732400
 12
4.255680
 22
3.057120
 13
4.891920
 23
2.681360
  0
POLYLINE
  8
0
  6
CONTINUOUS
 66
     1
 40
0.000000
 41
0.000000
  0
VERTEX
  8
0
  6
CONTINUOUS
 10
4.260080
 20
3.108160
  0
VERTEX
  8
0
  6
CONTINUOUS
 10
4.896320
 20
2.732400
  0
VERTEX
  8
0
  6
CONTINUOUS
 10
4.891920
 20
2.681360
  0
VERTEX
  8
0
  6
CONTINUOUS
 10
4.255680
 20
3.057120
  0
VERTEX
  8
0
  6
CONTINUOUS
 10
4.260080
 20
3.108160
  0
SEQEND
  8
0
  0
SOLID
  8
0
 62
    15
 10
4.255680
 20
3.057120
 11
4.891920
 21
2.681360
 12
4.225320
 22
2.981440
 13
4.861120
 23
2.606120
  0
POLYLINE
  8
0
  6
CONTINUOUS
 66
     1
 40
0.000000
 41
0.000000
  0
VERTEX
  8
0
  6
CONTINUOUS
 10
4.255680
 20
3.057120
  0
VERTEX
  8
0
  6
CONTINUOUS
 10
4.891920
 20
2.681360
  0
VERTEX
  8
0
  6
CONTINUOUS
 10
4.861120
 20
2.606120
  0
VERTEX
  8
0
  6
CONTINUOUS
 10
4.225320
 20
2.981440
  0
VERTEX
  8
0
  6
CONTINUOUS
 10
4.255680
 20
3.057120
  0
SEQEND
  8
0
  0
SOLID
  8
0
 62
    15
 10
4.225320
 20
2.981440
 11
4.861120
 21
2.606120
 12
4.161960
 22
2.932600
 13
4.797760
 23
2.557280
  0
POLYLINE
  8
0
  6
CONTINUOUS
 66
     1
 40
0.000000
 41
0.000000
  0
VERTEX
  8
0
  6
CONTINUOUS
 10
4.225320
 20
2.981440
  0
VERTEX
  8
0
  6
CONTINUOUS
 10
4.861120
 20
2.606120
  0
VERTEX
  8
0
  6
CONTINUOUS
 10
4.797760
 20
2.557280
  0
VERTEX
  8
0
  6
CONTINUOUS
 10
4.161960
 20
2.932600
  0
VERTEX
  8
0
  6
CONTINUOUS
 10
4.225320
 20
2.981440
  0
SEQEND
  8
0
  0
SOLID
  8
0
 62
    15
 10
4.161960
 20
2.932600
 11
4.797760
 21
2.557280
 12
4.060760
 22
2.899600
 13
4.697000
 23
2.524280
  0
POLYLINE
  8
0
  6
CONTINUOUS
 66
     1
 40
0.000000
 41
0.000000
  0
VERTEX
  8
0
  6
CONTINUOUS
 10
4.161960
 20
2.932600
  0
VERTEX
  8
0
  6
CONTINUOUS
 10
4.797760
 20
2.557280
  0
VERTEX
  8
0
  6
CONTINUOUS
 10
4.697000
 20
2.524280
  0
VERTEX
  8
0
  6
CONTINUOUS
 10
4.060760
 20
2.899600
  0
VERTEX
  8
0
  6
CONTINUOUS
 10
4.161960
 20
2.932600
  0
SEQEND
  8
0
  0
SOLID
  8
0
 62
    15
 10
4.060760
 20
2.899600
 11
4.697000
 21
2.524280
 12
4.005760
 22
2.880680
 13
4.641560
 23
2.505360
  0
POLYLINE
  8
0
  6
CONTINUOUS
 66
     1
 40
0.000000
 41
0.000000
  0
VERTEX
  8
0
  6
CONTINUOUS
 10
4.060760
 20
2.899600
  0
VERTEX
  8
0
  6
CONTINUOUS
 10
4.697000
 20
2.524280
  0
VERTEX
  8
0
  6
CONTINUOUS
 10
4.641560
 20
2.505360
  0
VERTEX
  8
0
  6
CONTINUOUS
 10
4.005760
 20
2.880680
  0
VERTEX
  8
0
  6
CONTINUOUS
 10
4.060760
 20
2.899600
  0
SEQEND
  8
0
  0
SOLID
  8
0
 62
    15
 10
4.005760
 20
2.880680
 11
4.641560
 21
2.505360
 12
3.960880
 22
2.853840
 13
4.596680
 23
2.478520
  0
POLYLINE
  8
0
  6
CONTINUOUS
 66
     1
 40
0.000000
 41
0.000000
  0
VERTEX
  8
0
  6
CONTINUOUS
 10
4.005760
 20
2.880680
  0
VERTEX
  8
0
  6
CONTINUOUS
 10
4.641560
 20
2.505360
  0
VERTEX
  8
0
  6
CONTINUOUS
 10
4.596680
 20
2.478520
  0
VERTEX
  8
0
  6
CONTINUOUS
 10
3.960880
 20
2.853840
  0
VERTEX
  8
0
  6
CONTINUOUS
 10
4.005760
 20
2.880680
  0
SEQEND
  8
0
  0
SOLID
  8
0
 62
    15
 10
3.960880
 20
2.853840
 11
4.596680
 21
2.478520
 12
3.899280
 22
2.779480
 13
4.535080
 23
2.404160
  0
POLYLINE
  8
0
  6
CONTINUOUS
 66
     1
 40
0.000000
 41
0.000000
  0
VERTEX
  8
0
  6
CONTINUOUS
 10
3.960880
 20
2.853840
  0
VERTEX
  8
0
  6
CONTINUOUS
 10
4.596680
 20
2.478520
  0
VERTEX
  8
0
  6
CONTINUOUS
 10
4.535080
 20
2.404160
  0
VERTEX
  8
0
  6
CONTINUOUS
 10
3.899280
 20
2.779480
  0
VERTEX
  8
0
  6
CONTINUOUS
 10
3.960880
 20
2.853840
  0
SEQEND
  8
0
  0
SOLID
  8
0
 62
    15
 10
3.899280
 20
2.779480
 11
4.535080
 21
2.404160
 12
3.869360
 22
2.685320
 13
4.505160
 23
2.309560
  0
POLYLINE
  8
0
  6
CONTINUOUS
 66
     1
 40
0.000000
 41
0.000000
  0
VERTEX
  8
0
  6
CONTINUOUS
 10
3.899280
 20
2.779480
  0
VERTEX
  8
0
  6
CONTINUOUS
 10
4.535080
 20
2.404160
  0
VERTEX
  8
0
  6
CONTINUOUS
 10
4.505160
 20
2.309560
  0
VERTEX
  8
0
  6
CONTINUOUS
 10
3.869360
 20
2.685320
  0
VERTEX
  8
0
  6
CONTINUOUS
 10
3.899280
 20
2.779480
  0
SEQEND
  8
0
  0
SOLID
  8
0
 62
    15
 10
3.869360
 20
2.685320
 11
4.505160
 21
2.309560
 12
3.864960
 22
2.578840
 13
4.500760
 23
2.203520
  0
POLYLINE
  8
0
  6
CONTINUOUS
 66
     1
 40
0.000000
 41
0.000000
  0
VERTEX
  8
0
  6
CONTINUOUS
 10
3.869360
 20
2.685320
  0
VERTEX
  8
0
  6
CONTINUOUS
 10
4.505160
 20
2.309560
  0
VERTEX
  8
0
  6
CONTINUOUS
 10
4.500760
 20
2.203520
  0
VERTEX
  8
0
  6
CONTINUOUS
 10
3.864960
 20
2.578840
  0
VERTEX
  8
0
  6
CONTINUOUS
 10
3.869360
 20
2.685320
  0
SEQEND
  8
0
  0
SOLID
  8
0
 62
    15
 10
3.864960
 20
2.578840
 11
4.500760
 21
2.203520
 12
3.696000
 22
2.588080
 13
4.331800
 23
2.212760
  0
POLYLINE
  8
0
  6
CONTINUOUS
 66
     1
 40
0.000000
 41
0.000000
  0
VERTEX
  8
0
  6
CONTINUOUS
 10
3.864960
 20
2.578840
  0
VERTEX
  8
0
  6
CONTINUOUS
 10
4.500760
 20
2.203520
  0
VERTEX
  8
0
  6
CONTINUOUS
 10
4.331800
 20
2.212760
  0
VERTEX
  8
0
  6
CONTINUOUS
 10
3.696000
 20
2.588080
  0
VERTEX
  8
0
  6
CONTINUOUS
 10
3.864960
 20
2.578840
  0
SEQEND
  8
0
  0
POLYLINE
  8
0
  6
CONTINUOUS
 66
     1
 40
0.000000
 41
0.000000
  0
VERTEX
  8
0
  6
CONTINUOUS
 10
5.343800
 20
5.241720
  0
VERTEX
  8
0
  6
CONTINUOUS
 10
6.251080
 20
5.302440
  0
VERTEX
  8
0
  6
CONTINUOUS
 10
6.255040
 20
5.061320
  0
VERTEX
  8
0
  6
CONTINUOUS
 10
6.069360
 20
5.068800
  0
VERTEX
  8
0
  6
CONTINUOUS
 10
6.083880
 20
4.869040
  0
VERTEX
  8
0
  6
CONTINUOUS
 10
5.939560
 20
4.875640
  0
VERTEX
  8
0
  6
CONTINUOUS
 10
5.861240
 20
4.865520
  0
VERTEX
  8
0
  6
CONTINUOUS
 10
5.782920
 20
4.840880
  0
VERTEX
  8
0
  6
CONTINUOUS
 10
5.708120
 20
4.797320
  0
VERTEX
  8
0
  6
CONTINUOUS
 10
5.640360
 20
4.730440
  0
VERTEX
  8
0
  6
CONTINUOUS
 10
5.582280
 20
4.635400
  0
VERTEX
  8
0
  6
CONTINUOUS
 10
5.536960
 20
4.508240
  0
VERTEX
  8
0
  6
CONTINUOUS
 10
5.500880
 20
4.379760
  0
VERTEX
  8
0
  6
CONTINUOUS
 10
5.464800
 20
4.281640
  0
VERTEX
  8
0
  6
CONTINUOUS
 10
5.426080
 20
4.209040
  0
VERTEX
  8
0
  6
CONTINUOUS
 10
5.381200
 20
4.157560
  0
VERTEX
  8
0
  6
CONTINUOUS
 10
5.328400
 20
4.123240
  0
VERTEX
  8
0
  6
CONTINUOUS
 10
5.263720
 20
4.101680
  0
VERTEX
  8
0
  6
CONTINUOUS
 10
5.184520
 20
4.088040
  0
VERTEX
  8
0
  6
CONTINUOUS
 10
5.088160
 20
4.078800
  0
VERTEX
  8
0
  6
CONTINUOUS
 10
5.088160
 20
3.860560
  0
VERTEX
  8
0
  6
CONTINUOUS
 10
4.932400
 20
3.852200
  0
VERTEX
  8
0
  6
CONTINUOUS
 10
4.902480
 20
3.761120
  0
VERTEX
  8
0
  6
CONTINUOUS
 10
4.862000
 20
3.676200
  0
VERTEX
  8
0
  6
CONTINUOUS
 10
4.753760
 20
3.529240
  0
VERTEX
  8
0
  6
CONTINUOUS
 10
4.612960
 20
3.415720
  0
VERTEX
  8
0
  6
CONTINUOUS
 10
4.531560
 20
3.373040
  0
VERTEX
  8
0
  6
CONTINUOUS
 10
4.444440
 20
3.341360
  0
VERTEX
  8
0
  6
CONTINUOUS
 10
4.459400
 20
3.189120
  0
VERTEX
  8
0
  6
CONTINUOUS
 10
4.257880
 20
3.169760
  0
VERTEX
  8
0
  6
CONTINUOUS
 10
4.260080
 20
3.108160
  0
VERTEX
  8
0
  6
CONTINUOUS
 10
4.255680
 20
3.057120
  0
VERTEX
  8
0
  6
CONTINUOUS
 10
4.225320
 20
2.981440
  0
VERTEX
  8
0
  6
CONTINUOUS
 10
4.161960
 20
2.932600
  0
VERTEX
  8
0
  6
CONTINUOUS
 10
4.060760
 20
2.899600
  0
VERTEX
  8
0
  6
CONTINUOUS
 10
4.005760
 20
2.880680
  0
VERTEX
  8
0
  6
CONTINUOUS
 10
3.960880
 20
2.853840
  0
VERTEX
  8
0
  6
CONTINUOUS
 10
3.899280
 20
2.779480
  0
VERTEX
  8
0
  6
CONTINUOUS
 10
3.869360
 20
2.685320
  0
VERTEX
  8
0
  6
CONTINUOUS
 10
3.864960
 20
2.578840
  0
VERTEX
  8
0
  6
CONTINUOUS
 10
3.696000
 20
2.588080
  0
VERTEX
  8
0
  6
CONTINUOUS
 10
3.706120
 20
3.553000
  0
VERTEX
  8
0
  6
CONTINUOUS
 10
5.341600
 20
5.240840
  0
VERTEX
  8
0
  6
CONTINUOUS
 10
5.343800
 20
5.241720
  0
SEQEND
  8
0
  0
TEXT
  8
0
 10
5.019080
 20
2.340360
 40
0.138213
  1
BA  860
 41
1.000000
  7
SN0
 71
     0
 72
     5
 11
5.609737
 21
2.340360
  0
TEXT
  8
0
 10
4.863320
 20
2.148960
 40
0.138213
  1
3/4" x 3-3/4"
 41
1.000000
  7
SN0
 71
     0
 72
     5
 11
5.765419
 21
2.148960
  0
ENDSEC
  0
EOF
