  0
SECTION
  2
HEADER
  9
$ACADVER
  1
AC1006
  9
$EXTMIN
 10
2.161280
 20
0.581240
  9
$EXTMAX
 10
6.677440
 20
4.665320
  9
$LTSCALE
 40
0.044000
  9
$PDMODE
 70
    35
  9
$PDSIZE
 40
0.035200
  0
ENDSEC
  0
SECTION
  2
TABLES
  0
TABLE
  2
LTYPE
 70
     9
  0
LTYPE
  2
CONTINUOUS
 70
    64
  3
Solid line
 72
    65
 73
     0
 40
0.000000
  0
LTYPE
  2
DASHED
 70
    64
  3
__ __ __ __ __ __ __ __ __ __ __ __ __ __ __
 72
    65
 73
     2
 40
0.000330
 49
0.000220
 49
-0.000110
  0
LTYPE
  2
HIDDEN
 70
    64
  3
 _ _ _ _ _ _ _ _ _ _ _ _ _ _ _ _ _ _ _ _ _ _
 72
    65
 73
     2
 40
0.000165
 49
0.000110
 49
-0.000055
  0
LTYPE
  2
CENTER
 70
    64
  3
____ _ ____ _ ____ _ ____ _ ____ _ ____ _ ____
 72
    65
 73
     4
 40
0.000880
 49
0.000550
 49
-0.000110
 49
0.000110
 49
-0.000110
  0
LTYPE
  2
PHANTOM
 70
    64
  3
_____ _ _ _____ _ _ _____ _ _ _____ _ _ ____
 72
    65
 73
     6
 40
0.001100
 49
0.000550
 49
-0.000110
 49
0.000110
 49
-0.000110
 49
0.000110
 49
-0.000110
  0
LTYPE
  2
DOT
 70
    64
  3
...............................................
 72
    65
 73
     2
 40
0.000110
 49
0.000000
 49
-0.000110
  0
LTYPE
  2
DASHDOT
 70
    64
  3
__ . __ . __ . __ . __ . __ . __ . __ . __ . __
 72
    65
 73
     4
 40
0.000440
 49
0.000220
 49
-0.000110
 49
0.000000
 49
-0.000110
  0
LTYPE
  2
BORDER
 70
    64
  3
__ __ . __ __ . __ __ . __ __ . __ __ . __ __
 72
    65
 73
     6
 40
0.000770
 49
0.000220
 49
-0.000110
 49
0.000220
 49
-0.000110
 49
0.000000
 49
-0.000110
  0
LTYPE
  2
DIVIDE
 70
    64
  3
__ . . __ . . __ . . __ . . __ . . __ . . __
 72
    65
 73
     6
 40
0.000550
 49
0.000220
 49
-0.000110
 49
0.000000
 49
-0.000110
 49
0.000000
 49
-0.000110
  0
LTYPE
  2
DOTDOT
 70
    64
  3
 . .  . .  . .  . .  . .  . . 
 72
    65
 73
     5
 40
0.000242
 49
-0.000110
 49
0.000000
 49
-0.000110
 49
0.000000
 49
-0.000110
  0
ENDTAB
  0
TABLE
  2
STYLE
 70
     2
  0
STYLE
 70
     0
  2
SN0
 40
0.000000
 41
0.000440
 50
0.000000
 71
     0
 42
0.000000
  3
ROMAND
  0
STYLE
 70
    68
  2
SV0
 40
0.000000
 41
0.000440
 50
0.000000
 71
     0
 42
0.000000
  3
ROMAND
  0
ENDTAB
  0
TABLE
  2
LAYER
 70
     3
  0
LAYER
  2
FOREGROUND
 70
    64
 62
     7
  6
CONTINUOUS
  0
LAYER
  2
BACKGROUND
 70
    65
 62
    -7
  6
CONTINUOUS
  0
LAYER
  2
0
 70
    64
 62
     7
  6
CONTINUOUS
  0
ENDTAB
  0
ENDSEC
  0
SECTION
  2
ENTITIES
  0
POLYLINE
  8
FOREGROUND
  6
CONTINUOUS
 66
     1
 40
0.000000
 41
0.000000
  0
VERTEX
  8
FOREGROUND
  6
CONTINUOUS
 10
0.000000
 20
5.246560
  0
VERTEX
  8
FOREGROUND
  6
CONTINUOUS
 10
8.499920
 20
5.246560
  0
VERTEX
  8
FOREGROUND
  6
CONTINUOUS
 10
8.499920
 20
-5.753440
  0
VERTEX
  8
FOREGROUND
  6
CONTINUOUS
 10
0.000000
 20
-5.753440
  0
VERTEX
  8
FOREGROUND
  6
CONTINUOUS
 10
0.000000
 20
5.246560
  0
SEQEND
  8
0
  0
POLYLINE
  8
FOREGROUND
  6
CONTINUOUS
 66
     1
 40
0.000000
 41
0.000000
  0
VERTEX
  8
FOREGROUND
  6
CONTINUOUS
 10
0.000000
 20
5.246560
  0
VERTEX
  8
FOREGROUND
  6
CONTINUOUS
 10
8.499920
 20
5.246560
  0
VERTEX
  8
FOREGROUND
  6
CONTINUOUS
 10
8.499920
 20
-5.753440
  0
VERTEX
  8
FOREGROUND
  6
CONTINUOUS
 10
0.000000
 20
-5.753440
  0
VERTEX
  8
FOREGROUND
  6
CONTINUOUS
 10
0.000000
 20
5.246560
  0
SEQEND
  8
0
  0
POLYLINE
  8
0
  6
CONTINUOUS
 66
     1
 40
0.014080
 41
0.014080
  0
VERTEX
  8
0
  6
CONTINUOUS
 10
2.337280
 20
4.637600
  0
VERTEX
  8
0
  6
CONTINUOUS
 10
2.368960
 20
4.605920
  0
VERTEX
  8
0
  6
CONTINUOUS
 10
2.401520
 20
4.582600
  0
VERTEX
  8
0
  6
CONTINUOUS
 10
2.434080
 20
4.566760
  0
VERTEX
  8
0
  6
CONTINUOUS
 10
2.466200
 20
4.558400
  0
VERTEX
  8
0
  6
CONTINUOUS
 10
2.487320
 20
4.556640
  0
VERTEX
  8
0
  6
CONTINUOUS
 10
2.508000
 20
4.557520
  0
VERTEX
  8
0
  6
CONTINUOUS
 10
2.537040
 20
4.563680
  0
VERTEX
  8
0
  6
CONTINUOUS
 10
2.563880
 20
4.575120
  0
VERTEX
  8
0
  6
CONTINUOUS
 10
2.580160
 20
4.585680
  0
VERTEX
  8
0
  6
CONTINUOUS
 10
2.595120
 20
4.598000
  0
VERTEX
  8
0
  6
CONTINUOUS
 10
2.608760
 20
4.612080
  0
VERTEX
  8
0
  6
CONTINUOUS
 10
2.620200
 20
4.627920
  0
VERTEX
  8
0
  6
CONTINUOUS
 10
2.629880
 20
4.645080
  0
VERTEX
  8
0
  6
CONTINUOUS
 10
2.765400
 20
4.557520
  0
VERTEX
  8
0
  6
CONTINUOUS
 10
2.815560
 20
4.635840
  0
VERTEX
  8
0
  6
CONTINUOUS
 10
2.857360
 20
4.617800
  0
VERTEX
  8
0
  6
CONTINUOUS
 10
2.901360
 20
4.604160
  0
VERTEX
  8
0
  6
CONTINUOUS
 10
2.947560
 20
4.594480
  0
VERTEX
  8
0
  6
CONTINUOUS
 10
2.994200
 20
4.588320
  0
VERTEX
  8
0
  6
CONTINUOUS
 10
3.040400
 20
4.585680
  0
VERTEX
  8
0
  6
CONTINUOUS
 10
3.084840
 20
4.586120
  0
VERTEX
  8
0
  6
CONTINUOUS
 10
3.127080
 20
4.589640
  0
VERTEX
  8
0
  6
CONTINUOUS
 10
3.223440
 20
4.605920
  0
VERTEX
  8
0
  6
CONTINUOUS
 10
3.243680
 20
4.607680
  0
VERTEX
  8
0
  6
CONTINUOUS
 10
3.263920
 20
4.607680
  0
VERTEX
  8
0
  6
CONTINUOUS
 10
3.294720
 20
4.604160
  0
VERTEX
  8
0
  6
CONTINUOUS
 10
3.324200
 20
4.594920
  0
VERTEX
  8
0
  6
CONTINUOUS
 10
3.352360
 20
4.578640
  0
VERTEX
  8
0
  6
CONTINUOUS
 10
3.369960
 20
4.562800
  0
VERTEX
  8
0
  6
CONTINUOUS
 10
3.386680
 20
4.543440
  0
VERTEX
  8
0
  6
CONTINUOUS
 10
3.401640
 20
4.519240
  0
VERTEX
  8
0
  6
CONTINUOUS
 10
3.415280
 20
4.489760
  0
VERTEX
  8
0
  6
CONTINUOUS
 10
3.427160
 20
4.455440
  0
VERTEX
  8
0
  6
CONTINUOUS
 10
3.437280
 20
4.414960
  0
VERTEX
  8
0
  6
CONTINUOUS
 10
3.441240
 20
4.392520
  0
VERTEX
  8
0
  6
CONTINUOUS
 10
3.463680
 20
4.390760
  0
VERTEX
  8
0
  6
CONTINUOUS
 10
3.476000
 20
4.419800
  0
VERTEX
  8
0
  6
CONTINUOUS
 10
3.492280
 20
4.445320
  0
VERTEX
  8
0
  6
CONTINUOUS
 10
3.501520
 20
4.457200
  0
VERTEX
  8
0
  6
CONTINUOUS
 10
3.523080
 20
4.477880
  0
VERTEX
  8
0
  6
CONTINUOUS
 10
3.546840
 20
4.494600
  0
VERTEX
  8
0
  6
CONTINUOUS
 10
3.572800
 20
4.507360
  0
VERTEX
  8
0
  6
CONTINUOUS
 10
3.600080
 20
4.516160
  0
VERTEX
  8
0
  6
CONTINUOUS
 10
3.627360
 20
4.520120
  0
VERTEX
  8
0
  6
CONTINUOUS
 10
3.641440
 20
4.520560
  0
VERTEX
  8
0
  6
CONTINUOUS
 10
3.655080
 20
4.519680
  0
VERTEX
  8
0
  6
CONTINUOUS
 10
3.681480
 20
4.513520
  0
VERTEX
  8
0
  6
CONTINUOUS
 10
3.707000
 20
4.502520
  0
VERTEX
  8
0
  6
CONTINUOUS
 10
3.718880
 20
4.495040
  0
VERTEX
  8
0
  6
CONTINUOUS
 10
3.740440
 20
4.475680
  0
VERTEX
  8
0
  6
CONTINUOUS
 10
3.759360
 20
4.450160
  0
VERTEX
  8
0
  6
CONTINUOUS
 10
3.774320
 20
4.418480
  0
VERTEX
  8
0
  6
CONTINUOUS
 10
3.784880
 20
4.380200
  0
VERTEX
  8
0
  6
CONTINUOUS
 10
3.790160
 20
4.335320
  0
VERTEX
  8
0
  6
CONTINUOUS
 10
3.836360
 20
4.322120
  0
VERTEX
  8
0
  6
CONTINUOUS
 10
3.923480
 20
4.301440
  0
VERTEX
  8
0
  6
CONTINUOUS
 10
4.004000
 20
4.287360
  0
VERTEX
  8
0
  6
CONTINUOUS
 10
4.042280
 20
4.282520
  0
VERTEX
  8
0
  6
CONTINUOUS
 10
4.114000
 20
4.277680
  0
VERTEX
  8
0
  6
CONTINUOUS
 10
4.179560
 20
4.278560
  0
VERTEX
  8
0
  6
CONTINUOUS
 10
4.239840
 20
4.284280
  0
VERTEX
  8
0
  6
CONTINUOUS
 10
4.268000
 20
4.288680
  0
VERTEX
  8
0
  6
CONTINUOUS
 10
4.319920
 20
4.301000
  0
VERTEX
  8
0
  6
CONTINUOUS
 10
4.367440
 20
4.317280
  0
VERTEX
  8
0
  6
CONTINUOUS
 10
4.410120
 20
4.336640
  0
VERTEX
  8
0
  6
CONTINUOUS
 10
4.448400
 20
4.358640
  0
VERTEX
  8
0
  6
CONTINUOUS
 10
4.482720
 20
4.383280
  0
VERTEX
  8
0
  6
CONTINUOUS
 10
4.526720
 20
4.422880
  0
VERTEX
  8
0
  6
CONTINUOUS
 10
4.562360
 20
4.465120
  0
VERTEX
  8
0
  6
CONTINUOUS
 10
4.591400
 20
4.508240
  0
VERTEX
  8
0
  6
CONTINUOUS
 10
4.715040
 20
4.414080
  0
VERTEX
  8
0
  6
CONTINUOUS
 10
4.786320
 20
4.465560
  0
VERTEX
  8
0
  6
CONTINUOUS
 10
4.823280
 20
4.488880
  0
VERTEX
  8
0
  6
CONTINUOUS
 10
4.900280
 20
4.531560
  0
VERTEX
  8
0
  6
CONTINUOUS
 10
4.939880
 20
4.550480
  0
VERTEX
  8
0
  6
CONTINUOUS
 10
5.021720
 20
4.583920
  0
VERTEX
  8
0
  6
CONTINUOUS
 10
5.106200
 20
4.610760
  0
VERTEX
  8
0
  6
CONTINUOUS
 10
5.148880
 20
4.622200
  0
VERTEX
  8
0
  6
CONTINUOUS
 10
5.236440
 20
4.640240
  0
VERTEX
  8
0
  6
CONTINUOUS
 10
5.325320
 20
4.652120
  0
VERTEX
  8
0
  6
CONTINUOUS
 10
5.369760
 20
4.655640
  0
VERTEX
  8
0
  6
CONTINUOUS
 10
5.459960
 20
4.657840
  0
VERTEX
  8
0
  6
CONTINUOUS
 10
5.550600
 20
4.653880
  0
VERTEX
  8
0
  6
CONTINUOUS
 10
5.640800
 20
4.643320
  0
VERTEX
  8
0
  6
CONTINUOUS
 10
5.730560
 20
4.626160
  0
VERTEX
  8
0
  6
CONTINUOUS
 10
5.819440
 20
4.602840
  0
VERTEX
  8
0
  6
CONTINUOUS
 10
5.906560
 20
4.572480
  0
VERTEX
  8
0
  6
CONTINUOUS
 10
5.991920
 20
4.535960
  0
VERTEX
  8
0
  6
CONTINUOUS
 10
6.074640
 20
4.492400
  0
VERTEX
  8
0
  6
CONTINUOUS
 10
6.197400
 20
4.640240
  0
VERTEX
  8
0
  6
CONTINUOUS
 10
6.295960
 20
4.565000
  0
VERTEX
  8
0
  6
CONTINUOUS
 10
6.371200
 20
4.645960
  0
VERTEX
  8
0
  6
CONTINUOUS
 10
6.667320
 20
4.425520
  0
VERTEX
  8
0
  6
CONTINUOUS
 10
6.160000
 20
3.799840
  0
VERTEX
  8
0
  6
CONTINUOUS
 10
3.070760
 20
3.800280
  0
VERTEX
  8
0
  6
CONTINUOUS
 10
2.183720
 20
4.435640
  0
VERTEX
  8
0
  6
CONTINUOUS
 10
2.337280
 20
4.637600
  0
SEQEND
  8
0
  0
TEXT
  8
0
 10
4.011920
 20
0.816200
 40
0.138068
  1
BA  859
 41
1.000000
  7
SN0
 71
     0
 72
     5
 11
4.603085
 21
0.816200
  0
TEXT
  8
0
 10
3.856160
 20
0.624360
 40
0.138068
  1
7/8" x 4-1/2"
 41
1.000000
  7
SN0
 71
     0
 72
     5
 11
4.758489
 21
0.624360
  0
SOLID
  8
0
 62
    15
 10
4.521440
 20
2.773760
 11
5.159440
 21
2.412960
 12
4.356880
 22
2.702920
 13
4.994440
 23
2.342120
  0
POLYLINE
  8
0
  6
CONTINUOUS
 66
     1
 40
0.000000
 41
0.000000
  0
VERTEX
  8
0
  6
CONTINUOUS
 10
4.521440
 20
2.773760
  0
VERTEX
  8
0
  6
CONTINUOUS
 10
5.159440
 20
2.412960
  0
VERTEX
  8
0
  6
CONTINUOUS
 10
4.994440
 20
2.342120
  0
VERTEX
  8
0
  6
CONTINUOUS
 10
4.356880
 20
2.702920
  0
VERTEX
  8
0
  6
CONTINUOUS
 10
4.521440
 20
2.773760
  0
SEQEND
  8
0
  0
SOLID
  8
0
 62
    15
 10
5.808880
 20
3.406480
 11
6.446440
 21
3.046120
 12
5.758280
 22
3.401200
 13
6.396280
 23
3.040840
  0
POLYLINE
  8
0
  6
CONTINUOUS
 66
     1
 40
0.000000
 41
0.000000
  0
VERTEX
  8
0
  6
CONTINUOUS
 10
5.808880
 20
3.406480
  0
VERTEX
  8
0
  6
CONTINUOUS
 10
6.446440
 20
3.046120
  0
VERTEX
  8
0
  6
CONTINUOUS
 10
6.396280
 20
3.040840
  0
VERTEX
  8
0
  6
CONTINUOUS
 10
5.758280
 20
3.401200
  0
VERTEX
  8
0
  6
CONTINUOUS
 10
5.808880
 20
3.406480
  0
SEQEND
  8
0
  0
SOLID
  8
0
 62
    15
 10
5.758280
 20
3.401200
 11
6.396280
 21
3.040840
 12
5.682160
 22
3.362040
 13
6.320160
 23
3.001240
  0
POLYLINE
  8
0
  6
CONTINUOUS
 66
     1
 40
0.000000
 41
0.000000
  0
VERTEX
  8
0
  6
CONTINUOUS
 10
5.758280
 20
3.401200
  0
VERTEX
  8
0
  6
CONTINUOUS
 10
6.396280
 20
3.040840
  0
VERTEX
  8
0
  6
CONTINUOUS
 10
6.320160
 20
3.001240
  0
VERTEX
  8
0
  6
CONTINUOUS
 10
5.682160
 20
3.362040
  0
VERTEX
  8
0
  6
CONTINUOUS
 10
5.758280
 20
3.401200
  0
SEQEND
  8
0
  0
SOLID
  8
0
 62
    15
 10
5.682160
 20
3.362040
 11
6.320160
 21
3.001240
 12
5.641240
 22
3.296040
 13
6.278800
 23
2.935240
  0
POLYLINE
  8
0
  6
CONTINUOUS
 66
     1
 40
0.000000
 41
0.000000
  0
VERTEX
  8
0
  6
CONTINUOUS
 10
5.682160
 20
3.362040
  0
VERTEX
  8
0
  6
CONTINUOUS
 10
6.320160
 20
3.001240
  0
VERTEX
  8
0
  6
CONTINUOUS
 10
6.278800
 20
2.935240
  0
VERTEX
  8
0
  6
CONTINUOUS
 10
5.641240
 20
3.296040
  0
VERTEX
  8
0
  6
CONTINUOUS
 10
5.682160
 20
3.362040
  0
SEQEND
  8
0
  0
SOLID
  8
0
 62
    15
 10
5.641240
 20
3.296040
 11
6.278800
 21
2.935240
 12
5.636840
 22
3.218600
 13
6.274840
 23
2.858240
  0
POLYLINE
  8
0
  6
CONTINUOUS
 66
     1
 40
0.000000
 41
0.000000
  0
VERTEX
  8
0
  6
CONTINUOUS
 10
5.641240
 20
3.296040
  0
VERTEX
  8
0
  6
CONTINUOUS
 10
6.278800
 20
2.935240
  0
VERTEX
  8
0
  6
CONTINUOUS
 10
6.274840
 20
2.858240
  0
VERTEX
  8
0
  6
CONTINUOUS
 10
5.636840
 20
3.218600
  0
VERTEX
  8
0
  6
CONTINUOUS
 10
5.641240
 20
3.296040
  0
SEQEND
  8
0
  0
SOLID
  8
0
 62
    15
 10
5.636840
 20
3.218600
 11
6.274840
 21
2.858240
 12
5.475800
 22
3.208040
 13
6.113360
 23
2.847240
  0
POLYLINE
  8
0
  6
CONTINUOUS
 66
     1
 40
0.000000
 41
0.000000
  0
VERTEX
  8
0
  6
CONTINUOUS
 10
5.636840
 20
3.218600
  0
VERTEX
  8
0
  6
CONTINUOUS
 10
6.274840
 20
2.858240
  0
VERTEX
  8
0
  6
CONTINUOUS
 10
6.113360
 20
2.847240
  0
VERTEX
  8
0
  6
CONTINUOUS
 10
5.475800
 20
3.208040
  0
VERTEX
  8
0
  6
CONTINUOUS
 10
5.636840
 20
3.218600
  0
SEQEND
  8
0
  0
SOLID
  8
0
 62
    15
 10
5.475800
 20
3.208040
 11
6.113360
 21
2.847240
 12
5.482400
 22
3.115200
 13
6.120400
 23
2.754400
  0
POLYLINE
  8
0
  6
CONTINUOUS
 66
     1
 40
0.000000
 41
0.000000
  0
VERTEX
  8
0
  6
CONTINUOUS
 10
5.475800
 20
3.208040
  0
VERTEX
  8
0
  6
CONTINUOUS
 10
6.113360
 20
2.847240
  0
VERTEX
  8
0
  6
CONTINUOUS
 10
6.120400
 20
2.754400
  0
VERTEX
  8
0
  6
CONTINUOUS
 10
5.482400
 20
3.115200
  0
VERTEX
  8
0
  6
CONTINUOUS
 10
5.475800
 20
3.208040
  0
SEQEND
  8
0
  0
SOLID
  8
0
 62
    15
 10
5.482400
 20
3.115200
 11
6.120400
 21
2.754400
 12
5.394400
 22
3.089240
 13
6.032400
 23
2.728880
  0
POLYLINE
  8
0
  6
CONTINUOUS
 66
     1
 40
0.000000
 41
0.000000
  0
VERTEX
  8
0
  6
CONTINUOUS
 10
5.482400
 20
3.115200
  0
VERTEX
  8
0
  6
CONTINUOUS
 10
6.120400
 20
2.754400
  0
VERTEX
  8
0
  6
CONTINUOUS
 10
6.032400
 20
2.728880
  0
VERTEX
  8
0
  6
CONTINUOUS
 10
5.394400
 20
3.089240
  0
VERTEX
  8
0
  6
CONTINUOUS
 10
5.482400
 20
3.115200
  0
SEQEND
  8
0
  0
SOLID
  8
0
 62
    15
 10
5.394400
 20
3.089240
 11
6.032400
 21
2.728880
 12
5.310800
 22
3.046560
 13
5.948800
 23
2.686200
  0
POLYLINE
  8
0
  6
CONTINUOUS
 66
     1
 40
0.000000
 41
0.000000
  0
VERTEX
  8
0
  6
CONTINUOUS
 10
5.394400
 20
3.089240
  0
VERTEX
  8
0
  6
CONTINUOUS
 10
6.032400
 20
2.728880
  0
VERTEX
  8
0
  6
CONTINUOUS
 10
5.948800
 20
2.686200
  0
VERTEX
  8
0
  6
CONTINUOUS
 10
5.310800
 20
3.046560
  0
VERTEX
  8
0
  6
CONTINUOUS
 10
5.394400
 20
3.089240
  0
SEQEND
  8
0
  0
SOLID
  8
0
 62
    15
 10
5.310800
 20
3.046560
 11
5.948800
 21
2.686200
 12
5.236880
 22
2.994200
 13
5.874440
 23
2.633400
  0
POLYLINE
  8
0
  6
CONTINUOUS
 66
     1
 40
0.000000
 41
0.000000
  0
VERTEX
  8
0
  6
CONTINUOUS
 10
5.310800
 20
3.046560
  0
VERTEX
  8
0
  6
CONTINUOUS
 10
5.948800
 20
2.686200
  0
VERTEX
  8
0
  6
CONTINUOUS
 10
5.874440
 20
2.633400
  0
VERTEX
  8
0
  6
CONTINUOUS
 10
5.236880
 20
2.994200
  0
VERTEX
  8
0
  6
CONTINUOUS
 10
5.310800
 20
3.046560
  0
SEQEND
  8
0
  0
SOLID
  8
0
 62
    15
 10
5.236880
 20
2.994200
 11
5.874440
 21
2.633400
 12
5.177920
 22
2.937880
 13
5.815920
 23
2.577520
  0
POLYLINE
  8
0
  6
CONTINUOUS
 66
     1
 40
0.000000
 41
0.000000
  0
VERTEX
  8
0
  6
CONTINUOUS
 10
5.236880
 20
2.994200
  0
VERTEX
  8
0
  6
CONTINUOUS
 10
5.874440
 20
2.633400
  0
VERTEX
  8
0
  6
CONTINUOUS
 10
5.815920
 20
2.577520
  0
VERTEX
  8
0
  6
CONTINUOUS
 10
5.177920
 20
2.937880
  0
VERTEX
  8
0
  6
CONTINUOUS
 10
5.236880
 20
2.994200
  0
SEQEND
  8
0
  0
SOLID
  8
0
 62
    15
 10
5.177920
 20
2.937880
 11
5.815920
 21
2.577520
 12
5.122040
 22
2.882000
 13
5.760040
 23
2.521640
  0
POLYLINE
  8
0
  6
CONTINUOUS
 66
     1
 40
0.000000
 41
0.000000
  0
VERTEX
  8
0
  6
CONTINUOUS
 10
5.177920
 20
2.937880
  0
VERTEX
  8
0
  6
CONTINUOUS
 10
5.815920
 20
2.577520
  0
VERTEX
  8
0
  6
CONTINUOUS
 10
5.760040
 20
2.521640
  0
VERTEX
  8
0
  6
CONTINUOUS
 10
5.122040
 20
2.882000
  0
VERTEX
  8
0
  6
CONTINUOUS
 10
5.177920
 20
2.937880
  0
SEQEND
  8
0
  0
SOLID
  8
0
 62
    15
 10
5.122040
 20
2.882000
 11
5.760040
 21
2.521640
 12
5.049880
 22
2.844160
 13
5.687880
 23
2.483360
  0
POLYLINE
  8
0
  6
CONTINUOUS
 66
     1
 40
0.000000
 41
0.000000
  0
VERTEX
  8
0
  6
CONTINUOUS
 10
5.122040
 20
2.882000
  0
VERTEX
  8
0
  6
CONTINUOUS
 10
5.760040
 20
2.521640
  0
VERTEX
  8
0
  6
CONTINUOUS
 10
5.687880
 20
2.483360
  0
VERTEX
  8
0
  6
CONTINUOUS
 10
5.049880
 20
2.844160
  0
VERTEX
  8
0
  6
CONTINUOUS
 10
5.122040
 20
2.882000
  0
SEQEND
  8
0
  0
SOLID
  8
0
 62
    15
 10
5.049880
 20
2.844160
 11
5.687880
 21
2.483360
 12
5.006320
 22
2.840640
 13
5.643880
 23
2.480280
  0
POLYLINE
  8
0
  6
CONTINUOUS
 66
     1
 40
0.000000
 41
0.000000
  0
VERTEX
  8
0
  6
CONTINUOUS
 10
5.049880
 20
2.844160
  0
VERTEX
  8
0
  6
CONTINUOUS
 10
5.687880
 20
2.483360
  0
VERTEX
  8
0
  6
CONTINUOUS
 10
5.643880
 20
2.480280
  0
VERTEX
  8
0
  6
CONTINUOUS
 10
5.006320
 20
2.840640
  0
VERTEX
  8
0
  6
CONTINUOUS
 10
5.049880
 20
2.844160
  0
SEQEND
  8
0
  0
SOLID
  8
0
 62
    15
 10
4.835160
 20
2.936120
 11
5.473160
 21
2.575760
 12
4.816680
 22
2.924240
 13
5.454240
 23
2.563880
  0
POLYLINE
  8
0
  6
CONTINUOUS
 66
     1
 40
0.000000
 41
0.000000
  0
VERTEX
  8
0
  6
CONTINUOUS
 10
4.835160
 20
2.936120
  0
VERTEX
  8
0
  6
CONTINUOUS
 10
5.473160
 20
2.575760
  0
VERTEX
  8
0
  6
CONTINUOUS
 10
5.454240
 20
2.563880
  0
VERTEX
  8
0
  6
CONTINUOUS
 10
4.816680
 20
2.924240
  0
VERTEX
  8
0
  6
CONTINUOUS
 10
4.835160
 20
2.936120
  0
SEQEND
  8
0
  0
SOLID
  8
0
 62
    15
 10
4.956160
 20
2.852960
 11
5.594160
 21
2.492160
 12
4.899400
 22
2.883320
 13
5.537400
 23
2.522960
  0
POLYLINE
  8
0
  6
CONTINUOUS
 66
     1
 40
0.000000
 41
0.000000
  0
VERTEX
  8
0
  6
CONTINUOUS
 10
4.956160
 20
2.852960
  0
VERTEX
  8
0
  6
CONTINUOUS
 10
5.594160
 20
2.492160
  0
VERTEX
  8
0
  6
CONTINUOUS
 10
5.537400
 20
2.522960
  0
VERTEX
  8
0
  6
CONTINUOUS
 10
4.899400
 20
2.883320
  0
VERTEX
  8
0
  6
CONTINUOUS
 10
4.956160
 20
2.852960
  0
SEQEND
  8
0
  0
SOLID
  8
0
 62
    15
 10
5.006320
 20
2.840640
 11
5.643880
 21
2.480280
 12
4.956160
 22
2.852960
 13
5.594160
 23
2.492160
  0
POLYLINE
  8
0
  6
CONTINUOUS
 66
     1
 40
0.000000
 41
0.000000
  0
VERTEX
  8
0
  6
CONTINUOUS
 10
5.006320
 20
2.840640
  0
VERTEX
  8
0
  6
CONTINUOUS
 10
5.643880
 20
2.480280
  0
VERTEX
  8
0
  6
CONTINUOUS
 10
5.594160
 20
2.492160
  0
VERTEX
  8
0
  6
CONTINUOUS
 10
4.956160
 20
2.852960
  0
VERTEX
  8
0
  6
CONTINUOUS
 10
5.006320
 20
2.840640
  0
SEQEND
  8
0
  0
SOLID
  8
0
 62
    15
 10
4.816680
 20
2.924240
 11
5.454240
 21
2.563880
 12
4.826360
 22
2.863520
 13
5.464360
 23
2.502720
  0
POLYLINE
  8
0
  6
CONTINUOUS
 66
     1
 40
0.000000
 41
0.000000
  0
VERTEX
  8
0
  6
CONTINUOUS
 10
4.816680
 20
2.924240
  0
VERTEX
  8
0
  6
CONTINUOUS
 10
5.454240
 20
2.563880
  0
VERTEX
  8
0
  6
CONTINUOUS
 10
5.464360
 20
2.502720
  0
VERTEX
  8
0
  6
CONTINUOUS
 10
4.826360
 20
2.863520
  0
VERTEX
  8
0
  6
CONTINUOUS
 10
4.816680
 20
2.924240
  0
SEQEND
  8
0
  0
SOLID
  8
0
 62
    15
 10
4.826360
 20
2.863520
 11
5.464360
 21
2.502720
 12
4.816680
 22
2.805000
 13
5.454680
 23
2.444200
  0
POLYLINE
  8
0
  6
CONTINUOUS
 66
     1
 40
0.000000
 41
0.000000
  0
VERTEX
  8
0
  6
CONTINUOUS
 10
4.826360
 20
2.863520
  0
VERTEX
  8
0
  6
CONTINUOUS
 10
5.464360
 20
2.502720
  0
VERTEX
  8
0
  6
CONTINUOUS
 10
5.454680
 20
2.444200
  0
VERTEX
  8
0
  6
CONTINUOUS
 10
4.816680
 20
2.805000
  0
VERTEX
  8
0
  6
CONTINUOUS
 10
4.826360
 20
2.863520
  0
SEQEND
  8
0
  0
SOLID
  8
0
 62
    15
 10
4.816680
 20
2.805000
 11
5.454680
 21
2.444200
 12
4.790720
 22
2.753520
 13
5.428720
 23
2.393160
  0
POLYLINE
  8
0
  6
CONTINUOUS
 66
     1
 40
0.000000
 41
0.000000
  0
VERTEX
  8
0
  6
CONTINUOUS
 10
4.816680
 20
2.805000
  0
VERTEX
  8
0
  6
CONTINUOUS
 10
5.454680
 20
2.444200
  0
VERTEX
  8
0
  6
CONTINUOUS
 10
5.428720
 20
2.393160
  0
VERTEX
  8
0
  6
CONTINUOUS
 10
4.790720
 20
2.753520
  0
VERTEX
  8
0
  6
CONTINUOUS
 10
4.816680
 20
2.805000
  0
SEQEND
  8
0
  0
SOLID
  8
0
 62
    15
 10
4.790720
 20
2.753520
 11
5.428720
 21
2.393160
 12
4.751560
 22
2.714360
 13
5.389120
 23
2.353560
  0
POLYLINE
  8
0
  6
CONTINUOUS
 66
     1
 40
0.000000
 41
0.000000
  0
VERTEX
  8
0
  6
CONTINUOUS
 10
4.790720
 20
2.753520
  0
VERTEX
  8
0
  6
CONTINUOUS
 10
5.428720
 20
2.393160
  0
VERTEX
  8
0
  6
CONTINUOUS
 10
5.389120
 20
2.353560
  0
VERTEX
  8
0
  6
CONTINUOUS
 10
4.751560
 20
2.714360
  0
VERTEX
  8
0
  6
CONTINUOUS
 10
4.790720
 20
2.753520
  0
SEQEND
  8
0
  0
SOLID
  8
0
 62
    15
 10
4.751560
 20
2.714360
 11
5.389120
 21
2.353560
 12
4.701840
 22
2.691480
 13
5.339840
 23
2.331120
  0
POLYLINE
  8
0
  6
CONTINUOUS
 66
     1
 40
0.000000
 41
0.000000
  0
VERTEX
  8
0
  6
CONTINUOUS
 10
4.751560
 20
2.714360
  0
VERTEX
  8
0
  6
CONTINUOUS
 10
5.389120
 20
2.353560
  0
VERTEX
  8
0
  6
CONTINUOUS
 10
5.339840
 20
2.331120
  0
VERTEX
  8
0
  6
CONTINUOUS
 10
4.701840
 20
2.691480
  0
VERTEX
  8
0
  6
CONTINUOUS
 10
4.751560
 20
2.714360
  0
SEQEND
  8
0
  0
SOLID
  8
0
 62
    15
 10
4.701840
 20
2.691480
 11
5.339840
 21
2.331120
 12
4.645080
 22
2.691040
 13
5.282640
 23
2.330240
  0
POLYLINE
  8
0
  6
CONTINUOUS
 66
     1
 40
0.000000
 41
0.000000
  0
VERTEX
  8
0
  6
CONTINUOUS
 10
4.701840
 20
2.691480
  0
VERTEX
  8
0
  6
CONTINUOUS
 10
5.339840
 20
2.331120
  0
VERTEX
  8
0
  6
CONTINUOUS
 10
5.282640
 20
2.330240
  0
VERTEX
  8
0
  6
CONTINUOUS
 10
4.645080
 20
2.691040
  0
VERTEX
  8
0
  6
CONTINUOUS
 10
4.701840
 20
2.691480
  0
SEQEND
  8
0
  0
SOLID
  8
0
 62
    15
 10
5.866960
 20
3.399880
 11
6.504520
 21
3.039080
 12
5.808880
 22
3.406480
 13
6.446440
 23
3.046120
  0
POLYLINE
  8
0
  6
CONTINUOUS
 66
     1
 40
0.000000
 41
0.000000
  0
VERTEX
  8
0
  6
CONTINUOUS
 10
5.866960
 20
3.399880
  0
VERTEX
  8
0
  6
CONTINUOUS
 10
6.504520
 20
3.039080
  0
VERTEX
  8
0
  6
CONTINUOUS
 10
6.446440
 20
3.046120
  0
VERTEX
  8
0
  6
CONTINUOUS
 10
5.808880
 20
3.406480
  0
VERTEX
  8
0
  6
CONTINUOUS
 10
5.866960
 20
3.399880
  0
SEQEND
  8
0
  0
SOLID
  8
0
 62
    15
 10
4.645080
 20
2.691040
 11
5.282640
 21
2.330240
 12
4.583920
 22
2.716560
 13
5.221920
 23
2.355760
  0
POLYLINE
  8
0
  6
CONTINUOUS
 66
     1
 40
0.000000
 41
0.000000
  0
VERTEX
  8
0
  6
CONTINUOUS
 10
4.645080
 20
2.691040
  0
VERTEX
  8
0
  6
CONTINUOUS
 10
5.282640
 20
2.330240
  0
VERTEX
  8
0
  6
CONTINUOUS
 10
5.221920
 20
2.355760
  0
VERTEX
  8
0
  6
CONTINUOUS
 10
4.583920
 20
2.716560
  0
VERTEX
  8
0
  6
CONTINUOUS
 10
4.645080
 20
2.691040
  0
SEQEND
  8
0
  0
SOLID
  8
0
 62
    15
 10
4.356880
 20
2.702920
 11
4.994440
 21
2.342120
 12
4.227520
 22
2.626360
 13
4.865520
 23
2.265560
  0
POLYLINE
  8
0
  6
CONTINUOUS
 66
     1
 40
0.000000
 41
0.000000
  0
VERTEX
  8
0
  6
CONTINUOUS
 10
4.356880
 20
2.702920
  0
VERTEX
  8
0
  6
CONTINUOUS
 10
4.994440
 20
2.342120
  0
VERTEX
  8
0
  6
CONTINUOUS
 10
4.865520
 20
2.265560
  0
VERTEX
  8
0
  6
CONTINUOUS
 10
4.227520
 20
2.626360
  0
VERTEX
  8
0
  6
CONTINUOUS
 10
4.356880
 20
2.702920
  0
SEQEND
  8
0
  0
SOLID
  8
0
 62
    15
 10
4.227520
 20
2.626360
 11
4.865520
 21
2.265560
 12
4.130720
 22
2.545840
 13
4.768280
 23
2.185480
  0
POLYLINE
  8
0
  6
CONTINUOUS
 66
     1
 40
0.000000
 41
0.000000
  0
VERTEX
  8
0
  6
CONTINUOUS
 10
4.227520
 20
2.626360
  0
VERTEX
  8
0
  6
CONTINUOUS
 10
4.865520
 20
2.265560
  0
VERTEX
  8
0
  6
CONTINUOUS
 10
4.768280
 20
2.185480
  0
VERTEX
  8
0
  6
CONTINUOUS
 10
4.130720
 20
2.545840
  0
VERTEX
  8
0
  6
CONTINUOUS
 10
4.227520
 20
2.626360
  0
SEQEND
  8
0
  0
SOLID
  8
0
 62
    15
 10
4.130720
 20
2.545840
 11
4.768280
 21
2.185480
 12
4.061200
 22
2.463560
 13
4.698760
 23
2.103200
  0
POLYLINE
  8
0
  6
CONTINUOUS
 66
     1
 40
0.000000
 41
0.000000
  0
VERTEX
  8
0
  6
CONTINUOUS
 10
4.130720
 20
2.545840
  0
VERTEX
  8
0
  6
CONTINUOUS
 10
4.768280
 20
2.185480
  0
VERTEX
  8
0
  6
CONTINUOUS
 10
4.698760
 20
2.103200
  0
VERTEX
  8
0
  6
CONTINUOUS
 10
4.061200
 20
2.463560
  0
VERTEX
  8
0
  6
CONTINUOUS
 10
4.130720
 20
2.545840
  0
SEQEND
  8
0
  0
SOLID
  8
0
 62
    15
 10
4.061200
 20
2.463560
 11
4.698760
 21
2.103200
 12
4.015880
 22
2.381720
 13
4.653440
 23
2.020920
  0
POLYLINE
  8
0
  6
CONTINUOUS
 66
     1
 40
0.000000
 41
0.000000
  0
VERTEX
  8
0
  6
CONTINUOUS
 10
4.061200
 20
2.463560
  0
VERTEX
  8
0
  6
CONTINUOUS
 10
4.698760
 20
2.103200
  0
VERTEX
  8
0
  6
CONTINUOUS
 10
4.653440
 20
2.020920
  0
VERTEX
  8
0
  6
CONTINUOUS
 10
4.015880
 20
2.381720
  0
VERTEX
  8
0
  6
CONTINUOUS
 10
4.061200
 20
2.463560
  0
SEQEND
  8
0
  0
SOLID
  8
0
 62
    15
 10
4.015880
 20
2.381720
 11
4.653440
 21
2.020920
 12
3.989920
 22
2.301640
 13
4.627920
 23
1.941280
  0
POLYLINE
  8
0
  6
CONTINUOUS
 66
     1
 40
0.000000
 41
0.000000
  0
VERTEX
  8
0
  6
CONTINUOUS
 10
4.015880
 20
2.381720
  0
VERTEX
  8
0
  6
CONTINUOUS
 10
4.653440
 20
2.020920
  0
VERTEX
  8
0
  6
CONTINUOUS
 10
4.627920
 20
1.941280
  0
VERTEX
  8
0
  6
CONTINUOUS
 10
3.989920
 20
2.301640
  0
VERTEX
  8
0
  6
CONTINUOUS
 10
4.015880
 20
2.381720
  0
SEQEND
  8
0
  0
SOLID
  8
0
 62
    15
 10
3.989920
 20
2.301640
 11
4.627920
 21
1.941280
 12
3.980240
 22
2.225960
 13
4.618240
 23
1.865600
  0
POLYLINE
  8
0
  6
CONTINUOUS
 66
     1
 40
0.000000
 41
0.000000
  0
VERTEX
  8
0
  6
CONTINUOUS
 10
3.989920
 20
2.301640
  0
VERTEX
  8
0
  6
CONTINUOUS
 10
4.627920
 20
1.941280
  0
VERTEX
  8
0
  6
CONTINUOUS
 10
4.618240
 20
1.865600
  0
VERTEX
  8
0
  6
CONTINUOUS
 10
3.980240
 20
2.225960
  0
VERTEX
  8
0
  6
CONTINUOUS
 10
3.989920
 20
2.301640
  0
SEQEND
  8
0
  0
SOLID
  8
0
 62
    15
 10
3.980240
 20
2.225960
 11
4.618240
 21
1.865600
 12
3.982440
 22
2.156440
 13
4.620440
 23
1.795640
  0
POLYLINE
  8
0
  6
CONTINUOUS
 66
     1
 40
0.000000
 41
0.000000
  0
VERTEX
  8
0
  6
CONTINUOUS
 10
3.980240
 20
2.225960
  0
VERTEX
  8
0
  6
CONTINUOUS
 10
4.618240
 20
1.865600
  0
VERTEX
  8
0
  6
CONTINUOUS
 10
4.620440
 20
1.795640
  0
VERTEX
  8
0
  6
CONTINUOUS
 10
3.982440
 20
2.156440
  0
VERTEX
  8
0
  6
CONTINUOUS
 10
3.980240
 20
2.225960
  0
SEQEND
  8
0
  0
SOLID
  8
0
 62
    15
 10
3.982440
 20
2.156440
 11
4.620440
 21
1.795640
 12
3.827120
 22
2.157760
 13
4.464680
 23
1.797400
  0
POLYLINE
  8
0
  6
CONTINUOUS
 66
     1
 40
0.000000
 41
0.000000
  0
VERTEX
  8
0
  6
CONTINUOUS
 10
3.982440
 20
2.156440
  0
VERTEX
  8
0
  6
CONTINUOUS
 10
4.620440
 20
1.795640
  0
VERTEX
  8
0
  6
CONTINUOUS
 10
4.464680
 20
1.797400
  0
VERTEX
  8
0
  6
CONTINUOUS
 10
3.827120
 20
2.157760
  0
VERTEX
  8
0
  6
CONTINUOUS
 10
3.982440
 20
2.156440
  0
SEQEND
  8
0
  0
SOLID
  8
0
 62
    15
 10
3.827120
 20
2.157760
 11
4.464680
 21
1.797400
 12
3.767720
 22
1.992760
 13
4.405280
 23
1.631960
  0
POLYLINE
  8
0
  6
CONTINUOUS
 66
     1
 40
0.000000
 41
0.000000
  0
VERTEX
  8
0
  6
CONTINUOUS
 10
3.827120
 20
2.157760
  0
VERTEX
  8
0
  6
CONTINUOUS
 10
4.464680
 20
1.797400
  0
VERTEX
  8
0
  6
CONTINUOUS
 10
4.405280
 20
1.631960
  0
VERTEX
  8
0
  6
CONTINUOUS
 10
3.767720
 20
1.992760
  0
VERTEX
  8
0
  6
CONTINUOUS
 10
3.827120
 20
2.157760
  0
SEQEND
  8
0
  0
SOLID
  8
0
 62
    15
 10
3.767720
 20
1.992760
 11
4.405280
 21
1.631960
 12
3.682360
 22
1.838760
 13
4.320360
 23
1.477960
  0
POLYLINE
  8
0
  6
CONTINUOUS
 66
     1
 40
0.000000
 41
0.000000
  0
VERTEX
  8
0
  6
CONTINUOUS
 10
3.767720
 20
1.992760
  0
VERTEX
  8
0
  6
CONTINUOUS
 10
4.405280
 20
1.631960
  0
VERTEX
  8
0
  6
CONTINUOUS
 10
4.320360
 20
1.477960
  0
VERTEX
  8
0
  6
CONTINUOUS
 10
3.682360
 20
1.838760
  0
VERTEX
  8
0
  6
CONTINUOUS
 10
3.767720
 20
1.992760
  0
SEQEND
  8
0
  0
SOLID
  8
0
 62
    15
 10
3.682360
 20
1.838760
 11
4.320360
 21
1.477960
 12
3.574560
 22
1.697960
 13
4.212120
 23
1.337160
  0
POLYLINE
  8
0
  6
CONTINUOUS
 66
     1
 40
0.000000
 41
0.000000
  0
VERTEX
  8
0
  6
CONTINUOUS
 10
3.682360
 20
1.838760
  0
VERTEX
  8
0
  6
CONTINUOUS
 10
4.320360
 20
1.477960
  0
VERTEX
  8
0
  6
CONTINUOUS
 10
4.212120
 20
1.337160
  0
VERTEX
  8
0
  6
CONTINUOUS
 10
3.574560
 20
1.697960
  0
VERTEX
  8
0
  6
CONTINUOUS
 10
3.682360
 20
1.838760
  0
SEQEND
  8
0
  0
SOLID
  8
0
 62
    15
 10
3.574560
 20
1.697960
 11
4.212120
 21
1.337160
 12
3.446080
 22
1.573000
 13
4.084080
 23
1.212640
  0
POLYLINE
  8
0
  6
CONTINUOUS
 66
     1
 40
0.000000
 41
0.000000
  0
VERTEX
  8
0
  6
CONTINUOUS
 10
3.574560
 20
1.697960
  0
VERTEX
  8
0
  6
CONTINUOUS
 10
4.212120
 20
1.337160
  0
VERTEX
  8
0
  6
CONTINUOUS
 10
4.084080
 20
1.212640
  0
VERTEX
  8
0
  6
CONTINUOUS
 10
3.446080
 20
1.573000
  0
VERTEX
  8
0
  6
CONTINUOUS
 10
3.574560
 20
1.697960
  0
SEQEND
  8
0
  0
SOLID
  8
0
 62
    15
 10
3.446080
 20
1.573000
 11
4.084080
 21
1.212640
 12
3.300440
 22
1.466520
 13
3.938000
 23
1.106160
  0
POLYLINE
  8
0
  6
CONTINUOUS
 66
     1
 40
0.000000
 41
0.000000
  0
VERTEX
  8
0
  6
CONTINUOUS
 10
3.446080
 20
1.573000
  0
VERTEX
  8
0
  6
CONTINUOUS
 10
4.084080
 20
1.212640
  0
VERTEX
  8
0
  6
CONTINUOUS
 10
3.938000
 20
1.106160
  0
VERTEX
  8
0
  6
CONTINUOUS
 10
3.300440
 20
1.466520
  0
VERTEX
  8
0
  6
CONTINUOUS
 10
3.446080
 20
1.573000
  0
SEQEND
  8
0
  0
SOLID
  8
0
 62
    15
 10
3.300440
 20
1.466520
 11
3.938000
 21
1.106160
 12
3.139400
 22
1.381160
 13
3.777400
 23
1.020360
  0
POLYLINE
  8
0
  6
CONTINUOUS
 66
     1
 40
0.000000
 41
0.000000
  0
VERTEX
  8
0
  6
CONTINUOUS
 10
3.300440
 20
1.466520
  0
VERTEX
  8
0
  6
CONTINUOUS
 10
3.938000
 20
1.106160
  0
VERTEX
  8
0
  6
CONTINUOUS
 10
3.777400
 20
1.020360
  0
VERTEX
  8
0
  6
CONTINUOUS
 10
3.139400
 20
1.381160
  0
VERTEX
  8
0
  6
CONTINUOUS
 10
3.300440
 20
1.466520
  0
SEQEND
  8
0
  0
SOLID
  8
0
 62
    15
 10
3.139400
 20
1.381160
 11
3.777400
 21
1.020360
 12
2.966480
 22
1.318680
 13
3.604480
 23
0.958320
  0
POLYLINE
  8
0
  6
CONTINUOUS
 66
     1
 40
0.000000
 41
0.000000
  0
VERTEX
  8
0
  6
CONTINUOUS
 10
3.139400
 20
1.381160
  0
VERTEX
  8
0
  6
CONTINUOUS
 10
3.777400
 20
1.020360
  0
VERTEX
  8
0
  6
CONTINUOUS
 10
3.604480
 20
0.958320
  0
VERTEX
  8
0
  6
CONTINUOUS
 10
2.966480
 20
1.318680
  0
VERTEX
  8
0
  6
CONTINUOUS
 10
3.139400
 20
1.381160
  0
SEQEND
  8
0
  0
SOLID
  8
0
 62
    15
 10
2.966480
 20
1.318680
 11
3.604480
 21
0.958320
 12
2.783880
 22
1.282600
 13
3.421440
 23
0.922240
  0
POLYLINE
  8
0
  6
CONTINUOUS
 66
     1
 40
0.000000
 41
0.000000
  0
VERTEX
  8
0
  6
CONTINUOUS
 10
2.966480
 20
1.318680
  0
VERTEX
  8
0
  6
CONTINUOUS
 10
3.604480
 20
0.958320
  0
VERTEX
  8
0
  6
CONTINUOUS
 10
3.421440
 20
0.922240
  0
VERTEX
  8
0
  6
CONTINUOUS
 10
2.783880
 20
1.282600
  0
VERTEX
  8
0
  6
CONTINUOUS
 10
2.966480
 20
1.318680
  0
SEQEND
  8
0
  0
SOLID
  8
0
 62
    15
 10
2.783880
 20
1.282600
 11
3.421440
 21
0.922240
 12
2.773760
 22
1.090760
 13
3.411320
 23
0.729960
  0
POLYLINE
  8
0
  6
CONTINUOUS
 66
     1
 40
0.000000
 41
0.000000
  0
VERTEX
  8
0
  6
CONTINUOUS
 10
2.783880
 20
1.282600
  0
VERTEX
  8
0
  6
CONTINUOUS
 10
3.421440
 20
0.922240
  0
VERTEX
  8
0
  6
CONTINUOUS
 10
3.411320
 20
0.729960
  0
VERTEX
  8
0
  6
CONTINUOUS
 10
2.773760
 20
1.090760
  0
VERTEX
  8
0
  6
CONTINUOUS
 10
2.783880
 20
1.282600
  0
SEQEND
  8
0
  0
SOLID
  8
0
 62
    15
 10
2.773760
 20
1.090760
 11
3.411320
 21
0.729960
 12
2.649680
 22
1.092080
 13
3.287240
 23
0.731720
  0
POLYLINE
  8
0
  6
CONTINUOUS
 66
     1
 40
0.000000
 41
0.000000
  0
VERTEX
  8
0
  6
CONTINUOUS
 10
2.773760
 20
1.090760
  0
VERTEX
  8
0
  6
CONTINUOUS
 10
3.411320
 20
0.729960
  0
VERTEX
  8
0
  6
CONTINUOUS
 10
3.287240
 20
0.731720
  0
VERTEX
  8
0
  6
CONTINUOUS
 10
2.649680
 20
1.092080
  0
VERTEX
  8
0
  6
CONTINUOUS
 10
2.773760
 20
1.090760
  0
SEQEND
  8
0
  0
SOLID
  8
0
 62
    15
 10
2.649680
 20
1.092080
 11
3.287240
 21
0.731720
 12
2.637800
 22
0.982080
 13
3.275360
 23
0.621720
  0
POLYLINE
  8
0
  6
CONTINUOUS
 66
     1
 40
0.000000
 41
0.000000
  0
VERTEX
  8
0
  6
CONTINUOUS
 10
2.649680
 20
1.092080
  0
VERTEX
  8
0
  6
CONTINUOUS
 10
3.287240
 20
0.731720
  0
VERTEX
  8
0
  6
CONTINUOUS
 10
3.275360
 20
0.621720
  0
VERTEX
  8
0
  6
CONTINUOUS
 10
2.637800
 20
0.982080
  0
VERTEX
  8
0
  6
CONTINUOUS
 10
2.649680
 20
1.092080
  0
SEQEND
  8
0
  0
SOLID
  8
0
 62
    15
 10
2.637800
 20
0.982080
 11
3.275360
 21
0.621720
 12
2.268640
 22
0.981640
 13
2.906640
 23
0.621280
  0
POLYLINE
  8
0
  6
CONTINUOUS
 66
     1
 40
0.000000
 41
0.000000
  0
VERTEX
  8
0
  6
CONTINUOUS
 10
2.637800
 20
0.982080
  0
VERTEX
  8
0
  6
CONTINUOUS
 10
3.275360
 20
0.621720
  0
VERTEX
  8
0
  6
CONTINUOUS
 10
2.906640
 20
0.621280
  0
VERTEX
  8
0
  6
CONTINUOUS
 10
2.268640
 20
0.981640
  0
VERTEX
  8
0
  6
CONTINUOUS
 10
2.637800
 20
0.982080
  0
SEQEND
  8
0
  0
SOLID
  8
0
 62
    15
 10
5.869160
 20
3.653320
 11
6.507160
 21
3.292960
 12
5.866960
 22
3.399880
 13
6.504520
 23
3.039080
  0
POLYLINE
  8
0
  6
CONTINUOUS
 66
     1
 40
0.000000
 41
0.000000
  0
VERTEX
  8
0
  6
CONTINUOUS
 10
5.869160
 20
3.653320
  0
VERTEX
  8
0
  6
CONTINUOUS
 10
6.507160
 20
3.292960
  0
VERTEX
  8
0
  6
CONTINUOUS
 10
6.504520
 20
3.039080
  0
VERTEX
  8
0
  6
CONTINUOUS
 10
5.866960
 20
3.399880
  0
VERTEX
  8
0
  6
CONTINUOUS
 10
5.869160
 20
3.653320
  0
SEQEND
  8
0
  0
POLYLINE
  8
0
  6
CONTINUOUS
 66
     1
 40
0.000000
 41
0.000000
  0
VERTEX
  8
0
  6
CONTINUOUS
 10
5.866960
 20
3.399880
  0
VERTEX
  8
0
  6
CONTINUOUS
 10
5.808880
 20
3.406480
  0
VERTEX
  8
0
  6
CONTINUOUS
 10
5.758280
 20
3.401200
  0
VERTEX
  8
0
  6
CONTINUOUS
 10
5.682160
 20
3.362040
  0
VERTEX
  8
0
  6
CONTINUOUS
 10
5.641240
 20
3.296040
  0
VERTEX
  8
0
  6
CONTINUOUS
 10
5.636840
 20
3.218600
  0
VERTEX
  8
0
  6
CONTINUOUS
 10
5.475800
 20
3.208040
  0
VERTEX
  8
0
  6
CONTINUOUS
 10
5.482400
 20
3.115200
  0
VERTEX
  8
0
  6
CONTINUOUS
 10
5.394400
 20
3.089240
  0
VERTEX
  8
0
  6
CONTINUOUS
 10
5.310800
 20
3.046560
  0
VERTEX
  8
0
  6
CONTINUOUS
 10
5.236880
 20
2.994200
  0
VERTEX
  8
0
  6
CONTINUOUS
 10
5.122040
 20
2.882000
  0
VERTEX
  8
0
  6
CONTINUOUS
 10
5.049880
 20
2.844160
  0
VERTEX
  8
0
  6
CONTINUOUS
 10
5.006320
 20
2.840640
  0
VERTEX
  8
0
  6
CONTINUOUS
 10
4.956160
 20
2.852960
  0
VERTEX
  8
0
  6
CONTINUOUS
 10
4.899400
 20
2.883320
  0
VERTEX
  8
0
  6
CONTINUOUS
 10
4.835160
 20
2.936120
  0
VERTEX
  8
0
  6
CONTINUOUS
 10
4.816680
 20
2.924240
  0
VERTEX
  8
0
  6
CONTINUOUS
 10
4.826360
 20
2.863520
  0
VERTEX
  8
0
  6
CONTINUOUS
 10
4.816680
 20
2.805000
  0
VERTEX
  8
0
  6
CONTINUOUS
 10
4.790720
 20
2.753520
  0
VERTEX
  8
0
  6
CONTINUOUS
 10
4.751560
 20
2.714360
  0
VERTEX
  8
0
  6
CONTINUOUS
 10
4.701840
 20
2.691480
  0
VERTEX
  8
0
  6
CONTINUOUS
 10
4.645080
 20
2.691040
  0
VERTEX
  8
0
  6
CONTINUOUS
 10
4.583920
 20
2.716560
  0
VERTEX
  8
0
  6
CONTINUOUS
 10
4.521440
 20
2.773760
  0
VERTEX
  8
0
  6
CONTINUOUS
 10
4.356880
 20
2.702920
  0
VERTEX
  8
0
  6
CONTINUOUS
 10
4.227520
 20
2.626360
  0
VERTEX
  8
0
  6
CONTINUOUS
 10
4.130720
 20
2.545840
  0
VERTEX
  8
0
  6
CONTINUOUS
 10
4.061200
 20
2.463560
  0
VERTEX
  8
0
  6
CONTINUOUS
 10
4.015880
 20
2.381720
  0
VERTEX
  8
0
  6
CONTINUOUS
 10
3.989920
 20
2.301640
  0
VERTEX
  8
0
  6
CONTINUOUS
 10
3.980240
 20
2.225960
  0
VERTEX
  8
0
  6
CONTINUOUS
 10
3.982440
 20
2.156440
  0
VERTEX
  8
0
  6
CONTINUOUS
 10
3.827120
 20
2.157760
  0
VERTEX
  8
0
  6
CONTINUOUS
 10
3.767720
 20
1.992760
  0
VERTEX
  8
0
  6
CONTINUOUS
 10
3.682360
 20
1.838760
  0
VERTEX
  8
0
  6
CONTINUOUS
 10
3.574560
 20
1.697960
  0
VERTEX
  8
0
  6
CONTINUOUS
 10
3.446080
 20
1.573000
  0
VERTEX
  8
0
  6
CONTINUOUS
 10
3.300440
 20
1.466520
  0
VERTEX
  8
0
  6
CONTINUOUS
 10
3.139400
 20
1.381160
  0
VERTEX
  8
0
  6
CONTINUOUS
 10
2.966480
 20
1.318680
  0
VERTEX
  8
0
  6
CONTINUOUS
 10
2.783880
 20
1.282600
  0
VERTEX
  8
0
  6
CONTINUOUS
 10
2.773760
 20
1.090760
  0
VERTEX
  8
0
  6
CONTINUOUS
 10
2.649680
 20
1.092080
  0
VERTEX
  8
0
  6
CONTINUOUS
 10
2.637800
 20
0.982080
  0
VERTEX
  8
0
  6
CONTINUOUS
 10
2.268640
 20
0.981640
  0
VERTEX
  8
0
  6
CONTINUOUS
 10
2.301200
 20
1.786840
  0
VERTEX
  8
0
  6
CONTINUOUS
 10
4.778400
 20
3.632640
  0
VERTEX
  8
0
  6
CONTINUOUS
 10
5.869160
 20
3.653320
  0
VERTEX
  8
0
  6
CONTINUOUS
 10
5.866960
 20
3.399880
  0
SEQEND
  8
0
  0
ENDSEC
  0
EOF
