  0
SECTION
  2
HEADER
  9
$ACADVER
  1
AC1006
  9
$EXTMIN
 10
1.273800
 20
0.894520
  9
$EXTMAX
 10
7.691200
 20
7.649400
  9
$LTSCALE
 40
0.044000
  9
$PDMODE
 70
    35
  9
$PDSIZE
 40
0.035200
  0
ENDSEC
  0
SECTION
  2
TABLES
  0
TABLE
  2
LTYPE
 70
     9
  0
LTYPE
  2
CONTINUOUS
 70
    64
  3
Solid line
 72
    65
 73
     0
 40
0.000000
  0
LTYPE
  2
DASHED
 70
    64
  3
__ __ __ __ __ __ __ __ __ __ __ __ __ __ __
 72
    65
 73
     2
 40
0.000330
 49
0.000220
 49
-0.000110
  0
LTYPE
  2
HIDDEN
 70
    64
  3
 _ _ _ _ _ _ _ _ _ _ _ _ _ _ _ _ _ _ _ _ _ _
 72
    65
 73
     2
 40
0.000165
 49
0.000110
 49
-0.000055
  0
LTYPE
  2
CENTER
 70
    64
  3
____ _ ____ _ ____ _ ____ _ ____ _ ____ _ ____
 72
    65
 73
     4
 40
0.000880
 49
0.000550
 49
-0.000110
 49
0.000110
 49
-0.000110
  0
LTYPE
  2
PHANTOM
 70
    64
  3
_____ _ _ _____ _ _ _____ _ _ _____ _ _ ____
 72
    65
 73
     6
 40
0.001100
 49
0.000550
 49
-0.000110
 49
0.000110
 49
-0.000110
 49
0.000110
 49
-0.000110
  0
LTYPE
  2
DOT
 70
    64
  3
...............................................
 72
    65
 73
     2
 40
0.000110
 49
0.000000
 49
-0.000110
  0
LTYPE
  2
DASHDOT
 70
    64
  3
__ . __ . __ . __ . __ . __ . __ . __ . __ . __
 72
    65
 73
     4
 40
0.000440
 49
0.000220
 49
-0.000110
 49
0.000000
 49
-0.000110
  0
LTYPE
  2
BORDER
 70
    64
  3
__ __ . __ __ . __ __ . __ __ . __ __ . __ __
 72
    65
 73
     6
 40
0.000770
 49
0.000220
 49
-0.000110
 49
0.000220
 49
-0.000110
 49
0.000000
 49
-0.000110
  0
LTYPE
  2
DIVIDE
 70
    64
  3
__ . . __ . . __ . . __ . . __ . . __ . . __
 72
    65
 73
     6
 40
0.000550
 49
0.000220
 49
-0.000110
 49
0.000000
 49
-0.000110
 49
0.000000
 49
-0.000110
  0
LTYPE
  2
DOTDOT
 70
    64
  3
 . .  . .  . .  . .  . .  . . 
 72
    65
 73
     5
 40
0.000242
 49
-0.000110
 49
0.000000
 49
-0.000110
 49
0.000000
 49
-0.000110
  0
ENDTAB
  0
TABLE
  2
STYLE
 70
     2
  0
STYLE
 70
     0
  2
SN0
 40
0.000000
 41
0.000440
 50
0.000000
 71
     0
 42
0.000000
  3
ROMAND
  0
STYLE
 70
    68
  2
SV0
 40
0.000000
 41
0.000440
 50
0.000000
 71
     0
 42
0.000000
  3
ROMAND
  0
ENDTAB
  0
TABLE
  2
LAYER
 70
     3
  0
LAYER
  2
FOREGROUND
 70
    64
 62
     7
  6
CONTINUOUS
  0
LAYER
  2
BACKGROUND
 70
    65
 62
    -7
  6
CONTINUOUS
  0
LAYER
  2
0
 70
    64
 62
     7
  6
CONTINUOUS
  0
ENDTAB
  0
ENDSEC
  0
SECTION
  2
ENTITIES
  0
POLYLINE
  8
FOREGROUND
  6
CONTINUOUS
 66
     1
 40
0.000000
 41
0.000000
  0
VERTEX
  8
FOREGROUND
  6
CONTINUOUS
 10
0.000000
 20
8.543920
  0
VERTEX
  8
FOREGROUND
  6
CONTINUOUS
 10
8.499920
 20
8.543920
  0
VERTEX
  8
FOREGROUND
  6
CONTINUOUS
 10
8.499920
 20
-2.456080
  0
VERTEX
  8
FOREGROUND
  6
CONTINUOUS
 10
0.000000
 20
-2.456080
  0
VERTEX
  8
FOREGROUND
  6
CONTINUOUS
 10
0.000000
 20
8.543920
  0
SEQEND
  8
0
  0
POLYLINE
  8
FOREGROUND
  6
CONTINUOUS
 66
     1
 40
0.000000
 41
0.000000
  0
VERTEX
  8
FOREGROUND
  6
CONTINUOUS
 10
0.000000
 20
8.543920
  0
VERTEX
  8
FOREGROUND
  6
CONTINUOUS
 10
8.499920
 20
8.543920
  0
VERTEX
  8
FOREGROUND
  6
CONTINUOUS
 10
8.499920
 20
-2.456080
  0
VERTEX
  8
FOREGROUND
  6
CONTINUOUS
 10
0.000000
 20
-2.456080
  0
VERTEX
  8
FOREGROUND
  6
CONTINUOUS
 10
0.000000
 20
8.543920
  0
SEQEND
  8
0
  0
POLYLINE
  8
0
  6
CONTINUOUS
 66
     1
 40
0.000000
 41
0.000000
  0
VERTEX
  8
0
  6
CONTINUOUS
 10
7.690760
 20
1.512280
  0
VERTEX
  8
0
  6
CONTINUOUS
 10
7.111720
 20
1.981320
  0
VERTEX
  8
0
  6
CONTINUOUS
 10
6.637400
 20
1.317360
  0
VERTEX
  8
0
  6
CONTINUOUS
 10
6.128320
 20
1.741960
  0
VERTEX
  8
0
  6
CONTINUOUS
 10
6.059680
 20
1.690480
  0
VERTEX
  8
0
  6
CONTINUOUS
 10
5.991480
 20
1.645600
  0
VERTEX
  8
0
  6
CONTINUOUS
 10
5.924600
 20
1.606880
  0
VERTEX
  8
0
  6
CONTINUOUS
 10
5.858160
 20
1.574320
  0
VERTEX
  8
0
  6
CONTINUOUS
 10
5.814160
 20
1.555840
  0
VERTEX
  8
0
  6
CONTINUOUS
 10
5.770600
 20
1.540000
  0
VERTEX
  8
0
  6
CONTINUOUS
 10
5.727040
 20
1.526360
  0
VERTEX
  8
0
  6
CONTINUOUS
 10
5.683920
 20
1.514920
  0
VERTEX
  8
0
  6
CONTINUOUS
 10
5.641240
 20
1.505680
  0
VERTEX
  8
0
  6
CONTINUOUS
 10
5.598120
 20
1.499080
  0
VERTEX
  8
0
  6
CONTINUOUS
 10
5.555880
 20
1.494240
  0
VERTEX
  8
0
  6
CONTINUOUS
 10
5.513200
 20
1.491600
  0
VERTEX
  8
0
  6
CONTINUOUS
 10
5.470960
 20
1.490720
  0
VERTEX
  8
0
  6
CONTINUOUS
 10
5.429160
 20
1.491600
  0
VERTEX
  8
0
  6
CONTINUOUS
 10
5.345120
 20
1.499080
  0
VERTEX
  8
0
  6
CONTINUOUS
 10
5.261520
 20
1.513160
  0
VERTEX
  8
0
  6
CONTINUOUS
 10
5.219720
 20
1.522400
  0
VERTEX
  8
0
  6
CONTINUOUS
 10
5.136120
 20
1.545280
  0
VERTEX
  8
0
  6
CONTINUOUS
 10
5.010720
 20
1.588840
  0
VERTEX
  8
0
  6
CONTINUOUS
 10
4.884880
 20
1.641640
  0
VERTEX
  8
0
  6
CONTINUOUS
 10
4.673240
 20
1.741080
  0
VERTEX
  8
0
  6
CONTINUOUS
 10
4.590520
 20
1.774520
  0
VERTEX
  8
0
  6
CONTINUOUS
 10
4.509120
 20
1.801800
  0
VERTEX
  8
0
  6
CONTINUOUS
 10
4.469080
 20
1.813240
  0
VERTEX
  8
0
  6
CONTINUOUS
 10
4.389880
 20
1.830840
  0
VERTEX
  8
0
  6
CONTINUOUS
 10
4.350720
 20
1.837440
  0
VERTEX
  8
0
  6
CONTINUOUS
 10
4.274160
 20
1.845800
  0
VERTEX
  8
0
  6
CONTINUOUS
 10
4.198920
 20
1.847120
  0
VERTEX
  8
0
  6
CONTINUOUS
 10
4.161520
 20
1.845360
  0
VERTEX
  8
0
  6
CONTINUOUS
 10
4.125000
 20
1.841840
  0
VERTEX
  8
0
  6
CONTINUOUS
 10
4.088480
 20
1.836560
  0
VERTEX
  8
0
  6
CONTINUOUS
 10
4.017200
 20
1.820280
  0
VERTEX
  8
0
  6
CONTINUOUS
 10
3.982000
 20
1.809720
  0
VERTEX
  8
0
  6
CONTINUOUS
 10
3.912480
 20
1.782880
  0
VERTEX
  8
0
  6
CONTINUOUS
 10
3.878600
 20
1.766600
  0
VERTEX
  8
0
  6
CONTINUOUS
 10
3.811720
 20
1.728320
  0
VERTEX
  8
0
  6
CONTINUOUS
 10
3.746160
 20
1.682120
  0
VERTEX
  8
0
  6
CONTINUOUS
 10
3.714040
 20
1.656160
  0
VERTEX
  8
0
  6
CONTINUOUS
 10
3.651120
 20
1.598080
  0
VERTEX
  8
0
  6
CONTINUOUS
 10
3.589520
 20
1.532080
  0
VERTEX
  8
0
  6
CONTINUOUS
 10
3.357200
 20
1.727000
  0
VERTEX
  8
0
  6
CONTINUOUS
 10
3.322880
 20
1.696200
  0
VERTEX
  8
0
  6
CONTINUOUS
 10
3.267440
 20
1.653960
  0
VERTEX
  8
0
  6
CONTINUOUS
 10
3.206720
 20
1.617880
  0
VERTEX
  8
0
  6
CONTINUOUS
 10
3.164480
 20
1.597640
  0
VERTEX
  8
0
  6
CONTINUOUS
 10
3.120480
 20
1.580920
  0
VERTEX
  8
0
  6
CONTINUOUS
 10
3.074720
 20
1.567720
  0
VERTEX
  8
0
  6
CONTINUOUS
 10
3.028080
 20
1.558480
  0
VERTEX
  8
0
  6
CONTINUOUS
 10
2.980120
 20
1.553640
  0
VERTEX
  8
0
  6
CONTINUOUS
 10
2.931720
 20
1.553640
  0
VERTEX
  8
0
  6
CONTINUOUS
 10
2.882000
 20
1.558480
  0
VERTEX
  8
0
  6
CONTINUOUS
 10
2.857360
 20
1.562440
  0
VERTEX
  8
0
  6
CONTINUOUS
 10
2.832280
 20
1.568160
  0
VERTEX
  8
0
  6
CONTINUOUS
 10
2.782120
 20
1.584000
  0
VERTEX
  8
0
  6
CONTINUOUS
 10
2.731960
 20
1.605560
  0
VERTEX
  8
0
  6
CONTINUOUS
 10
2.681800
 20
1.632840
  0
VERTEX
  8
0
  6
CONTINUOUS
 10
2.632080
 20
1.667160
  0
VERTEX
  8
0
  6
CONTINUOUS
 10
2.477640
 20
1.457280
  0
VERTEX
  8
0
  6
CONTINUOUS
 10
1.848440
 20
1.996720
  0
VERTEX
  8
0
  6
CONTINUOUS
 10
1.274240
 20
1.322640
  0
VERTEX
  8
0
  6
CONTINUOUS
 10
1.791680
 20
0.894520
  0
VERTEX
  8
0
  6
CONTINUOUS
 10
7.215560
 20
0.894520
  0
VERTEX
  8
0
  6
CONTINUOUS
 10
7.690760
 20
1.512280
  0
SEQEND
  8
0
  0
SOLID
  8
0
 62
    15
 10
4.578200
 20
4.741440
 11
5.198600
 21
4.380200
 12
4.483600
 22
4.626160
 13
5.104000
 23
4.264920
  0
POLYLINE
  8
0
  6
CONTINUOUS
 66
     1
 40
0.000000
 41
0.000000
  0
VERTEX
  8
0
  6
CONTINUOUS
 10
4.578200
 20
4.741440
  0
VERTEX
  8
0
  6
CONTINUOUS
 10
5.198600
 20
4.380200
  0
VERTEX
  8
0
  6
CONTINUOUS
 10
5.104000
 20
4.264920
  0
VERTEX
  8
0
  6
CONTINUOUS
 10
4.483600
 20
4.626160
  0
VERTEX
  8
0
  6
CONTINUOUS
 10
4.578200
 20
4.741440
  0
SEQEND
  8
0
  0
SOLID
  8
0
 62
    15
 10
6.424880
 20
6.900520
 11
7.044840
 21
6.539280
 12
5.609560
 22
6.932640
 13
6.229520
 23
6.571400
  0
POLYLINE
  8
0
  6
CONTINUOUS
 66
     1
 40
0.000000
 41
0.000000
  0
VERTEX
  8
0
  6
CONTINUOUS
 10
6.424880
 20
6.900520
  0
VERTEX
  8
0
  6
CONTINUOUS
 10
7.044840
 20
6.539280
  0
VERTEX
  8
0
  6
CONTINUOUS
 10
6.229520
 20
6.571400
  0
VERTEX
  8
0
  6
CONTINUOUS
 10
5.609560
 20
6.932640
  0
VERTEX
  8
0
  6
CONTINUOUS
 10
6.424880
 20
6.900520
  0
SEQEND
  8
0
  0
SOLID
  8
0
 62
    15
 10
5.609560
 20
6.932640
 11
6.229520
 21
6.571400
 12
5.632880
 22
6.270440
 13
6.252840
 23
5.908760
  0
POLYLINE
  8
0
  6
CONTINUOUS
 66
     1
 40
0.000000
 41
0.000000
  0
VERTEX
  8
0
  6
CONTINUOUS
 10
5.609560
 20
6.932640
  0
VERTEX
  8
0
  6
CONTINUOUS
 10
6.229520
 20
6.571400
  0
VERTEX
  8
0
  6
CONTINUOUS
 10
6.252840
 20
5.908760
  0
VERTEX
  8
0
  6
CONTINUOUS
 10
5.632880
 20
6.270440
  0
VERTEX
  8
0
  6
CONTINUOUS
 10
5.609560
 20
6.932640
  0
SEQEND
  8
0
  0
SOLID
  8
0
 62
    15
 10
5.632880
 20
6.270440
 11
6.252840
 21
5.908760
 12
5.424320
 22
6.202240
 13
6.044720
 23
5.840560
  0
POLYLINE
  8
0
  6
CONTINUOUS
 66
     1
 40
0.000000
 41
0.000000
  0
VERTEX
  8
0
  6
CONTINUOUS
 10
5.632880
 20
6.270440
  0
VERTEX
  8
0
  6
CONTINUOUS
 10
6.252840
 20
5.908760
  0
VERTEX
  8
0
  6
CONTINUOUS
 10
6.044720
 20
5.840560
  0
VERTEX
  8
0
  6
CONTINUOUS
 10
5.424320
 20
6.202240
  0
VERTEX
  8
0
  6
CONTINUOUS
 10
5.632880
 20
6.270440
  0
SEQEND
  8
0
  0
SOLID
  8
0
 62
    15
 10
5.424320
 20
6.202240
 11
6.044720
 21
5.840560
 12
5.253600
 22
6.111600
 13
5.874000
 23
5.749920
  0
POLYLINE
  8
0
  6
CONTINUOUS
 66
     1
 40
0.000000
 41
0.000000
  0
VERTEX
  8
0
  6
CONTINUOUS
 10
5.424320
 20
6.202240
  0
VERTEX
  8
0
  6
CONTINUOUS
 10
6.044720
 20
5.840560
  0
VERTEX
  8
0
  6
CONTINUOUS
 10
5.874000
 20
5.749920
  0
VERTEX
  8
0
  6
CONTINUOUS
 10
5.253600
 20
6.111600
  0
VERTEX
  8
0
  6
CONTINUOUS
 10
5.424320
 20
6.202240
  0
SEQEND
  8
0
  0
SOLID
  8
0
 62
    15
 10
5.253600
 20
6.111600
 11
5.874000
 21
5.749920
 12
5.115880
 22
6.000720
 13
5.736280
 23
5.639040
  0
POLYLINE
  8
0
  6
CONTINUOUS
 66
     1
 40
0.000000
 41
0.000000
  0
VERTEX
  8
0
  6
CONTINUOUS
 10
5.253600
 20
6.111600
  0
VERTEX
  8
0
  6
CONTINUOUS
 10
5.874000
 20
5.749920
  0
VERTEX
  8
0
  6
CONTINUOUS
 10
5.736280
 20
5.639040
  0
VERTEX
  8
0
  6
CONTINUOUS
 10
5.115880
 20
6.000720
  0
VERTEX
  8
0
  6
CONTINUOUS
 10
5.253600
 20
6.111600
  0
SEQEND
  8
0
  0
SOLID
  8
0
 62
    15
 10
5.115880
 20
6.000720
 11
5.736280
 21
5.639040
 12
5.006320
 22
5.871360
 13
5.626720
 23
5.509680
  0
POLYLINE
  8
0
  6
CONTINUOUS
 66
     1
 40
0.000000
 41
0.000000
  0
VERTEX
  8
0
  6
CONTINUOUS
 10
5.115880
 20
6.000720
  0
VERTEX
  8
0
  6
CONTINUOUS
 10
5.736280
 20
5.639040
  0
VERTEX
  8
0
  6
CONTINUOUS
 10
5.626720
 20
5.509680
  0
VERTEX
  8
0
  6
CONTINUOUS
 10
5.006320
 20
5.871360
  0
VERTEX
  8
0
  6
CONTINUOUS
 10
5.115880
 20
6.000720
  0
SEQEND
  8
0
  0
SOLID
  8
0
 62
    15
 10
5.006320
 20
5.871360
 11
5.626720
 21
5.509680
 12
4.920520
 22
5.725720
 13
5.540920
 23
5.364040
  0
POLYLINE
  8
0
  6
CONTINUOUS
 66
     1
 40
0.000000
 41
0.000000
  0
VERTEX
  8
0
  6
CONTINUOUS
 10
5.006320
 20
5.871360
  0
VERTEX
  8
0
  6
CONTINUOUS
 10
5.626720
 20
5.509680
  0
VERTEX
  8
0
  6
CONTINUOUS
 10
5.540920
 20
5.364040
  0
VERTEX
  8
0
  6
CONTINUOUS
 10
4.920520
 20
5.725720
  0
VERTEX
  8
0
  6
CONTINUOUS
 10
5.006320
 20
5.871360
  0
SEQEND
  8
0
  0
SOLID
  8
0
 62
    15
 10
4.920520
 20
5.725720
 11
5.540920
 21
5.364040
 12
4.854080
 22
5.565560
 13
5.474480
 23
5.204320
  0
POLYLINE
  8
0
  6
CONTINUOUS
 66
     1
 40
0.000000
 41
0.000000
  0
VERTEX
  8
0
  6
CONTINUOUS
 10
4.920520
 20
5.725720
  0
VERTEX
  8
0
  6
CONTINUOUS
 10
5.540920
 20
5.364040
  0
VERTEX
  8
0
  6
CONTINUOUS
 10
5.474480
 20
5.204320
  0
VERTEX
  8
0
  6
CONTINUOUS
 10
4.854080
 20
5.565560
  0
VERTEX
  8
0
  6
CONTINUOUS
 10
4.920520
 20
5.725720
  0
SEQEND
  8
0
  0
SOLID
  8
0
 62
    15
 10
4.854080
 20
5.565560
 11
5.474480
 21
5.204320
 12
4.761240
 22
5.211800
 13
5.381200
 23
4.850560
  0
POLYLINE
  8
0
  6
CONTINUOUS
 66
     1
 40
0.000000
 41
0.000000
  0
VERTEX
  8
0
  6
CONTINUOUS
 10
4.854080
 20
5.565560
  0
VERTEX
  8
0
  6
CONTINUOUS
 10
5.474480
 20
5.204320
  0
VERTEX
  8
0
  6
CONTINUOUS
 10
5.381200
 20
4.850560
  0
VERTEX
  8
0
  6
CONTINUOUS
 10
4.761240
 20
5.211800
  0
VERTEX
  8
0
  6
CONTINUOUS
 10
4.854080
 20
5.565560
  0
SEQEND
  8
0
  0
SOLID
  8
0
 62
    15
 10
4.761240
 20
5.211800
 11
5.381200
 21
4.850560
 12
4.715920
 22
5.035360
 13
5.336320
 23
4.673680
  0
POLYLINE
  8
0
  6
CONTINUOUS
 66
     1
 40
0.000000
 41
0.000000
  0
VERTEX
  8
0
  6
CONTINUOUS
 10
4.761240
 20
5.211800
  0
VERTEX
  8
0
  6
CONTINUOUS
 10
5.381200
 20
4.850560
  0
VERTEX
  8
0
  6
CONTINUOUS
 10
5.336320
 20
4.673680
  0
VERTEX
  8
0
  6
CONTINUOUS
 10
4.715920
 20
5.035360
  0
VERTEX
  8
0
  6
CONTINUOUS
 10
4.761240
 20
5.211800
  0
SEQEND
  8
0
  0
SOLID
  8
0
 62
    15
 10
4.715920
 20
5.035360
 11
5.336320
 21
4.673680
 12
4.655200
 22
4.878280
 13
5.275600
 23
4.516600
  0
POLYLINE
  8
0
  6
CONTINUOUS
 66
     1
 40
0.000000
 41
0.000000
  0
VERTEX
  8
0
  6
CONTINUOUS
 10
4.715920
 20
5.035360
  0
VERTEX
  8
0
  6
CONTINUOUS
 10
5.336320
 20
4.673680
  0
VERTEX
  8
0
  6
CONTINUOUS
 10
5.275600
 20
4.516600
  0
VERTEX
  8
0
  6
CONTINUOUS
 10
4.655200
 20
4.878280
  0
VERTEX
  8
0
  6
CONTINUOUS
 10
4.715920
 20
5.035360
  0
SEQEND
  8
0
  0
SOLID
  8
0
 62
    15
 10
4.655200
 20
4.878280
 11
5.275600
 21
4.516600
 12
4.578200
 22
4.741440
 13
5.198600
 23
4.380200
  0
POLYLINE
  8
0
  6
CONTINUOUS
 66
     1
 40
0.000000
 41
0.000000
  0
VERTEX
  8
0
  6
CONTINUOUS
 10
4.655200
 20
4.878280
  0
VERTEX
  8
0
  6
CONTINUOUS
 10
5.275600
 20
4.516600
  0
VERTEX
  8
0
  6
CONTINUOUS
 10
5.198600
 20
4.380200
  0
VERTEX
  8
0
  6
CONTINUOUS
 10
4.578200
 20
4.741440
  0
VERTEX
  8
0
  6
CONTINUOUS
 10
4.655200
 20
4.878280
  0
SEQEND
  8
0
  0
SOLID
  8
0
 62
    15
 10
6.409040
 20
7.645880
 11
7.029000
 21
7.284200
 12
6.424880
 22
6.900520
 13
7.044840
 23
6.539280
  0
POLYLINE
  8
0
  6
CONTINUOUS
 66
     1
 40
0.000000
 41
0.000000
  0
VERTEX
  8
0
  6
CONTINUOUS
 10
6.409040
 20
7.645880
  0
VERTEX
  8
0
  6
CONTINUOUS
 10
7.029000
 20
7.284200
  0
VERTEX
  8
0
  6
CONTINUOUS
 10
7.044840
 20
6.539280
  0
VERTEX
  8
0
  6
CONTINUOUS
 10
6.424880
 20
6.900520
  0
VERTEX
  8
0
  6
CONTINUOUS
 10
6.409040
 20
7.645880
  0
SEQEND
  8
0
  0
SOLID
  8
0
 62
    15
 10
4.483600
 20
4.626160
 11
5.104000
 21
4.264920
 12
4.370960
 22
4.532880
 13
4.990920
 23
4.171640
  0
POLYLINE
  8
0
  6
CONTINUOUS
 66
     1
 40
0.000000
 41
0.000000
  0
VERTEX
  8
0
  6
CONTINUOUS
 10
4.483600
 20
4.626160
  0
VERTEX
  8
0
  6
CONTINUOUS
 10
5.104000
 20
4.264920
  0
VERTEX
  8
0
  6
CONTINUOUS
 10
4.990920
 20
4.171640
  0
VERTEX
  8
0
  6
CONTINUOUS
 10
4.370960
 20
4.532880
  0
VERTEX
  8
0
  6
CONTINUOUS
 10
4.483600
 20
4.626160
  0
SEQEND
  8
0
  0
SOLID
  8
0
 62
    15
 10
4.370960
 20
4.532880
 11
4.990920
 21
4.171640
 12
4.238520
 22
4.462480
 13
4.858480
 23
4.100800
  0
POLYLINE
  8
0
  6
CONTINUOUS
 66
     1
 40
0.000000
 41
0.000000
  0
VERTEX
  8
0
  6
CONTINUOUS
 10
4.370960
 20
4.532880
  0
VERTEX
  8
0
  6
CONTINUOUS
 10
4.990920
 20
4.171640
  0
VERTEX
  8
0
  6
CONTINUOUS
 10
4.858480
 20
4.100800
  0
VERTEX
  8
0
  6
CONTINUOUS
 10
4.238520
 20
4.462480
  0
VERTEX
  8
0
  6
CONTINUOUS
 10
4.370960
 20
4.532880
  0
SEQEND
  8
0
  0
SOLID
  8
0
 62
    15
 10
4.238520
 20
4.462480
 11
4.858480
 21
4.100800
 12
4.085400
 22
4.415400
 13
4.705800
 23
4.054160
  0
POLYLINE
  8
0
  6
CONTINUOUS
 66
     1
 40
0.000000
 41
0.000000
  0
VERTEX
  8
0
  6
CONTINUOUS
 10
4.238520
 20
4.462480
  0
VERTEX
  8
0
  6
CONTINUOUS
 10
4.858480
 20
4.100800
  0
VERTEX
  8
0
  6
CONTINUOUS
 10
4.705800
 20
4.054160
  0
VERTEX
  8
0
  6
CONTINUOUS
 10
4.085400
 20
4.415400
  0
VERTEX
  8
0
  6
CONTINUOUS
 10
4.238520
 20
4.462480
  0
SEQEND
  8
0
  0
SOLID
  8
0
 62
    15
 10
4.085400
 20
4.415400
 11
4.705800
 21
4.054160
 12
3.911160
 22
4.392960
 13
4.531120
 23
4.031280
  0
POLYLINE
  8
0
  6
CONTINUOUS
 66
     1
 40
0.000000
 41
0.000000
  0
VERTEX
  8
0
  6
CONTINUOUS
 10
4.085400
 20
4.415400
  0
VERTEX
  8
0
  6
CONTINUOUS
 10
4.705800
 20
4.054160
  0
VERTEX
  8
0
  6
CONTINUOUS
 10
4.531120
 20
4.031280
  0
VERTEX
  8
0
  6
CONTINUOUS
 10
3.911160
 20
4.392960
  0
VERTEX
  8
0
  6
CONTINUOUS
 10
4.085400
 20
4.415400
  0
SEQEND
  8
0
  0
SOLID
  8
0
 62
    15
 10
3.911160
 20
4.392960
 11
4.531120
 21
4.031280
 12
3.922600
 22
4.090240
 13
4.542560
 23
3.728560
  0
POLYLINE
  8
0
  6
CONTINUOUS
 66
     1
 40
0.000000
 41
0.000000
  0
VERTEX
  8
0
  6
CONTINUOUS
 10
3.911160
 20
4.392960
  0
VERTEX
  8
0
  6
CONTINUOUS
 10
4.531120
 20
4.031280
  0
VERTEX
  8
0
  6
CONTINUOUS
 10
4.542560
 20
3.728560
  0
VERTEX
  8
0
  6
CONTINUOUS
 10
3.922600
 20
4.090240
  0
VERTEX
  8
0
  6
CONTINUOUS
 10
3.911160
 20
4.392960
  0
SEQEND
  8
0
  0
SOLID
  8
0
 62
    15
 10
3.922600
 20
4.090240
 11
4.542560
 21
3.728560
 12
3.744400
 22
4.038320
 13
4.364360
 23
3.676640
  0
POLYLINE
  8
0
  6
CONTINUOUS
 66
     1
 40
0.000000
 41
0.000000
  0
VERTEX
  8
0
  6
CONTINUOUS
 10
3.922600
 20
4.090240
  0
VERTEX
  8
0
  6
CONTINUOUS
 10
4.542560
 20
3.728560
  0
VERTEX
  8
0
  6
CONTINUOUS
 10
4.364360
 20
3.676640
  0
VERTEX
  8
0
  6
CONTINUOUS
 10
3.744400
 20
4.038320
  0
VERTEX
  8
0
  6
CONTINUOUS
 10
3.922600
 20
4.090240
  0
SEQEND
  8
0
  0
SOLID
  8
0
 62
    15
 10
3.744400
 20
4.038320
 11
4.364360
 21
3.676640
 12
3.587760
 22
3.933160
 13
4.207720
 23
3.571480
  0
POLYLINE
  8
0
  6
CONTINUOUS
 66
     1
 40
0.000000
 41
0.000000
  0
VERTEX
  8
0
  6
CONTINUOUS
 10
3.744400
 20
4.038320
  0
VERTEX
  8
0
  6
CONTINUOUS
 10
4.364360
 20
3.676640
  0
VERTEX
  8
0
  6
CONTINUOUS
 10
4.207720
 20
3.571480
  0
VERTEX
  8
0
  6
CONTINUOUS
 10
3.587760
 20
3.933160
  0
VERTEX
  8
0
  6
CONTINUOUS
 10
3.744400
 20
4.038320
  0
SEQEND
  8
0
  0
SOLID
  8
0
 62
    15
 10
3.587760
 20
3.933160
 11
4.207720
 21
3.571480
 12
3.475560
 22
3.772560
 13
4.095520
 23
3.410880
  0
POLYLINE
  8
0
  6
CONTINUOUS
 66
     1
 40
0.000000
 41
0.000000
  0
VERTEX
  8
0
  6
CONTINUOUS
 10
3.587760
 20
3.933160
  0
VERTEX
  8
0
  6
CONTINUOUS
 10
4.207720
 20
3.571480
  0
VERTEX
  8
0
  6
CONTINUOUS
 10
4.095520
 20
3.410880
  0
VERTEX
  8
0
  6
CONTINUOUS
 10
3.475560
 20
3.772560
  0
VERTEX
  8
0
  6
CONTINUOUS
 10
3.587760
 20
3.933160
  0
SEQEND
  8
0
  0
SOLID
  8
0
 62
    15
 10
3.475560
 20
3.772560
 11
4.095520
 21
3.410880
 12
3.443440
 22
3.670480
 13
4.063400
 23
3.309240
  0
POLYLINE
  8
0
  6
CONTINUOUS
 66
     1
 40
0.000000
 41
0.000000
  0
VERTEX
  8
0
  6
CONTINUOUS
 10
3.475560
 20
3.772560
  0
VERTEX
  8
0
  6
CONTINUOUS
 10
4.095520
 20
3.410880
  0
VERTEX
  8
0
  6
CONTINUOUS
 10
4.063400
 20
3.309240
  0
VERTEX
  8
0
  6
CONTINUOUS
 10
3.443440
 20
3.670480
  0
VERTEX
  8
0
  6
CONTINUOUS
 10
3.475560
 20
3.772560
  0
SEQEND
  8
0
  0
SOLID
  8
0
 62
    15
 10
3.443440
 20
3.670480
 11
4.063400
 21
3.309240
 12
3.430680
 22
3.553880
 13
4.051080
 23
3.192200
  0
POLYLINE
  8
0
  6
CONTINUOUS
 66
     1
 40
0.000000
 41
0.000000
  0
VERTEX
  8
0
  6
CONTINUOUS
 10
3.443440
 20
3.670480
  0
VERTEX
  8
0
  6
CONTINUOUS
 10
4.063400
 20
3.309240
  0
VERTEX
  8
0
  6
CONTINUOUS
 10
4.051080
 20
3.192200
  0
VERTEX
  8
0
  6
CONTINUOUS
 10
3.430680
 20
3.553880
  0
VERTEX
  8
0
  6
CONTINUOUS
 10
3.443440
 20
3.670480
  0
SEQEND
  8
0
  0
SOLID
  8
0
 62
    15
 10
3.430680
 20
3.553880
 11
4.051080
 21
3.192200
 12
3.170200
 22
3.560040
 13
3.790600
 23
3.198360
  0
POLYLINE
  8
0
  6
CONTINUOUS
 66
     1
 40
0.000000
 41
0.000000
  0
VERTEX
  8
0
  6
CONTINUOUS
 10
3.430680
 20
3.553880
  0
VERTEX
  8
0
  6
CONTINUOUS
 10
4.051080
 20
3.192200
  0
VERTEX
  8
0
  6
CONTINUOUS
 10
3.790600
 20
3.198360
  0
VERTEX
  8
0
  6
CONTINUOUS
 10
3.170200
 20
3.560040
  0
VERTEX
  8
0
  6
CONTINUOUS
 10
3.430680
 20
3.553880
  0
SEQEND
  8
0
  0
SOLID
  8
0
 62
    15
 10
3.170200
 20
3.560040
 11
3.790600
 21
3.198360
 12
3.210680
 22
2.732400
 13
3.831080
 23
2.371160
  0
POLYLINE
  8
0
  6
CONTINUOUS
 66
     1
 40
0.000000
 41
0.000000
  0
VERTEX
  8
0
  6
CONTINUOUS
 10
3.170200
 20
3.560040
  0
VERTEX
  8
0
  6
CONTINUOUS
 10
3.790600
 20
3.198360
  0
VERTEX
  8
0
  6
CONTINUOUS
 10
3.831080
 20
2.371160
  0
VERTEX
  8
0
  6
CONTINUOUS
 10
3.210680
 20
2.732400
  0
VERTEX
  8
0
  6
CONTINUOUS
 10
3.170200
 20
3.560040
  0
SEQEND
  8
0
  0
SOLID
  8
0
 62
    15
 10
3.210680
 20
2.732400
 11
3.831080
 21
2.371160
 12
2.326280
 22
2.691920
 13
2.946680
 23
2.330680
  0
POLYLINE
  8
0
  6
CONTINUOUS
 66
     1
 40
0.000000
 41
0.000000
  0
VERTEX
  8
0
  6
CONTINUOUS
 10
3.210680
 20
2.732400
  0
VERTEX
  8
0
  6
CONTINUOUS
 10
3.831080
 20
2.371160
  0
VERTEX
  8
0
  6
CONTINUOUS
 10
2.946680
 20
2.330680
  0
VERTEX
  8
0
  6
CONTINUOUS
 10
2.326280
 20
2.691920
  0
VERTEX
  8
0
  6
CONTINUOUS
 10
3.210680
 20
2.732400
  0
SEQEND
  8
0
  0
POLYLINE
  8
0
  6
CONTINUOUS
 66
     1
 40
0.000000
 41
0.000000
  0
VERTEX
  8
0
  6
CONTINUOUS
 10
6.409040
 20
7.645880
  0
VERTEX
  8
0
  6
CONTINUOUS
 10
6.424880
 20
6.900520
  0
VERTEX
  8
0
  6
CONTINUOUS
 10
5.609560
 20
6.932640
  0
VERTEX
  8
0
  6
CONTINUOUS
 10
5.632880
 20
6.270440
  0
VERTEX
  8
0
  6
CONTINUOUS
 10
5.424320
 20
6.202240
  0
VERTEX
  8
0
  6
CONTINUOUS
 10
5.253600
 20
6.111600
  0
VERTEX
  8
0
  6
CONTINUOUS
 10
5.115880
 20
6.000720
  0
VERTEX
  8
0
  6
CONTINUOUS
 10
5.006320
 20
5.871360
  0
VERTEX
  8
0
  6
CONTINUOUS
 10
4.920520
 20
5.725720
  0
VERTEX
  8
0
  6
CONTINUOUS
 10
4.854080
 20
5.565560
  0
VERTEX
  8
0
  6
CONTINUOUS
 10
4.761240
 20
5.211800
  0
VERTEX
  8
0
  6
CONTINUOUS
 10
4.715920
 20
5.035360
  0
VERTEX
  8
0
  6
CONTINUOUS
 10
4.655200
 20
4.878280
  0
VERTEX
  8
0
  6
CONTINUOUS
 10
4.578200
 20
4.741440
  0
VERTEX
  8
0
  6
CONTINUOUS
 10
4.483600
 20
4.626160
  0
VERTEX
  8
0
  6
CONTINUOUS
 10
4.370960
 20
4.532880
  0
VERTEX
  8
0
  6
CONTINUOUS
 10
4.238520
 20
4.462480
  0
VERTEX
  8
0
  6
CONTINUOUS
 10
4.085400
 20
4.415400
  0
VERTEX
  8
0
  6
CONTINUOUS
 10
3.911160
 20
4.392960
  0
VERTEX
  8
0
  6
CONTINUOUS
 10
3.922600
 20
4.090240
  0
VERTEX
  8
0
  6
CONTINUOUS
 10
3.744400
 20
4.038320
  0
VERTEX
  8
0
  6
CONTINUOUS
 10
3.587760
 20
3.933160
  0
VERTEX
  8
0
  6
CONTINUOUS
 10
3.475560
 20
3.772560
  0
VERTEX
  8
0
  6
CONTINUOUS
 10
3.443440
 20
3.670480
  0
VERTEX
  8
0
  6
CONTINUOUS
 10
3.430680
 20
3.553880
  0
VERTEX
  8
0
  6
CONTINUOUS
 10
3.170200
 20
3.560040
  0
VERTEX
  8
0
  6
CONTINUOUS
 10
3.210680
 20
2.732400
  0
VERTEX
  8
0
  6
CONTINUOUS
 10
2.326280
 20
2.691920
  0
VERTEX
  8
0
  6
CONTINUOUS
 10
2.324520
 20
3.402960
  0
VERTEX
  8
0
  6
CONTINUOUS
 10
5.496480
 20
7.476920
  0
VERTEX
  8
0
  6
CONTINUOUS
 10
5.629800
 20
7.648520
  0
VERTEX
  8
0
  6
CONTINUOUS
 10
6.409040
 20
7.645880
  0
SEQEND
  8
0
  0
TEXT
  8
0
 10
4.349400
 20
2.643960
 40
0.138086
  1
BA  858
 41
1.000000
  7
SN0
 71
     0
 72
     5
 11
4.939777
 21
2.643960
  0
TEXT
  8
0
 10
4.073520
 20
2.452560
 40
0.138086
  1
1-1/8" x 6-7/16"
 41
1.000000
  7
SN0
 71
     0
 72
     5
 11
5.213744
 21
2.452560
  0
ENDSEC
  0
EOF
