  0
SECTION
  2
HEADER
  9
$ACADVER
  1
AC1006
  9
$EXTMIN
 10
3.076480
 20
0.463320
  9
$EXTMAX
 10
7.450080
 20
2.683120
  9
$LTSCALE
 40
0.044000
  9
$PDMODE
 70
    35
  9
$PDSIZE
 40
0.035200
  0
ENDSEC
  0
SECTION
  2
TABLES
  0
TABLE
  2
LTYPE
 70
     9
  0
LTYPE
  2
CONTINUOUS
 70
    64
  3
Solid line
 72
    65
 73
     0
 40
0.000000
  0
LTYPE
  2
DASHED
 70
    64
  3
__ __ __ __ __ __ __ __ __ __ __ __ __ __ __
 72
    65
 73
     2
 40
0.000330
 49
0.000220
 49
-0.000110
  0
LTYPE
  2
HIDDEN
 70
    64
  3
 _ _ _ _ _ _ _ _ _ _ _ _ _ _ _ _ _ _ _ _ _ _
 72
    65
 73
     2
 40
0.000165
 49
0.000110
 49
-0.000055
  0
LTYPE
  2
CENTER
 70
    64
  3
____ _ ____ _ ____ _ ____ _ ____ _ ____ _ ____
 72
    65
 73
     4
 40
0.000880
 49
0.000550
 49
-0.000110
 49
0.000110
 49
-0.000110
  0
LTYPE
  2
PHANTOM
 70
    64
  3
_____ _ _ _____ _ _ _____ _ _ _____ _ _ ____
 72
    65
 73
     6
 40
0.001100
 49
0.000550
 49
-0.000110
 49
0.000110
 49
-0.000110
 49
0.000110
 49
-0.000110
  0
LTYPE
  2
DOT
 70
    64
  3
...............................................
 72
    65
 73
     2
 40
0.000110
 49
0.000000
 49
-0.000110
  0
LTYPE
  2
DASHDOT
 70
    64
  3
__ . __ . __ . __ . __ . __ . __ . __ . __ . __
 72
    65
 73
     4
 40
0.000440
 49
0.000220
 49
-0.000110
 49
0.000000
 49
-0.000110
  0
LTYPE
  2
BORDER
 70
    64
  3
__ __ . __ __ . __ __ . __ __ . __ __ . __ __
 72
    65
 73
     6
 40
0.000770
 49
0.000220
 49
-0.000110
 49
0.000220
 49
-0.000110
 49
0.000000
 49
-0.000110
  0
LTYPE
  2
DIVIDE
 70
    64
  3
__ . . __ . . __ . . __ . . __ . . __ . . __
 72
    65
 73
     6
 40
0.000550
 49
0.000220
 49
-0.000110
 49
0.000000
 49
-0.000110
 49
0.000000
 49
-0.000110
  0
LTYPE
  2
DOTDOT
 70
    64
  3
 . .  . .  . .  . .  . .  . . 
 72
    65
 73
     5
 40
0.000242
 49
-0.000110
 49
0.000000
 49
-0.000110
 49
0.000000
 49
-0.000110
  0
ENDTAB
  0
TABLE
  2
STYLE
 70
     2
  0
STYLE
 70
     0
  2
SN0
 40
0.000000
 41
0.000440
 50
0.000000
 71
     0
 42
0.000000
  3
ROMAND
  0
STYLE
 70
    68
  2
SV0
 40
0.000000
 41
0.000440
 50
0.000000
 71
     0
 42
0.000000
  3
ROMAND
  0
ENDTAB
  0
TABLE
  2
LAYER
 70
     3
  0
LAYER
  2
FOREGROUND
 70
    64
 62
     7
  6
CONTINUOUS
  0
LAYER
  2
BACKGROUND
 70
    65
 62
    -7
  6
CONTINUOUS
  0
LAYER
  2
0
 70
    64
 62
     7
  6
CONTINUOUS
  0
ENDTAB
  0
ENDSEC
  0
SECTION
  2
ENTITIES
  0
POLYLINE
  8
FOREGROUND
  6
CONTINUOUS
 66
     1
 40
0.000000
 41
0.000000
  0
VERTEX
  8
FOREGROUND
  6
CONTINUOUS
 10
0.000000
 20
3.146440
  0
VERTEX
  8
FOREGROUND
  6
CONTINUOUS
 10
8.499920
 20
3.146440
  0
VERTEX
  8
FOREGROUND
  6
CONTINUOUS
 10
8.499920
 20
-7.853560
  0
VERTEX
  8
FOREGROUND
  6
CONTINUOUS
 10
0.000000
 20
-7.853560
  0
VERTEX
  8
FOREGROUND
  6
CONTINUOUS
 10
0.000000
 20
3.146440
  0
SEQEND
  8
0
  0
POLYLINE
  8
FOREGROUND
  6
CONTINUOUS
 66
     1
 40
0.000000
 41
0.000000
  0
VERTEX
  8
FOREGROUND
  6
CONTINUOUS
 10
0.000000
 20
3.146440
  0
VERTEX
  8
FOREGROUND
  6
CONTINUOUS
 10
8.499920
 20
3.146440
  0
VERTEX
  8
FOREGROUND
  6
CONTINUOUS
 10
8.499920
 20
-7.853560
  0
VERTEX
  8
FOREGROUND
  6
CONTINUOUS
 10
0.000000
 20
-7.853560
  0
VERTEX
  8
FOREGROUND
  6
CONTINUOUS
 10
0.000000
 20
3.146440
  0
SEQEND
  8
0
  0
SOLID
  8
0
 62
    15
 10
3.539800
 20
1.814120
 11
4.183080
 21
1.438800
 12
3.493600
 22
1.711600
 13
4.136880
 23
1.336280
  0
POLYLINE
  8
0
  6
CONTINUOUS
 66
     1
 40
0.000000
 41
0.000000
  0
VERTEX
  8
0
  6
CONTINUOUS
 10
3.539800
 20
1.814120
  0
VERTEX
  8
0
  6
CONTINUOUS
 10
4.183080
 20
1.438800
  0
VERTEX
  8
0
  6
CONTINUOUS
 10
4.136880
 20
1.336280
  0
VERTEX
  8
0
  6
CONTINUOUS
 10
3.493600
 20
1.711600
  0
VERTEX
  8
0
  6
CONTINUOUS
 10
3.539800
 20
1.814120
  0
SEQEND
  8
0
  0
SOLID
  8
0
 62
    15
 10
4.209480
 20
2.352240
 11
4.852760
 21
1.976920
 12
4.068680
 22
2.300760
 13
4.711960
 23
1.925440
  0
POLYLINE
  8
0
  6
CONTINUOUS
 66
     1
 40
0.000000
 41
0.000000
  0
VERTEX
  8
0
  6
CONTINUOUS
 10
4.209480
 20
2.352240
  0
VERTEX
  8
0
  6
CONTINUOUS
 10
4.852760
 20
1.976920
  0
VERTEX
  8
0
  6
CONTINUOUS
 10
4.711960
 20
1.925440
  0
VERTEX
  8
0
  6
CONTINUOUS
 10
4.068680
 20
2.300760
  0
VERTEX
  8
0
  6
CONTINUOUS
 10
4.209480
 20
2.352240
  0
SEQEND
  8
0
  0
SOLID
  8
0
 62
    15
 10
4.068680
 20
2.300760
 11
4.711960
 21
1.925440
 12
3.945040
 22
2.239600
 13
4.588320
 23
1.863840
  0
POLYLINE
  8
0
  6
CONTINUOUS
 66
     1
 40
0.000000
 41
0.000000
  0
VERTEX
  8
0
  6
CONTINUOUS
 10
4.068680
 20
2.300760
  0
VERTEX
  8
0
  6
CONTINUOUS
 10
4.711960
 20
1.925440
  0
VERTEX
  8
0
  6
CONTINUOUS
 10
4.588320
 20
1.863840
  0
VERTEX
  8
0
  6
CONTINUOUS
 10
3.945040
 20
2.239600
  0
VERTEX
  8
0
  6
CONTINUOUS
 10
4.068680
 20
2.300760
  0
SEQEND
  8
0
  0
SOLID
  8
0
 62
    15
 10
3.945040
 20
2.239600
 11
4.588320
 21
1.863840
 12
3.836800
 22
2.169200
 13
4.480080
 23
1.793440
  0
POLYLINE
  8
0
  6
CONTINUOUS
 66
     1
 40
0.000000
 41
0.000000
  0
VERTEX
  8
0
  6
CONTINUOUS
 10
3.945040
 20
2.239600
  0
VERTEX
  8
0
  6
CONTINUOUS
 10
4.588320
 20
1.863840
  0
VERTEX
  8
0
  6
CONTINUOUS
 10
4.480080
 20
1.793440
  0
VERTEX
  8
0
  6
CONTINUOUS
 10
3.836800
 20
2.169200
  0
VERTEX
  8
0
  6
CONTINUOUS
 10
3.945040
 20
2.239600
  0
SEQEND
  8
0
  0
SOLID
  8
0
 62
    15
 10
3.836800
 20
2.169200
 11
4.480080
 21
1.793440
 12
3.743520
 22
2.090440
 13
4.386800
 23
1.714680
  0
POLYLINE
  8
0
  6
CONTINUOUS
 66
     1
 40
0.000000
 41
0.000000
  0
VERTEX
  8
0
  6
CONTINUOUS
 10
3.836800
 20
2.169200
  0
VERTEX
  8
0
  6
CONTINUOUS
 10
4.480080
 20
1.793440
  0
VERTEX
  8
0
  6
CONTINUOUS
 10
4.386800
 20
1.714680
  0
VERTEX
  8
0
  6
CONTINUOUS
 10
3.743520
 20
2.090440
  0
VERTEX
  8
0
  6
CONTINUOUS
 10
3.836800
 20
2.169200
  0
SEQEND
  8
0
  0
SOLID
  8
0
 62
    15
 10
3.743520
 20
2.090440
 11
4.386800
 21
1.714680
 12
3.663440
 22
2.004640
 13
4.306720
 23
1.628880
  0
POLYLINE
  8
0
  6
CONTINUOUS
 66
     1
 40
0.000000
 41
0.000000
  0
VERTEX
  8
0
  6
CONTINUOUS
 10
3.743520
 20
2.090440
  0
VERTEX
  8
0
  6
CONTINUOUS
 10
4.386800
 20
1.714680
  0
VERTEX
  8
0
  6
CONTINUOUS
 10
4.306720
 20
1.628880
  0
VERTEX
  8
0
  6
CONTINUOUS
 10
3.663440
 20
2.004640
  0
VERTEX
  8
0
  6
CONTINUOUS
 10
3.743520
 20
2.090440
  0
SEQEND
  8
0
  0
SOLID
  8
0
 62
    15
 10
3.663440
 20
2.004640
 11
4.306720
 21
1.628880
 12
3.596120
 22
1.912240
 13
4.239400
 23
1.536480
  0
POLYLINE
  8
0
  6
CONTINUOUS
 66
     1
 40
0.000000
 41
0.000000
  0
VERTEX
  8
0
  6
CONTINUOUS
 10
3.663440
 20
2.004640
  0
VERTEX
  8
0
  6
CONTINUOUS
 10
4.306720
 20
1.628880
  0
VERTEX
  8
0
  6
CONTINUOUS
 10
4.239400
 20
1.536480
  0
VERTEX
  8
0
  6
CONTINUOUS
 10
3.596120
 20
1.912240
  0
VERTEX
  8
0
  6
CONTINUOUS
 10
3.663440
 20
2.004640
  0
SEQEND
  8
0
  0
SOLID
  8
0
 62
    15
 10
3.596120
 20
1.912240
 11
4.239400
 21
1.536480
 12
3.539800
 22
1.814120
 13
4.183080
 23
1.438800
  0
POLYLINE
  8
0
  6
CONTINUOUS
 66
     1
 40
0.000000
 41
0.000000
  0
VERTEX
  8
0
  6
CONTINUOUS
 10
3.596120
 20
1.912240
  0
VERTEX
  8
0
  6
CONTINUOUS
 10
4.239400
 20
1.536480
  0
VERTEX
  8
0
  6
CONTINUOUS
 10
4.183080
 20
1.438800
  0
VERTEX
  8
0
  6
CONTINUOUS
 10
3.539800
 20
1.814120
  0
VERTEX
  8
0
  6
CONTINUOUS
 10
3.596120
 20
1.912240
  0
SEQEND
  8
0
  0
SOLID
  8
0
 62
    15
 10
4.367880
 20
2.682240
 11
5.011160
 21
2.306920
 12
4.367880
 22
2.393160
 13
5.011160
 23
2.017400
  0
POLYLINE
  8
0
  6
CONTINUOUS
 66
     1
 40
0.000000
 41
0.000000
  0
VERTEX
  8
0
  6
CONTINUOUS
 10
4.367880
 20
2.682240
  0
VERTEX
  8
0
  6
CONTINUOUS
 10
5.011160
 20
2.306920
  0
VERTEX
  8
0
  6
CONTINUOUS
 10
5.011160
 20
2.017400
  0
VERTEX
  8
0
  6
CONTINUOUS
 10
4.367880
 20
2.393160
  0
VERTEX
  8
0
  6
CONTINUOUS
 10
4.367880
 20
2.682240
  0
SEQEND
  8
0
  0
SOLID
  8
0
 62
    15
 10
3.493600
 20
1.711600
 11
4.136880
 21
1.336280
 12
3.456200
 22
1.605560
 13
4.099480
 23
1.229800
  0
POLYLINE
  8
0
  6
CONTINUOUS
 66
     1
 40
0.000000
 41
0.000000
  0
VERTEX
  8
0
  6
CONTINUOUS
 10
3.493600
 20
1.711600
  0
VERTEX
  8
0
  6
CONTINUOUS
 10
4.136880
 20
1.336280
  0
VERTEX
  8
0
  6
CONTINUOUS
 10
4.099480
 20
1.229800
  0
VERTEX
  8
0
  6
CONTINUOUS
 10
3.456200
 20
1.605560
  0
VERTEX
  8
0
  6
CONTINUOUS
 10
3.493600
 20
1.711600
  0
SEQEND
  8
0
  0
SOLID
  8
0
 62
    15
 10
3.456200
 20
1.605560
 11
4.099480
 21
1.229800
 12
3.426720
 22
1.496000
 13
4.070000
 23
1.120240
  0
POLYLINE
  8
0
  6
CONTINUOUS
 66
     1
 40
0.000000
 41
0.000000
  0
VERTEX
  8
0
  6
CONTINUOUS
 10
3.456200
 20
1.605560
  0
VERTEX
  8
0
  6
CONTINUOUS
 10
4.099480
 20
1.229800
  0
VERTEX
  8
0
  6
CONTINUOUS
 10
4.070000
 20
1.120240
  0
VERTEX
  8
0
  6
CONTINUOUS
 10
3.426720
 20
1.496000
  0
VERTEX
  8
0
  6
CONTINUOUS
 10
3.456200
 20
1.605560
  0
SEQEND
  8
0
  0
SOLID
  8
0
 62
    15
 10
3.426720
 20
1.496000
 11
4.070000
 21
1.120240
 12
3.403840
 22
1.384680
 13
4.047120
 23
1.008920
  0
POLYLINE
  8
0
  6
CONTINUOUS
 66
     1
 40
0.000000
 41
0.000000
  0
VERTEX
  8
0
  6
CONTINUOUS
 10
3.426720
 20
1.496000
  0
VERTEX
  8
0
  6
CONTINUOUS
 10
4.070000
 20
1.120240
  0
VERTEX
  8
0
  6
CONTINUOUS
 10
4.047120
 20
1.008920
  0
VERTEX
  8
0
  6
CONTINUOUS
 10
3.403840
 20
1.384680
  0
VERTEX
  8
0
  6
CONTINUOUS
 10
3.426720
 20
1.496000
  0
SEQEND
  8
0
  0
SOLID
  8
0
 62
    15
 10
3.403840
 20
1.384680
 11
4.047120
 21
1.008920
 12
3.372600
 22
1.159400
 13
4.015880
 23
0.783640
  0
POLYLINE
  8
0
  6
CONTINUOUS
 66
     1
 40
0.000000
 41
0.000000
  0
VERTEX
  8
0
  6
CONTINUOUS
 10
3.403840
 20
1.384680
  0
VERTEX
  8
0
  6
CONTINUOUS
 10
4.047120
 20
1.008920
  0
VERTEX
  8
0
  6
CONTINUOUS
 10
4.015880
 20
0.783640
  0
VERTEX
  8
0
  6
CONTINUOUS
 10
3.372600
 20
1.159400
  0
VERTEX
  8
0
  6
CONTINUOUS
 10
3.403840
 20
1.384680
  0
SEQEND
  8
0
  0
SOLID
  8
0
 62
    15
 10
3.372600
 20
1.159400
 11
4.015880
 21
0.783640
 12
3.354120
 22
0.936320
 13
3.997400
 23
0.560560
  0
POLYLINE
  8
0
  6
CONTINUOUS
 66
     1
 40
0.000000
 41
0.000000
  0
VERTEX
  8
0
  6
CONTINUOUS
 10
3.372600
 20
1.159400
  0
VERTEX
  8
0
  6
CONTINUOUS
 10
4.015880
 20
0.783640
  0
VERTEX
  8
0
  6
CONTINUOUS
 10
3.997400
 20
0.560560
  0
VERTEX
  8
0
  6
CONTINUOUS
 10
3.354120
 20
0.936320
  0
VERTEX
  8
0
  6
CONTINUOUS
 10
3.372600
 20
1.159400
  0
SEQEND
  8
0
  0
SOLID
  8
0
 62
    15
 10
3.354120
 20
0.936320
 11
3.997400
 21
0.560560
 12
3.076920
 22
0.936320
 13
3.720200
 23
0.560560
  0
POLYLINE
  8
0
  6
CONTINUOUS
 66
     1
 40
0.000000
 41
0.000000
  0
VERTEX
  8
0
  6
CONTINUOUS
 10
3.354120
 20
0.936320
  0
VERTEX
  8
0
  6
CONTINUOUS
 10
3.997400
 20
0.560560
  0
VERTEX
  8
0
  6
CONTINUOUS
 10
3.720200
 20
0.560560
  0
VERTEX
  8
0
  6
CONTINUOUS
 10
3.076920
 20
0.936320
  0
VERTEX
  8
0
  6
CONTINUOUS
 10
3.354120
 20
0.936320
  0
SEQEND
  8
0
  0
SOLID
  8
0
 62
    15
 10
4.368760
 20
2.393160
 11
5.012040
 21
2.017400
 12
4.209480
 22
2.352240
 13
4.852760
 23
1.976920
  0
POLYLINE
  8
0
  6
CONTINUOUS
 66
     1
 40
0.000000
 41
0.000000
  0
VERTEX
  8
0
  6
CONTINUOUS
 10
4.368760
 20
2.393160
  0
VERTEX
  8
0
  6
CONTINUOUS
 10
5.012040
 20
2.017400
  0
VERTEX
  8
0
  6
CONTINUOUS
 10
4.852760
 20
1.976920
  0
VERTEX
  8
0
  6
CONTINUOUS
 10
4.209480
 20
2.352240
  0
VERTEX
  8
0
  6
CONTINUOUS
 10
4.368760
 20
2.393160
  0
SEQEND
  8
0
  0
POLYLINE
  8
0
  6
CONTINUOUS
 66
     1
 40
0.000000
 41
0.000000
  0
VERTEX
  8
0
  6
CONTINUOUS
 10
4.368760
 20
2.393160
  0
VERTEX
  8
0
  6
CONTINUOUS
 10
4.209480
 20
2.352240
  0
VERTEX
  8
0
  6
CONTINUOUS
 10
4.068680
 20
2.300760
  0
VERTEX
  8
0
  6
CONTINUOUS
 10
3.945040
 20
2.239600
  0
VERTEX
  8
0
  6
CONTINUOUS
 10
3.836800
 20
2.169200
  0
VERTEX
  8
0
  6
CONTINUOUS
 10
3.743520
 20
2.090440
  0
VERTEX
  8
0
  6
CONTINUOUS
 10
3.663440
 20
2.004640
  0
VERTEX
  8
0
  6
CONTINUOUS
 10
3.596120
 20
1.912240
  0
VERTEX
  8
0
  6
CONTINUOUS
 10
3.539800
 20
1.814120
  0
VERTEX
  8
0
  6
CONTINUOUS
 10
3.493600
 20
1.711600
  0
VERTEX
  8
0
  6
CONTINUOUS
 10
3.456200
 20
1.605560
  0
VERTEX
  8
0
  6
CONTINUOUS
 10
3.426720
 20
1.496000
  0
VERTEX
  8
0
  6
CONTINUOUS
 10
3.403840
 20
1.384680
  0
VERTEX
  8
0
  6
CONTINUOUS
 10
3.372600
 20
1.159400
  0
VERTEX
  8
0
  6
CONTINUOUS
 10
3.354120
 20
0.936320
  0
VERTEX
  8
0
  6
CONTINUOUS
 10
3.076920
 20
0.936320
  0
VERTEX
  8
0
  6
CONTINUOUS
 10
3.076920
 20
2.682240
  0
VERTEX
  8
0
  6
CONTINUOUS
 10
4.367880
 20
2.682240
  0
VERTEX
  8
0
  6
CONTINUOUS
 10
4.367880
 20
2.393160
  0
VERTEX
  8
0
  6
CONTINUOUS
 10
4.368760
 20
2.393160
  0
SEQEND
  8
0
  0
TEXT
  8
0
 10
4.689520
 20
0.764280
 40
0.138120
  1
857
 41
1.000000
  7
SN0
 71
     0
 72
     5
 11
4.966150
 21
0.764280
  0
TEXT
  8
0
 10
4.302760
 20
0.572440
 40
0.138120
  1
1-3/8" x 1-3/4"
 41
1.000000
  7
SN0
 71
     0
 72
     5
 11
5.348269
 21
0.572440
  0
POLYLINE
  8
0
  6
CONTINUOUS
 66
     1
 40
0.014080
 41
0.014080
  0
VERTEX
  8
0
  6
CONTINUOUS
 10
7.064200
 20
1.940840
  0
VERTEX
  8
0
  6
CONTINUOUS
 10
6.982360
 20
1.921920
  0
VERTEX
  8
0
  6
CONTINUOUS
 10
6.905360
 20
1.900360
  0
VERTEX
  8
0
  6
CONTINUOUS
 10
6.832760
 20
1.875720
  0
VERTEX
  8
0
  6
CONTINUOUS
 10
6.764120
 20
1.848880
  0
VERTEX
  8
0
  6
CONTINUOUS
 10
6.700320
 20
1.819400
  0
VERTEX
  8
0
  6
CONTINUOUS
 10
6.611880
 20
1.770560
  0
VERTEX
  8
0
  6
CONTINUOUS
 10
6.532240
 20
1.716880
  0
VERTEX
  8
0
  6
CONTINUOUS
 10
6.460960
 20
1.658800
  0
VERTEX
  8
0
  6
CONTINUOUS
 10
6.397600
 20
1.596320
  0
VERTEX
  8
0
  6
CONTINUOUS
 10
6.341280
 20
1.529880
  0
VERTEX
  8
0
  6
CONTINUOUS
 10
6.291560
 20
1.459920
  0
VERTEX
  8
0
  6
CONTINUOUS
 10
6.248440
 20
1.386880
  0
VERTEX
  8
0
  6
CONTINUOUS
 10
6.211040
 20
1.311200
  0
VERTEX
  8
0
  6
CONTINUOUS
 10
6.189480
 20
1.259720
  0
VERTEX
  8
0
  6
CONTINUOUS
 10
6.169680
 20
1.206920
  0
VERTEX
  8
0
  6
CONTINUOUS
 10
6.152080
 20
1.153240
  0
VERTEX
  8
0
  6
CONTINUOUS
 10
6.136240
 20
1.098680
  0
VERTEX
  8
0
  6
CONTINUOUS
 10
6.110280
 20
0.988240
  0
VERTEX
  8
0
  6
CONTINUOUS
 10
6.099280
 20
0.932360
  0
VERTEX
  8
0
  6
CONTINUOUS
 10
6.081680
 20
0.819720
  0
VERTEX
  8
0
  6
CONTINUOUS
 10
6.068480
 20
0.707080
  0
VERTEX
  8
0
  6
CONTINUOUS
 10
6.058360
 20
0.594880
  0
VERTEX
  8
0
  6
CONTINUOUS
 10
6.050000
 20
0.484000
  0
VERTEX
  8
0
  6
CONTINUOUS
 10
5.772800
 20
0.484000
  0
VERTEX
  8
0
  6
CONTINUOUS
 10
5.772800
 20
2.230360
  0
VERTEX
  8
0
  6
CONTINUOUS
 10
7.063760
 20
2.230360
  0
VERTEX
  8
0
  6
CONTINUOUS
 10
7.064200
 20
1.940840
  0
SEQEND
  8
0
  0
TEXT
  8
0
 10
6.673480
 20
0.697840
 40
0.138120
  1
857
 41
1.000000
  7
SN0
 71
     0
 72
     5
 11
6.950110
 21
0.697840
  0
TEXT
  8
0
 10
6.286720
 20
0.506440
 40
0.138120
  1
1-3/8" x 1-3/4"
 41
1.000000
  7
SN0
 71
     0
 72
     5
 11
7.332229
 21
0.506440
  0
ENDSEC
  0
EOF
