  0
SECTION
  2
HEADER
  9
$ACADVER
  1
AC1006
  9
$EXTMIN
 10
3.309240
 20
1.905200
  9
$EXTMAX
 10
7.230960
 20
3.913800
  9
$LTSCALE
 40
0.044000
  9
$PDMODE
 70
    35
  9
$PDSIZE
 40
0.035200
  0
ENDSEC
  0
SECTION
  2
TABLES
  0
TABLE
  2
LTYPE
 70
     9
  0
LTYPE
  2
CONTINUOUS
 70
    64
  3
Solid line
 72
    65
 73
     0
 40
0.000000
  0
LTYPE
  2
DASHED
 70
    64
  3
__ __ __ __ __ __ __ __ __ __ __ __ __ __ __
 72
    65
 73
     2
 40
0.000330
 49
0.000220
 49
-0.000110
  0
LTYPE
  2
HIDDEN
 70
    64
  3
 _ _ _ _ _ _ _ _ _ _ _ _ _ _ _ _ _ _ _ _ _ _
 72
    65
 73
     2
 40
0.000165
 49
0.000110
 49
-0.000055
  0
LTYPE
  2
CENTER
 70
    64
  3
____ _ ____ _ ____ _ ____ _ ____ _ ____ _ ____
 72
    65
 73
     4
 40
0.000880
 49
0.000550
 49
-0.000110
 49
0.000110
 49
-0.000110
  0
LTYPE
  2
PHANTOM
 70
    64
  3
_____ _ _ _____ _ _ _____ _ _ _____ _ _ ____
 72
    65
 73
     6
 40
0.001100
 49
0.000550
 49
-0.000110
 49
0.000110
 49
-0.000110
 49
0.000110
 49
-0.000110
  0
LTYPE
  2
DOT
 70
    64
  3
...............................................
 72
    65
 73
     2
 40
0.000110
 49
0.000000
 49
-0.000110
  0
LTYPE
  2
DASHDOT
 70
    64
  3
__ . __ . __ . __ . __ . __ . __ . __ . __ . __
 72
    65
 73
     4
 40
0.000440
 49
0.000220
 49
-0.000110
 49
0.000000
 49
-0.000110
  0
LTYPE
  2
BORDER
 70
    64
  3
__ __ . __ __ . __ __ . __ __ . __ __ . __ __
 72
    65
 73
     6
 40
0.000770
 49
0.000220
 49
-0.000110
 49
0.000220
 49
-0.000110
 49
0.000000
 49
-0.000110
  0
LTYPE
  2
DIVIDE
 70
    64
  3
__ . . __ . . __ . . __ . . __ . . __ . . __
 72
    65
 73
     6
 40
0.000550
 49
0.000220
 49
-0.000110
 49
0.000000
 49
-0.000110
 49
0.000000
 49
-0.000110
  0
LTYPE
  2
DOTDOT
 70
    64
  3
 . .  . .  . .  . .  . .  . . 
 72
    65
 73
     5
 40
0.000242
 49
-0.000110
 49
0.000000
 49
-0.000110
 49
0.000000
 49
-0.000110
  0
ENDTAB
  0
TABLE
  2
STYLE
 70
     2
  0
STYLE
 70
     0
  2
SN0
 40
0.000000
 41
0.000440
 50
0.000000
 71
     0
 42
0.000000
  3
ROMAND
  0
STYLE
 70
    68
  2
SV0
 40
0.000000
 41
0.000440
 50
0.000000
 71
     0
 42
0.000000
  3
ROMAND
  0
ENDTAB
  0
TABLE
  2
LAYER
 70
     3
  0
LAYER
  2
FOREGROUND
 70
    64
 62
     7
  6
CONTINUOUS
  0
LAYER
  2
BACKGROUND
 70
    65
 62
    -7
  6
CONTINUOUS
  0
LAYER
  2
0
 70
    64
 62
     7
  6
CONTINUOUS
  0
ENDTAB
  0
ENDSEC
  0
SECTION
  2
ENTITIES
  0
POLYLINE
  8
FOREGROUND
  6
CONTINUOUS
 66
     1
 40
0.000000
 41
0.000000
  0
VERTEX
  8
FOREGROUND
  6
CONTINUOUS
 10
0.000000
 20
5.819000
  0
VERTEX
  8
FOREGROUND
  6
CONTINUOUS
 10
8.499920
 20
5.819000
  0
VERTEX
  8
FOREGROUND
  6
CONTINUOUS
 10
8.499920
 20
-5.181000
  0
VERTEX
  8
FOREGROUND
  6
CONTINUOUS
 10
0.000000
 20
-5.181000
  0
VERTEX
  8
FOREGROUND
  6
CONTINUOUS
 10
0.000000
 20
5.819000
  0
SEQEND
  8
0
  0
POLYLINE
  8
FOREGROUND
  6
CONTINUOUS
 66
     1
 40
0.000000
 41
0.000000
  0
VERTEX
  8
FOREGROUND
  6
CONTINUOUS
 10
0.000000
 20
5.819000
  0
VERTEX
  8
FOREGROUND
  6
CONTINUOUS
 10
8.499920
 20
5.819000
  0
VERTEX
  8
FOREGROUND
  6
CONTINUOUS
 10
8.499920
 20
-5.181000
  0
VERTEX
  8
FOREGROUND
  6
CONTINUOUS
 10
0.000000
 20
-5.181000
  0
VERTEX
  8
FOREGROUND
  6
CONTINUOUS
 10
0.000000
 20
5.819000
  0
SEQEND
  8
0
  0
TEXT
  8
0
 10
6.486920
 20
2.140160
 40
0.138229
  1
856
 41
1.000000
  7
SN0
 71
     0
 72
     5
 11
6.763793
 21
2.140160
  0
TEXT
  8
0
 10
6.128320
 20
1.948320
 40
0.138229
  1
3/4" x 1-9/16"
 41
1.000000
  7
SN0
 71
     0
 72
     5
 11
7.120515
 21
1.948320
  0
SOLID
  8
0
 62
    15
 10
5.463040
 20
2.321440
 11
6.107640
 21
2.694120
 12
5.453800
 22
2.268640
 13
6.098400
 23
2.641320
  0
POLYLINE
  8
0
  6
CONTINUOUS
 66
     1
 40
0.000000
 41
0.000000
  0
VERTEX
  8
0
  6
CONTINUOUS
 10
5.463040
 20
2.321440
  0
VERTEX
  8
0
  6
CONTINUOUS
 10
6.107640
 20
2.694120
  0
VERTEX
  8
0
  6
CONTINUOUS
 10
6.098400
 20
2.641320
  0
VERTEX
  8
0
  6
CONTINUOUS
 10
5.453800
 20
2.268640
  0
VERTEX
  8
0
  6
CONTINUOUS
 10
5.463040
 20
2.321440
  0
SEQEND
  8
0
  0
SOLID
  8
0
 62
    15
 10
5.668960
 20
2.709080
 11
6.313560
 21
3.081760
 12
5.625840
 22
2.671240
 13
6.270440
 23
3.043920
  0
POLYLINE
  8
0
  6
CONTINUOUS
 66
     1
 40
0.000000
 41
0.000000
  0
VERTEX
  8
0
  6
CONTINUOUS
 10
5.668960
 20
2.709080
  0
VERTEX
  8
0
  6
CONTINUOUS
 10
6.313560
 20
3.081760
  0
VERTEX
  8
0
  6
CONTINUOUS
 10
6.270440
 20
3.043920
  0
VERTEX
  8
0
  6
CONTINUOUS
 10
5.625840
 20
2.671240
  0
VERTEX
  8
0
  6
CONTINUOUS
 10
5.668960
 20
2.709080
  0
SEQEND
  8
0
  0
SOLID
  8
0
 62
    15
 10
5.625840
 20
2.671240
 11
6.270440
 21
3.043920
 12
5.585360
 22
2.624160
 13
6.229960
 23
2.996840
  0
POLYLINE
  8
0
  6
CONTINUOUS
 66
     1
 40
0.000000
 41
0.000000
  0
VERTEX
  8
0
  6
CONTINUOUS
 10
5.625840
 20
2.671240
  0
VERTEX
  8
0
  6
CONTINUOUS
 10
6.270440
 20
3.043920
  0
VERTEX
  8
0
  6
CONTINUOUS
 10
6.229960
 20
2.996840
  0
VERTEX
  8
0
  6
CONTINUOUS
 10
5.585360
 20
2.624160
  0
VERTEX
  8
0
  6
CONTINUOUS
 10
5.625840
 20
2.671240
  0
SEQEND
  8
0
  0
SOLID
  8
0
 62
    15
 10
5.585360
 20
2.624160
 11
6.229960
 21
2.996840
 12
5.548400
 22
2.566520
 13
6.193000
 23
2.939200
  0
POLYLINE
  8
0
  6
CONTINUOUS
 66
     1
 40
0.000000
 41
0.000000
  0
VERTEX
  8
0
  6
CONTINUOUS
 10
5.585360
 20
2.624160
  0
VERTEX
  8
0
  6
CONTINUOUS
 10
6.229960
 20
2.996840
  0
VERTEX
  8
0
  6
CONTINUOUS
 10
6.193000
 20
2.939200
  0
VERTEX
  8
0
  6
CONTINUOUS
 10
5.548400
 20
2.566520
  0
VERTEX
  8
0
  6
CONTINUOUS
 10
5.585360
 20
2.624160
  0
SEQEND
  8
0
  0
SOLID
  8
0
 62
    15
 10
5.548400
 20
2.566520
 11
6.193000
 21
2.939200
 12
5.514960
 22
2.497880
 13
6.159560
 23
2.870560
  0
POLYLINE
  8
0
  6
CONTINUOUS
 66
     1
 40
0.000000
 41
0.000000
  0
VERTEX
  8
0
  6
CONTINUOUS
 10
5.548400
 20
2.566520
  0
VERTEX
  8
0
  6
CONTINUOUS
 10
6.193000
 20
2.939200
  0
VERTEX
  8
0
  6
CONTINUOUS
 10
6.159560
 20
2.870560
  0
VERTEX
  8
0
  6
CONTINUOUS
 10
5.514960
 20
2.497880
  0
VERTEX
  8
0
  6
CONTINUOUS
 10
5.548400
 20
2.566520
  0
SEQEND
  8
0
  0
SOLID
  8
0
 62
    15
 10
5.514960
 20
2.497880
 11
6.159560
 21
2.870560
 12
5.486360
 22
2.416480
 13
6.130960
 23
2.789160
  0
POLYLINE
  8
0
  6
CONTINUOUS
 66
     1
 40
0.000000
 41
0.000000
  0
VERTEX
  8
0
  6
CONTINUOUS
 10
5.514960
 20
2.497880
  0
VERTEX
  8
0
  6
CONTINUOUS
 10
6.159560
 20
2.870560
  0
VERTEX
  8
0
  6
CONTINUOUS
 10
6.130960
 20
2.789160
  0
VERTEX
  8
0
  6
CONTINUOUS
 10
5.486360
 20
2.416480
  0
VERTEX
  8
0
  6
CONTINUOUS
 10
5.514960
 20
2.497880
  0
SEQEND
  8
0
  0
SOLID
  8
0
 62
    15
 10
5.486360
 20
2.416480
 11
6.130960
 21
2.789160
 12
5.474040
 22
2.370720
 13
6.118640
 23
2.743400
  0
POLYLINE
  8
0
  6
CONTINUOUS
 66
     1
 40
0.000000
 41
0.000000
  0
VERTEX
  8
0
  6
CONTINUOUS
 10
5.486360
 20
2.416480
  0
VERTEX
  8
0
  6
CONTINUOUS
 10
6.130960
 20
2.789160
  0
VERTEX
  8
0
  6
CONTINUOUS
 10
6.118640
 20
2.743400
  0
VERTEX
  8
0
  6
CONTINUOUS
 10
5.474040
 20
2.370720
  0
VERTEX
  8
0
  6
CONTINUOUS
 10
5.486360
 20
2.416480
  0
SEQEND
  8
0
  0
SOLID
  8
0
 62
    15
 10
5.474040
 20
2.370720
 11
6.118640
 21
2.743400
 12
5.463040
 22
2.321440
 13
6.107640
 23
2.694120
  0
POLYLINE
  8
0
  6
CONTINUOUS
 66
     1
 40
0.000000
 41
0.000000
  0
VERTEX
  8
0
  6
CONTINUOUS
 10
5.474040
 20
2.370720
  0
VERTEX
  8
0
  6
CONTINUOUS
 10
6.118640
 20
2.743400
  0
VERTEX
  8
0
  6
CONTINUOUS
 10
6.107640
 20
2.694120
  0
VERTEX
  8
0
  6
CONTINUOUS
 10
5.463040
 20
2.321440
  0
VERTEX
  8
0
  6
CONTINUOUS
 10
5.474040
 20
2.370720
  0
SEQEND
  8
0
  0
SOLID
  8
0
 62
    15
 10
5.714280
 20
2.738560
 11
6.358880
 21
3.111240
 12
5.668960
 22
2.709080
 13
6.313560
 23
3.081760
  0
POLYLINE
  8
0
  6
CONTINUOUS
 66
     1
 40
0.000000
 41
0.000000
  0
VERTEX
  8
0
  6
CONTINUOUS
 10
5.714280
 20
2.738560
  0
VERTEX
  8
0
  6
CONTINUOUS
 10
6.358880
 20
3.111240
  0
VERTEX
  8
0
  6
CONTINUOUS
 10
6.313560
 20
3.081760
  0
VERTEX
  8
0
  6
CONTINUOUS
 10
5.668960
 20
2.709080
  0
VERTEX
  8
0
  6
CONTINUOUS
 10
5.714280
 20
2.738560
  0
SEQEND
  8
0
  0
SOLID
  8
0
 62
    15
 10
5.453800
 20
2.268640
 11
6.098400
 21
2.641320
 12
5.445880
 22
2.212320
 13
6.090480
 23
2.585000
  0
POLYLINE
  8
0
  6
CONTINUOUS
 66
     1
 40
0.000000
 41
0.000000
  0
VERTEX
  8
0
  6
CONTINUOUS
 10
5.453800
 20
2.268640
  0
VERTEX
  8
0
  6
CONTINUOUS
 10
6.098400
 20
2.641320
  0
VERTEX
  8
0
  6
CONTINUOUS
 10
6.090480
 20
2.585000
  0
VERTEX
  8
0
  6
CONTINUOUS
 10
5.445880
 20
2.212320
  0
VERTEX
  8
0
  6
CONTINUOUS
 10
5.453800
 20
2.268640
  0
SEQEND
  8
0
  0
SOLID
  8
0
 62
    15
 10
5.445880
 20
2.212320
 11
6.090480
 21
2.585000
 12
5.439280
 22
2.151600
 13
6.083880
 23
2.524720
  0
POLYLINE
  8
0
  6
CONTINUOUS
 66
     1
 40
0.000000
 41
0.000000
  0
VERTEX
  8
0
  6
CONTINUOUS
 10
5.445880
 20
2.212320
  0
VERTEX
  8
0
  6
CONTINUOUS
 10
6.090480
 20
2.585000
  0
VERTEX
  8
0
  6
CONTINUOUS
 10
6.083880
 20
2.524720
  0
VERTEX
  8
0
  6
CONTINUOUS
 10
5.439280
 20
2.151600
  0
VERTEX
  8
0
  6
CONTINUOUS
 10
5.445880
 20
2.212320
  0
SEQEND
  8
0
  0
SOLID
  8
0
 62
    15
 10
5.439280
 20
2.151600
 11
6.083880
 21
2.524720
 12
5.434880
 22
2.087360
 13
6.079480
 23
2.460040
  0
POLYLINE
  8
0
  6
CONTINUOUS
 66
     1
 40
0.000000
 41
0.000000
  0
VERTEX
  8
0
  6
CONTINUOUS
 10
5.439280
 20
2.151600
  0
VERTEX
  8
0
  6
CONTINUOUS
 10
6.083880
 20
2.524720
  0
VERTEX
  8
0
  6
CONTINUOUS
 10
6.079480
 20
2.460040
  0
VERTEX
  8
0
  6
CONTINUOUS
 10
5.434880
 20
2.087360
  0
VERTEX
  8
0
  6
CONTINUOUS
 10
5.439280
 20
2.151600
  0
SEQEND
  8
0
  0
SOLID
  8
0
 62
    15
 10
5.434880
 20
2.087360
 11
6.079480
 21
2.460040
 12
5.431800
 22
2.018720
 13
6.076400
 23
2.391400
  0
POLYLINE
  8
0
  6
CONTINUOUS
 66
     1
 40
0.000000
 41
0.000000
  0
VERTEX
  8
0
  6
CONTINUOUS
 10
5.434880
 20
2.087360
  0
VERTEX
  8
0
  6
CONTINUOUS
 10
6.079480
 20
2.460040
  0
VERTEX
  8
0
  6
CONTINUOUS
 10
6.076400
 20
2.391400
  0
VERTEX
  8
0
  6
CONTINUOUS
 10
5.431800
 20
2.018720
  0
VERTEX
  8
0
  6
CONTINUOUS
 10
5.434880
 20
2.087360
  0
SEQEND
  8
0
  0
SOLID
  8
0
 62
    15
 10
5.431800
 20
2.018720
 11
6.076400
 21
2.391400
 12
5.430920
 22
1.946120
 13
6.075520
 23
2.318800
  0
POLYLINE
  8
0
  6
CONTINUOUS
 66
     1
 40
0.000000
 41
0.000000
  0
VERTEX
  8
0
  6
CONTINUOUS
 10
5.431800
 20
2.018720
  0
VERTEX
  8
0
  6
CONTINUOUS
 10
6.076400
 20
2.391400
  0
VERTEX
  8
0
  6
CONTINUOUS
 10
6.075520
 20
2.318800
  0
VERTEX
  8
0
  6
CONTINUOUS
 10
5.430920
 20
1.946120
  0
VERTEX
  8
0
  6
CONTINUOUS
 10
5.431800
 20
2.018720
  0
SEQEND
  8
0
  0
SOLID
  8
0
 62
    15
 10
5.198160
 20
3.540680
 11
5.842760
 21
3.913360
 12
5.992800
 22
3.540680
 13
6.637400
 23
3.913360
  0
POLYLINE
  8
0
  6
CONTINUOUS
 66
     1
 40
0.000000
 41
0.000000
  0
VERTEX
  8
0
  6
CONTINUOUS
 10
5.198160
 20
3.540680
  0
VERTEX
  8
0
  6
CONTINUOUS
 10
5.842760
 20
3.913360
  0
VERTEX
  8
0
  6
CONTINUOUS
 10
6.637400
 20
3.913360
  0
VERTEX
  8
0
  6
CONTINUOUS
 10
5.992800
 20
3.540680
  0
VERTEX
  8
0
  6
CONTINUOUS
 10
5.198160
 20
3.540680
  0
SEQEND
  8
0
  0
SOLID
  8
0
 62
    15
 10
5.992800
 20
3.540680
 11
6.637400
 21
3.913360
 12
5.992800
 22
2.795760
 13
6.637400
 23
3.168440
  0
POLYLINE
  8
0
  6
CONTINUOUS
 66
     1
 40
0.000000
 41
0.000000
  0
VERTEX
  8
0
  6
CONTINUOUS
 10
5.992800
 20
3.540680
  0
VERTEX
  8
0
  6
CONTINUOUS
 10
6.637400
 20
3.913360
  0
VERTEX
  8
0
  6
CONTINUOUS
 10
6.637400
 20
3.168440
  0
VERTEX
  8
0
  6
CONTINUOUS
 10
5.992800
 20
2.795760
  0
VERTEX
  8
0
  6
CONTINUOUS
 10
5.992800
 20
3.540680
  0
SEQEND
  8
0
  0
POLYLINE
  8
0
  6
CONTINUOUS
 66
     1
 40
0.000000
 41
0.000000
  0
VERTEX
  8
0
  6
CONTINUOUS
 10
5.992800
 20
2.795760
  0
VERTEX
  8
0
  6
CONTINUOUS
 10
5.902600
 20
2.792680
  0
VERTEX
  8
0
  6
CONTINUOUS
 10
5.855960
 20
2.786520
  0
VERTEX
  8
0
  6
CONTINUOUS
 10
5.808000
 20
2.775960
  0
VERTEX
  8
0
  6
CONTINUOUS
 10
5.760920
 20
2.760560
  0
VERTEX
  8
0
  6
CONTINUOUS
 10
5.714280
 20
2.738560
  0
VERTEX
  8
0
  6
CONTINUOUS
 10
5.668960
 20
2.709080
  0
VERTEX
  8
0
  6
CONTINUOUS
 10
5.625840
 20
2.671240
  0
VERTEX
  8
0
  6
CONTINUOUS
 10
5.585360
 20
2.624160
  0
VERTEX
  8
0
  6
CONTINUOUS
 10
5.548400
 20
2.566520
  0
VERTEX
  8
0
  6
CONTINUOUS
 10
5.514960
 20
2.497880
  0
VERTEX
  8
0
  6
CONTINUOUS
 10
5.486360
 20
2.416480
  0
VERTEX
  8
0
  6
CONTINUOUS
 10
5.474040
 20
2.370720
  0
VERTEX
  8
0
  6
CONTINUOUS
 10
5.463040
 20
2.321440
  0
VERTEX
  8
0
  6
CONTINUOUS
 10
5.453800
 20
2.268640
  0
VERTEX
  8
0
  6
CONTINUOUS
 10
5.445880
 20
2.212320
  0
VERTEX
  8
0
  6
CONTINUOUS
 10
5.439280
 20
2.151600
  0
VERTEX
  8
0
  6
CONTINUOUS
 10
5.434880
 20
2.087360
  0
VERTEX
  8
0
  6
CONTINUOUS
 10
5.431800
 20
2.018720
  0
VERTEX
  8
0
  6
CONTINUOUS
 10
5.430920
 20
1.946120
  0
VERTEX
  8
0
  6
CONTINUOUS
 10
5.198160
 20
1.946120
  0
VERTEX
  8
0
  6
CONTINUOUS
 10
5.198160
 20
3.540680
  0
VERTEX
  8
0
  6
CONTINUOUS
 10
5.992800
 20
3.540680
  0
VERTEX
  8
0
  6
CONTINUOUS
 10
5.992800
 20
2.795760
  0
SEQEND
  8
0
  0
POLYLINE
  8
0
  6
CONTINUOUS
 66
     1
 40
0.000000
 41
0.000000
  0
VERTEX
  8
0
  6
CONTINUOUS
 10
4.054600
 20
2.764960
  0
VERTEX
  8
0
  6
CONTINUOUS
 10
4.055040
 20
2.720960
  0
VERTEX
  8
0
  6
CONTINUOUS
 10
4.060320
 20
2.651440
  0
VERTEX
  8
0
  6
CONTINUOUS
 10
4.068680
 20
2.603920
  0
VERTEX
  8
0
  6
CONTINUOUS
 10
4.081440
 20
2.556400
  0
VERTEX
  8
0
  6
CONTINUOUS
 10
4.100360
 20
2.509320
  0
VERTEX
  8
0
  6
CONTINUOUS
 10
4.125880
 20
2.463120
  0
VERTEX
  8
0
  6
CONTINUOUS
 10
4.141720
 20
2.440680
  0
VERTEX
  8
0
  6
CONTINUOUS
 10
4.159320
 20
2.419120
  0
VERTEX
  8
0
  6
CONTINUOUS
 10
4.201560
 20
2.376880
  0
VERTEX
  8
0
  6
CONTINUOUS
 10
4.239840
 20
2.347400
  0
VERTEX
  8
0
  6
CONTINUOUS
 10
4.283840
 20
2.320120
  0
VERTEX
  8
0
  6
CONTINUOUS
 10
4.334440
 20
2.294600
  0
VERTEX
  8
0
  6
CONTINUOUS
 10
4.392080
 20
2.271720
  0
VERTEX
  8
0
  6
CONTINUOUS
 10
4.456760
 20
2.251920
  0
VERTEX
  8
0
  6
CONTINUOUS
 10
4.529360
 20
2.234760
  0
VERTEX
  8
0
  6
CONTINUOUS
 10
4.609880
 20
2.221120
  0
VERTEX
  8
0
  6
CONTINUOUS
 10
4.698760
 20
2.211000
  0
VERTEX
  8
0
  6
CONTINUOUS
 10
4.797320
 20
2.204840
  0
VERTEX
  8
0
  6
CONTINUOUS
 10
4.904680
 20
2.202640
  0
VERTEX
  8
0
  6
CONTINUOUS
 10
4.904680
 20
1.969880
  0
VERTEX
  8
0
  6
CONTINUOUS
 10
3.310120
 20
1.969880
  0
VERTEX
  8
0
  6
CONTINUOUS
 10
3.310120
 20
2.764960
  0
VERTEX
  8
0
  6
CONTINUOUS
 10
4.054600
 20
2.764960
  0
SEQEND
  8
0
  0
TEXT
  8
0
 10
3.805560
 20
2.230800
 40
0.138229
  1
856
 41
1.000000
  7
SN0
 71
     0
 72
     5
 11
4.082433
 21
2.230800
  0
TEXT
  8
0
 10
3.446520
 20
2.038960
 40
0.138229
  1
3/4" x 1-9/16"
 41
1.000000
  7
SN0
 71
     0
 72
     5
 11
4.438715
 21
2.038960
  0
ENDSEC
  0
EOF
