  0
SECTION
  2
HEADER
  9
$ACADVER
  1
AC1006
  9
$EXTMIN
 10
2.112440
 20
0.762960
  9
$EXTMAX
 10
7.205440
 20
4.007960
  9
$LTSCALE
 40
0.044000
  9
$PDMODE
 70
    35
  9
$PDSIZE
 40
0.035200
  0
ENDSEC
  0
SECTION
  2
TABLES
  0
TABLE
  2
LTYPE
 70
     9
  0
LTYPE
  2
CONTINUOUS
 70
    64
  3
Solid line
 72
    65
 73
     0
 40
0.000000
  0
LTYPE
  2
DASHED
 70
    64
  3
__ __ __ __ __ __ __ __ __ __ __ __ __ __ __
 72
    65
 73
     2
 40
0.000330
 49
0.000220
 49
-0.000110
  0
LTYPE
  2
HIDDEN
 70
    64
  3
 _ _ _ _ _ _ _ _ _ _ _ _ _ _ _ _ _ _ _ _ _ _
 72
    65
 73
     2
 40
0.000165
 49
0.000110
 49
-0.000055
  0
LTYPE
  2
CENTER
 70
    64
  3
____ _ ____ _ ____ _ ____ _ ____ _ ____ _ ____
 72
    65
 73
     4
 40
0.000880
 49
0.000550
 49
-0.000110
 49
0.000110
 49
-0.000110
  0
LTYPE
  2
PHANTOM
 70
    64
  3
_____ _ _ _____ _ _ _____ _ _ _____ _ _ ____
 72
    65
 73
     6
 40
0.001100
 49
0.000550
 49
-0.000110
 49
0.000110
 49
-0.000110
 49
0.000110
 49
-0.000110
  0
LTYPE
  2
DOT
 70
    64
  3
...............................................
 72
    65
 73
     2
 40
0.000110
 49
0.000000
 49
-0.000110
  0
LTYPE
  2
DASHDOT
 70
    64
  3
__ . __ . __ . __ . __ . __ . __ . __ . __ . __
 72
    65
 73
     4
 40
0.000440
 49
0.000220
 49
-0.000110
 49
0.000000
 49
-0.000110
  0
LTYPE
  2
BORDER
 70
    64
  3
__ __ . __ __ . __ __ . __ __ . __ __ . __ __
 72
    65
 73
     6
 40
0.000770
 49
0.000220
 49
-0.000110
 49
0.000220
 49
-0.000110
 49
0.000000
 49
-0.000110
  0
LTYPE
  2
DIVIDE
 70
    64
  3
__ . . __ . . __ . . __ . . __ . . __ . . __
 72
    65
 73
     6
 40
0.000550
 49
0.000220
 49
-0.000110
 49
0.000000
 49
-0.000110
 49
0.000000
 49
-0.000110
  0
LTYPE
  2
DOTDOT
 70
    64
  3
 . .  . .  . .  . .  . .  . . 
 72
    65
 73
     5
 40
0.000242
 49
-0.000110
 49
0.000000
 49
-0.000110
 49
0.000000
 49
-0.000110
  0
ENDTAB
  0
TABLE
  2
STYLE
 70
     2
  0
STYLE
 70
     0
  2
SN0
 40
0.000000
 41
0.000440
 50
0.000000
 71
     0
 42
0.000000
  3
ROMAND
  0
STYLE
 70
    68
  2
SV0
 40
0.000000
 41
0.000440
 50
0.000000
 71
     0
 42
0.000000
  3
ROMAND
  0
ENDTAB
  0
TABLE
  2
LAYER
 70
     3
  0
LAYER
  2
FOREGROUND
 70
    64
 62
     7
  6
CONTINUOUS
  0
LAYER
  2
BACKGROUND
 70
    65
 62
    -7
  6
CONTINUOUS
  0
LAYER
  2
0
 70
    64
 62
     7
  6
CONTINUOUS
  0
ENDTAB
  0
ENDSEC
  0
SECTION
  2
ENTITIES
  0
POLYLINE
  8
FOREGROUND
  6
CONTINUOUS
 66
     1
 40
0.000000
 41
0.000000
  0
VERTEX
  8
FOREGROUND
  6
CONTINUOUS
 10
0.000000
 20
4.770920
  0
VERTEX
  8
FOREGROUND
  6
CONTINUOUS
 10
8.499920
 20
4.770920
  0
VERTEX
  8
FOREGROUND
  6
CONTINUOUS
 10
8.499920
 20
-6.229080
  0
VERTEX
  8
FOREGROUND
  6
CONTINUOUS
 10
0.000000
 20
-6.229080
  0
VERTEX
  8
FOREGROUND
  6
CONTINUOUS
 10
0.000000
 20
4.770920
  0
SEQEND
  8
0
  0
POLYLINE
  8
FOREGROUND
  6
CONTINUOUS
 66
     1
 40
0.000000
 41
0.000000
  0
VERTEX
  8
FOREGROUND
  6
CONTINUOUS
 10
0.000000
 20
4.770920
  0
VERTEX
  8
FOREGROUND
  6
CONTINUOUS
 10
8.499920
 20
4.770920
  0
VERTEX
  8
FOREGROUND
  6
CONTINUOUS
 10
8.499920
 20
-6.229080
  0
VERTEX
  8
FOREGROUND
  6
CONTINUOUS
 10
0.000000
 20
-6.229080
  0
VERTEX
  8
FOREGROUND
  6
CONTINUOUS
 10
0.000000
 20
4.770920
  0
SEQEND
  8
0
  0
SOLID
  8
0
 62
    15
 10
4.683360
 20
1.925880
 11
4.680280
 21
2.658920
 12
4.700960
 22
1.926760
 13
4.697880
 23
2.659800
  0
POLYLINE
  8
0
  6
CONTINUOUS
 66
     1
 40
0.000000
 41
0.000000
  0
VERTEX
  8
0
  6
CONTINUOUS
 10
4.683360
 20
1.925880
  0
VERTEX
  8
0
  6
CONTINUOUS
 10
4.680280
 20
2.658920
  0
VERTEX
  8
0
  6
CONTINUOUS
 10
4.697880
 20
2.659800
  0
VERTEX
  8
0
  6
CONTINUOUS
 10
4.700960
 20
1.926760
  0
VERTEX
  8
0
  6
CONTINUOUS
 10
4.683360
 20
1.925880
  0
SEQEND
  8
0
  0
SOLID
  8
0
 62
    15
 10
2.189440
 20
1.945680
 11
2.186360
 21
2.679160
 12
2.192520
 22
1.968560
 13
2.189440
 23
2.701600
  0
POLYLINE
  8
0
  6
CONTINUOUS
 66
     1
 40
0.000000
 41
0.000000
  0
VERTEX
  8
0
  6
CONTINUOUS
 10
2.189440
 20
1.945680
  0
VERTEX
  8
0
  6
CONTINUOUS
 10
2.186360
 20
2.679160
  0
VERTEX
  8
0
  6
CONTINUOUS
 10
2.189440
 20
2.701600
  0
VERTEX
  8
0
  6
CONTINUOUS
 10
2.192520
 20
1.968560
  0
VERTEX
  8
0
  6
CONTINUOUS
 10
2.189440
 20
1.945680
  0
SEQEND
  8
0
  0
SOLID
  8
0
 62
    15
 10
2.192520
 20
1.968560
 11
2.189440
 21
2.701600
 12
2.200880
 22
1.980880
 13
2.198240
 23
2.713920
  0
POLYLINE
  8
0
  6
CONTINUOUS
 66
     1
 40
0.000000
 41
0.000000
  0
VERTEX
  8
0
  6
CONTINUOUS
 10
2.192520
 20
1.968560
  0
VERTEX
  8
0
  6
CONTINUOUS
 10
2.189440
 20
2.701600
  0
VERTEX
  8
0
  6
CONTINUOUS
 10
2.198240
 20
2.713920
  0
VERTEX
  8
0
  6
CONTINUOUS
 10
2.200880
 20
1.980880
  0
VERTEX
  8
0
  6
CONTINUOUS
 10
2.192520
 20
1.968560
  0
SEQEND
  8
0
  0
SOLID
  8
0
 62
    15
 10
2.200880
 20
1.980880
 11
2.198240
 21
2.713920
 12
2.214960
 22
1.986160
 13
2.211880
 23
2.719200
  0
POLYLINE
  8
0
  6
CONTINUOUS
 66
     1
 40
0.000000
 41
0.000000
  0
VERTEX
  8
0
  6
CONTINUOUS
 10
2.200880
 20
1.980880
  0
VERTEX
  8
0
  6
CONTINUOUS
 10
2.198240
 20
2.713920
  0
VERTEX
  8
0
  6
CONTINUOUS
 10
2.211880
 20
2.719200
  0
VERTEX
  8
0
  6
CONTINUOUS
 10
2.214960
 20
1.986160
  0
VERTEX
  8
0
  6
CONTINUOUS
 10
2.200880
 20
1.980880
  0
SEQEND
  8
0
  0
SOLID
  8
0
 62
    15
 10
2.214960
 20
1.986160
 11
2.211880
 21
2.719200
 12
2.233440
 22
1.987040
 13
2.230360
 23
2.720080
  0
POLYLINE
  8
0
  6
CONTINUOUS
 66
     1
 40
0.000000
 41
0.000000
  0
VERTEX
  8
0
  6
CONTINUOUS
 10
2.214960
 20
1.986160
  0
VERTEX
  8
0
  6
CONTINUOUS
 10
2.211880
 20
2.719200
  0
VERTEX
  8
0
  6
CONTINUOUS
 10
2.230360
 20
2.720080
  0
VERTEX
  8
0
  6
CONTINUOUS
 10
2.233440
 20
1.987040
  0
VERTEX
  8
0
  6
CONTINUOUS
 10
2.214960
 20
1.986160
  0
SEQEND
  8
0
  0
SOLID
  8
0
 62
    15
 10
2.233440
 20
1.987040
 11
2.230360
 21
2.720080
 12
2.932160
 22
1.987040
 13
2.929080
 23
2.720080
  0
POLYLINE
  8
0
  6
CONTINUOUS
 66
     1
 40
0.000000
 41
0.000000
  0
VERTEX
  8
0
  6
CONTINUOUS
 10
2.233440
 20
1.987040
  0
VERTEX
  8
0
  6
CONTINUOUS
 10
2.230360
 20
2.720080
  0
VERTEX
  8
0
  6
CONTINUOUS
 10
2.929080
 20
2.720080
  0
VERTEX
  8
0
  6
CONTINUOUS
 10
2.932160
 20
1.987040
  0
VERTEX
  8
0
  6
CONTINUOUS
 10
2.233440
 20
1.987040
  0
SEQEND
  8
0
  0
SOLID
  8
0
 62
    15
 10
2.932160
 20
1.987040
 11
2.929080
 21
2.720080
 12
2.940520
 22
1.902120
 13
2.937440
 23
2.635160
  0
POLYLINE
  8
0
  6
CONTINUOUS
 66
     1
 40
0.000000
 41
0.000000
  0
VERTEX
  8
0
  6
CONTINUOUS
 10
2.932160
 20
1.987040
  0
VERTEX
  8
0
  6
CONTINUOUS
 10
2.929080
 20
2.720080
  0
VERTEX
  8
0
  6
CONTINUOUS
 10
2.937440
 20
2.635160
  0
VERTEX
  8
0
  6
CONTINUOUS
 10
2.940520
 20
1.902120
  0
VERTEX
  8
0
  6
CONTINUOUS
 10
2.932160
 20
1.987040
  0
SEQEND
  8
0
  0
SOLID
  8
0
 62
    15
 10
2.940520
 20
1.902120
 11
2.937440
 21
2.635160
 12
2.973960
 22
1.937320
 13
2.970880
 23
2.670360
  0
POLYLINE
  8
0
  6
CONTINUOUS
 66
     1
 40
0.000000
 41
0.000000
  0
VERTEX
  8
0
  6
CONTINUOUS
 10
2.940520
 20
1.902120
  0
VERTEX
  8
0
  6
CONTINUOUS
 10
2.937440
 20
2.635160
  0
VERTEX
  8
0
  6
CONTINUOUS
 10
2.970880
 20
2.670360
  0
VERTEX
  8
0
  6
CONTINUOUS
 10
2.973960
 20
1.937320
  0
VERTEX
  8
0
  6
CONTINUOUS
 10
2.940520
 20
1.902120
  0
SEQEND
  8
0
  0
SOLID
  8
0
 62
    15
 10
2.973960
 20
1.937320
 11
2.970880
 21
2.670360
 12
3.013560
 22
1.962400
 13
3.010920
 23
2.695440
  0
POLYLINE
  8
0
  6
CONTINUOUS
 66
     1
 40
0.000000
 41
0.000000
  0
VERTEX
  8
0
  6
CONTINUOUS
 10
2.973960
 20
1.937320
  0
VERTEX
  8
0
  6
CONTINUOUS
 10
2.970880
 20
2.670360
  0
VERTEX
  8
0
  6
CONTINUOUS
 10
3.010920
 20
2.695440
  0
VERTEX
  8
0
  6
CONTINUOUS
 10
3.013560
 20
1.962400
  0
VERTEX
  8
0
  6
CONTINUOUS
 10
2.973960
 20
1.937320
  0
SEQEND
  8
0
  0
SOLID
  8
0
 62
    15
 10
3.013560
 20
1.962400
 11
3.010920
 21
2.695440
 12
3.058000
 22
1.976920
 13
3.054920
 23
2.709960
  0
POLYLINE
  8
0
  6
CONTINUOUS
 66
     1
 40
0.000000
 41
0.000000
  0
VERTEX
  8
0
  6
CONTINUOUS
 10
3.013560
 20
1.962400
  0
VERTEX
  8
0
  6
CONTINUOUS
 10
3.010920
 20
2.695440
  0
VERTEX
  8
0
  6
CONTINUOUS
 10
3.054920
 20
2.709960
  0
VERTEX
  8
0
  6
CONTINUOUS
 10
3.058000
 20
1.976920
  0
VERTEX
  8
0
  6
CONTINUOUS
 10
3.013560
 20
1.962400
  0
SEQEND
  8
0
  0
SOLID
  8
0
 62
    15
 10
3.058000
 20
1.976920
 11
3.054920
 21
2.709960
 12
3.104640
 22
1.980880
 13
3.101560
 23
2.713920
  0
POLYLINE
  8
0
  6
CONTINUOUS
 66
     1
 40
0.000000
 41
0.000000
  0
VERTEX
  8
0
  6
CONTINUOUS
 10
3.058000
 20
1.976920
  0
VERTEX
  8
0
  6
CONTINUOUS
 10
3.054920
 20
2.709960
  0
VERTEX
  8
0
  6
CONTINUOUS
 10
3.101560
 20
2.713920
  0
VERTEX
  8
0
  6
CONTINUOUS
 10
3.104640
 20
1.980880
  0
VERTEX
  8
0
  6
CONTINUOUS
 10
3.058000
 20
1.976920
  0
SEQEND
  8
0
  0
SOLID
  8
0
 62
    15
 10
3.104640
 20
1.980880
 11
3.101560
 21
2.713920
 12
3.150400
 22
1.973840
 13
3.147760
 23
2.706880
  0
POLYLINE
  8
0
  6
CONTINUOUS
 66
     1
 40
0.000000
 41
0.000000
  0
VERTEX
  8
0
  6
CONTINUOUS
 10
3.104640
 20
1.980880
  0
VERTEX
  8
0
  6
CONTINUOUS
 10
3.101560
 20
2.713920
  0
VERTEX
  8
0
  6
CONTINUOUS
 10
3.147760
 20
2.706880
  0
VERTEX
  8
0
  6
CONTINUOUS
 10
3.150400
 20
1.973840
  0
VERTEX
  8
0
  6
CONTINUOUS
 10
3.104640
 20
1.980880
  0
SEQEND
  8
0
  0
SOLID
  8
0
 62
    15
 10
3.150400
 20
1.973840
 11
3.147760
 21
2.706880
 12
3.194400
 22
1.955360
 13
3.191320
 23
2.688400
  0
POLYLINE
  8
0
  6
CONTINUOUS
 66
     1
 40
0.000000
 41
0.000000
  0
VERTEX
  8
0
  6
CONTINUOUS
 10
3.150400
 20
1.973840
  0
VERTEX
  8
0
  6
CONTINUOUS
 10
3.147760
 20
2.706880
  0
VERTEX
  8
0
  6
CONTINUOUS
 10
3.191320
 20
2.688400
  0
VERTEX
  8
0
  6
CONTINUOUS
 10
3.194400
 20
1.955360
  0
VERTEX
  8
0
  6
CONTINUOUS
 10
3.150400
 20
1.973840
  0
SEQEND
  8
0
  0
SOLID
  8
0
 62
    15
 10
3.194400
 20
1.955360
 11
3.191320
 21
2.688400
 12
3.233120
 22
1.925000
 13
3.230480
 23
2.658040
  0
POLYLINE
  8
0
  6
CONTINUOUS
 66
     1
 40
0.000000
 41
0.000000
  0
VERTEX
  8
0
  6
CONTINUOUS
 10
3.194400
 20
1.955360
  0
VERTEX
  8
0
  6
CONTINUOUS
 10
3.191320
 20
2.688400
  0
VERTEX
  8
0
  6
CONTINUOUS
 10
3.230480
 20
2.658040
  0
VERTEX
  8
0
  6
CONTINUOUS
 10
3.233120
 20
1.925000
  0
VERTEX
  8
0
  6
CONTINUOUS
 10
3.194400
 20
1.955360
  0
SEQEND
  8
0
  0
SOLID
  8
0
 62
    15
 10
3.233120
 20
1.925000
 11
3.230480
 21
2.658040
 12
3.250280
 22
1.905640
 13
3.247200
 23
2.638680
  0
POLYLINE
  8
0
  6
CONTINUOUS
 66
     1
 40
0.000000
 41
0.000000
  0
VERTEX
  8
0
  6
CONTINUOUS
 10
3.233120
 20
1.925000
  0
VERTEX
  8
0
  6
CONTINUOUS
 10
3.230480
 20
2.658040
  0
VERTEX
  8
0
  6
CONTINUOUS
 10
3.247200
 20
2.638680
  0
VERTEX
  8
0
  6
CONTINUOUS
 10
3.250280
 20
1.905640
  0
VERTEX
  8
0
  6
CONTINUOUS
 10
3.233120
 20
1.925000
  0
SEQEND
  8
0
  0
SOLID
  8
0
 62
    15
 10
3.250280
 20
1.905640
 11
3.247200
 21
2.638680
 12
3.265240
 22
1.882760
 13
3.262160
 23
2.615800
  0
POLYLINE
  8
0
  6
CONTINUOUS
 66
     1
 40
0.000000
 41
0.000000
  0
VERTEX
  8
0
  6
CONTINUOUS
 10
3.250280
 20
1.905640
  0
VERTEX
  8
0
  6
CONTINUOUS
 10
3.247200
 20
2.638680
  0
VERTEX
  8
0
  6
CONTINUOUS
 10
3.262160
 20
2.615800
  0
VERTEX
  8
0
  6
CONTINUOUS
 10
3.265240
 20
1.882760
  0
VERTEX
  8
0
  6
CONTINUOUS
 10
3.250280
 20
1.905640
  0
SEQEND
  8
0
  0
SOLID
  8
0
 62
    15
 10
3.265240
 20
1.882760
 11
3.262160
 21
2.615800
 12
3.291200
 22
1.913560
 13
3.288560
 23
2.646600
  0
POLYLINE
  8
0
  6
CONTINUOUS
 66
     1
 40
0.000000
 41
0.000000
  0
VERTEX
  8
0
  6
CONTINUOUS
 10
3.265240
 20
1.882760
  0
VERTEX
  8
0
  6
CONTINUOUS
 10
3.262160
 20
2.615800
  0
VERTEX
  8
0
  6
CONTINUOUS
 10
3.288560
 20
2.646600
  0
VERTEX
  8
0
  6
CONTINUOUS
 10
3.291200
 20
1.913560
  0
VERTEX
  8
0
  6
CONTINUOUS
 10
3.265240
 20
1.882760
  0
SEQEND
  8
0
  0
SOLID
  8
0
 62
    15
 10
3.291200
 20
1.913560
 11
3.288560
 21
2.646600
 12
3.325960
 22
1.936440
 13
3.322880
 23
2.669920
  0
POLYLINE
  8
0
  6
CONTINUOUS
 66
     1
 40
0.000000
 41
0.000000
  0
VERTEX
  8
0
  6
CONTINUOUS
 10
3.291200
 20
1.913560
  0
VERTEX
  8
0
  6
CONTINUOUS
 10
3.288560
 20
2.646600
  0
VERTEX
  8
0
  6
CONTINUOUS
 10
3.322880
 20
2.669920
  0
VERTEX
  8
0
  6
CONTINUOUS
 10
3.325960
 20
1.936440
  0
VERTEX
  8
0
  6
CONTINUOUS
 10
3.291200
 20
1.913560
  0
SEQEND
  8
0
  0
SOLID
  8
0
 62
    15
 10
3.325960
 20
1.936440
 11
3.322880
 21
2.669920
 12
3.368640
 22
1.950960
 13
3.365560
 23
2.684000
  0
POLYLINE
  8
0
  6
CONTINUOUS
 66
     1
 40
0.000000
 41
0.000000
  0
VERTEX
  8
0
  6
CONTINUOUS
 10
3.325960
 20
1.936440
  0
VERTEX
  8
0
  6
CONTINUOUS
 10
3.322880
 20
2.669920
  0
VERTEX
  8
0
  6
CONTINUOUS
 10
3.365560
 20
2.684000
  0
VERTEX
  8
0
  6
CONTINUOUS
 10
3.368640
 20
1.950960
  0
VERTEX
  8
0
  6
CONTINUOUS
 10
3.325960
 20
1.936440
  0
SEQEND
  8
0
  0
SOLID
  8
0
 62
    15
 10
3.368640
 20
1.950960
 11
3.365560
 21
2.684000
 12
3.418800
 22
1.954920
 13
3.415720
 23
2.688400
  0
POLYLINE
  8
0
  6
CONTINUOUS
 66
     1
 40
0.000000
 41
0.000000
  0
VERTEX
  8
0
  6
CONTINUOUS
 10
3.368640
 20
1.950960
  0
VERTEX
  8
0
  6
CONTINUOUS
 10
3.365560
 20
2.684000
  0
VERTEX
  8
0
  6
CONTINUOUS
 10
3.415720
 20
2.688400
  0
VERTEX
  8
0
  6
CONTINUOUS
 10
3.418800
 20
1.954920
  0
VERTEX
  8
0
  6
CONTINUOUS
 10
3.368640
 20
1.950960
  0
SEQEND
  8
0
  0
SOLID
  8
0
 62
    15
 10
3.418800
 20
1.954920
 11
3.415720
 21
2.688400
 12
3.446520
 22
1.953160
 13
3.443440
 23
2.686200
  0
POLYLINE
  8
0
  6
CONTINUOUS
 66
     1
 40
0.000000
 41
0.000000
  0
VERTEX
  8
0
  6
CONTINUOUS
 10
3.418800
 20
1.954920
  0
VERTEX
  8
0
  6
CONTINUOUS
 10
3.415720
 20
2.688400
  0
VERTEX
  8
0
  6
CONTINUOUS
 10
3.443440
 20
2.686200
  0
VERTEX
  8
0
  6
CONTINUOUS
 10
3.446520
 20
1.953160
  0
VERTEX
  8
0
  6
CONTINUOUS
 10
3.418800
 20
1.954920
  0
SEQEND
  8
0
  0
SOLID
  8
0
 62
    15
 10
3.446520
 20
1.953160
 11
3.443440
 21
2.686200
 12
3.476000
 22
1.947880
 13
3.472920
 23
2.680920
  0
POLYLINE
  8
0
  6
CONTINUOUS
 66
     1
 40
0.000000
 41
0.000000
  0
VERTEX
  8
0
  6
CONTINUOUS
 10
3.446520
 20
1.953160
  0
VERTEX
  8
0
  6
CONTINUOUS
 10
3.443440
 20
2.686200
  0
VERTEX
  8
0
  6
CONTINUOUS
 10
3.472920
 20
2.680920
  0
VERTEX
  8
0
  6
CONTINUOUS
 10
3.476000
 20
1.947880
  0
VERTEX
  8
0
  6
CONTINUOUS
 10
3.446520
 20
1.953160
  0
SEQEND
  8
0
  0
SOLID
  8
0
 62
    15
 10
3.476000
 20
1.947880
 11
3.472920
 21
2.680920
 12
3.506800
 22
1.939520
 13
3.504160
 23
2.673000
  0
POLYLINE
  8
0
  6
CONTINUOUS
 66
     1
 40
0.000000
 41
0.000000
  0
VERTEX
  8
0
  6
CONTINUOUS
 10
3.476000
 20
1.947880
  0
VERTEX
  8
0
  6
CONTINUOUS
 10
3.472920
 20
2.680920
  0
VERTEX
  8
0
  6
CONTINUOUS
 10
3.504160
 20
2.673000
  0
VERTEX
  8
0
  6
CONTINUOUS
 10
3.506800
 20
1.939520
  0
VERTEX
  8
0
  6
CONTINUOUS
 10
3.476000
 20
1.947880
  0
SEQEND
  8
0
  0
SOLID
  8
0
 62
    15
 10
3.506800
 20
1.939520
 11
3.504160
 21
2.673000
 12
3.539800
 22
1.928080
 13
3.536720
 23
2.661120
  0
POLYLINE
  8
0
  6
CONTINUOUS
 66
     1
 40
0.000000
 41
0.000000
  0
VERTEX
  8
0
  6
CONTINUOUS
 10
3.506800
 20
1.939520
  0
VERTEX
  8
0
  6
CONTINUOUS
 10
3.504160
 20
2.673000
  0
VERTEX
  8
0
  6
CONTINUOUS
 10
3.536720
 20
2.661120
  0
VERTEX
  8
0
  6
CONTINUOUS
 10
3.539800
 20
1.928080
  0
VERTEX
  8
0
  6
CONTINUOUS
 10
3.506800
 20
1.939520
  0
SEQEND
  8
0
  0
SOLID
  8
0
 62
    15
 10
3.539800
 20
1.928080
 11
3.536720
 21
2.661120
 12
3.574120
 22
1.912680
 13
3.571040
 23
2.646160
  0
POLYLINE
  8
0
  6
CONTINUOUS
 66
     1
 40
0.000000
 41
0.000000
  0
VERTEX
  8
0
  6
CONTINUOUS
 10
3.539800
 20
1.928080
  0
VERTEX
  8
0
  6
CONTINUOUS
 10
3.536720
 20
2.661120
  0
VERTEX
  8
0
  6
CONTINUOUS
 10
3.571040
 20
2.646160
  0
VERTEX
  8
0
  6
CONTINUOUS
 10
3.574120
 20
1.912680
  0
VERTEX
  8
0
  6
CONTINUOUS
 10
3.539800
 20
1.928080
  0
SEQEND
  8
0
  0
SOLID
  8
0
 62
    15
 10
3.574120
 20
1.912680
 11
3.571040
 21
2.646160
 12
3.609760
 22
1.893760
 13
3.606680
 23
2.627240
  0
POLYLINE
  8
0
  6
CONTINUOUS
 66
     1
 40
0.000000
 41
0.000000
  0
VERTEX
  8
0
  6
CONTINUOUS
 10
3.574120
 20
1.912680
  0
VERTEX
  8
0
  6
CONTINUOUS
 10
3.571040
 20
2.646160
  0
VERTEX
  8
0
  6
CONTINUOUS
 10
3.606680
 20
2.627240
  0
VERTEX
  8
0
  6
CONTINUOUS
 10
3.609760
 20
1.893760
  0
VERTEX
  8
0
  6
CONTINUOUS
 10
3.574120
 20
1.912680
  0
SEQEND
  8
0
  0
SOLID
  8
0
 62
    15
 10
3.609760
 20
1.893760
 11
3.606680
 21
2.627240
 12
3.646720
 22
1.871320
 13
3.643640
 23
2.604360
  0
POLYLINE
  8
0
  6
CONTINUOUS
 66
     1
 40
0.000000
 41
0.000000
  0
VERTEX
  8
0
  6
CONTINUOUS
 10
3.609760
 20
1.893760
  0
VERTEX
  8
0
  6
CONTINUOUS
 10
3.606680
 20
2.627240
  0
VERTEX
  8
0
  6
CONTINUOUS
 10
3.643640
 20
2.604360
  0
VERTEX
  8
0
  6
CONTINUOUS
 10
3.646720
 20
1.871320
  0
VERTEX
  8
0
  6
CONTINUOUS
 10
3.609760
 20
1.893760
  0
SEQEND
  8
0
  0
SOLID
  8
0
 62
    15
 10
3.646720
 20
1.871320
 11
3.643640
 21
2.604360
 12
3.685000
 22
1.844480
 13
3.681920
 23
2.577520
  0
POLYLINE
  8
0
  6
CONTINUOUS
 66
     1
 40
0.000000
 41
0.000000
  0
VERTEX
  8
0
  6
CONTINUOUS
 10
3.646720
 20
1.871320
  0
VERTEX
  8
0
  6
CONTINUOUS
 10
3.643640
 20
2.604360
  0
VERTEX
  8
0
  6
CONTINUOUS
 10
3.681920
 20
2.577520
  0
VERTEX
  8
0
  6
CONTINUOUS
 10
3.685000
 20
1.844480
  0
VERTEX
  8
0
  6
CONTINUOUS
 10
3.646720
 20
1.871320
  0
SEQEND
  8
0
  0
SOLID
  8
0
 62
    15
 10
3.685000
 20
1.844480
 11
3.681920
 21
2.577520
 12
3.763320
 22
1.793440
 13
3.760680
 23
2.526480
  0
POLYLINE
  8
0
  6
CONTINUOUS
 66
     1
 40
0.000000
 41
0.000000
  0
VERTEX
  8
0
  6
CONTINUOUS
 10
3.685000
 20
1.844480
  0
VERTEX
  8
0
  6
CONTINUOUS
 10
3.681920
 20
2.577520
  0
VERTEX
  8
0
  6
CONTINUOUS
 10
3.760680
 20
2.526480
  0
VERTEX
  8
0
  6
CONTINUOUS
 10
3.763320
 20
1.793440
  0
VERTEX
  8
0
  6
CONTINUOUS
 10
3.685000
 20
1.844480
  0
SEQEND
  8
0
  0
SOLID
  8
0
 62
    15
 10
3.763320
 20
1.793440
 11
3.760680
 21
2.526480
 12
3.841640
 22
1.754280
 13
3.838560
 23
2.487760
  0
POLYLINE
  8
0
  6
CONTINUOUS
 66
     1
 40
0.000000
 41
0.000000
  0
VERTEX
  8
0
  6
CONTINUOUS
 10
3.763320
 20
1.793440
  0
VERTEX
  8
0
  6
CONTINUOUS
 10
3.760680
 20
2.526480
  0
VERTEX
  8
0
  6
CONTINUOUS
 10
3.838560
 20
2.487760
  0
VERTEX
  8
0
  6
CONTINUOUS
 10
3.841640
 20
1.754280
  0
VERTEX
  8
0
  6
CONTINUOUS
 10
3.763320
 20
1.793440
  0
SEQEND
  8
0
  0
SOLID
  8
0
 62
    15
 10
3.841640
 20
1.754280
 11
3.838560
 21
2.487760
 12
3.919080
 22
1.725680
 13
3.916000
 23
2.458720
  0
POLYLINE
  8
0
  6
CONTINUOUS
 66
     1
 40
0.000000
 41
0.000000
  0
VERTEX
  8
0
  6
CONTINUOUS
 10
3.841640
 20
1.754280
  0
VERTEX
  8
0
  6
CONTINUOUS
 10
3.838560
 20
2.487760
  0
VERTEX
  8
0
  6
CONTINUOUS
 10
3.916000
 20
2.458720
  0
VERTEX
  8
0
  6
CONTINUOUS
 10
3.919080
 20
1.725680
  0
VERTEX
  8
0
  6
CONTINUOUS
 10
3.841640
 20
1.754280
  0
SEQEND
  8
0
  0
SOLID
  8
0
 62
    15
 10
3.919080
 20
1.725680
 11
3.916000
 21
2.458720
 12
3.994760
 22
1.704560
 13
3.991680
 23
2.437600
  0
POLYLINE
  8
0
  6
CONTINUOUS
 66
     1
 40
0.000000
 41
0.000000
  0
VERTEX
  8
0
  6
CONTINUOUS
 10
3.919080
 20
1.725680
  0
VERTEX
  8
0
  6
CONTINUOUS
 10
3.916000
 20
2.458720
  0
VERTEX
  8
0
  6
CONTINUOUS
 10
3.991680
 20
2.437600
  0
VERTEX
  8
0
  6
CONTINUOUS
 10
3.994760
 20
1.704560
  0
VERTEX
  8
0
  6
CONTINUOUS
 10
3.919080
 20
1.725680
  0
SEQEND
  8
0
  0
SOLID
  8
0
 62
    15
 10
3.994760
 20
1.704560
 11
3.991680
 21
2.437600
 12
4.067800
 22
1.690040
 13
4.065160
 23
2.423080
  0
POLYLINE
  8
0
  6
CONTINUOUS
 66
     1
 40
0.000000
 41
0.000000
  0
VERTEX
  8
0
  6
CONTINUOUS
 10
3.994760
 20
1.704560
  0
VERTEX
  8
0
  6
CONTINUOUS
 10
3.991680
 20
2.437600
  0
VERTEX
  8
0
  6
CONTINUOUS
 10
4.065160
 20
2.423080
  0
VERTEX
  8
0
  6
CONTINUOUS
 10
4.067800
 20
1.690040
  0
VERTEX
  8
0
  6
CONTINUOUS
 10
3.994760
 20
1.704560
  0
SEQEND
  8
0
  0
SOLID
  8
0
 62
    15
 10
4.067800
 20
1.690040
 11
4.065160
 21
2.423080
 12
4.137760
 22
1.679480
 13
4.134680
 23
2.412520
  0
POLYLINE
  8
0
  6
CONTINUOUS
 66
     1
 40
0.000000
 41
0.000000
  0
VERTEX
  8
0
  6
CONTINUOUS
 10
4.067800
 20
1.690040
  0
VERTEX
  8
0
  6
CONTINUOUS
 10
4.065160
 20
2.423080
  0
VERTEX
  8
0
  6
CONTINUOUS
 10
4.134680
 20
2.412520
  0
VERTEX
  8
0
  6
CONTINUOUS
 10
4.137760
 20
1.679480
  0
VERTEX
  8
0
  6
CONTINUOUS
 10
4.067800
 20
1.690040
  0
SEQEND
  8
0
  0
SOLID
  8
0
 62
    15
 10
4.137760
 20
1.679480
 11
4.134680
 21
2.412520
 12
4.171200
 22
1.675080
 13
4.168120
 23
2.408560
  0
POLYLINE
  8
0
  6
CONTINUOUS
 66
     1
 40
0.000000
 41
0.000000
  0
VERTEX
  8
0
  6
CONTINUOUS
 10
4.137760
 20
1.679480
  0
VERTEX
  8
0
  6
CONTINUOUS
 10
4.134680
 20
2.412520
  0
VERTEX
  8
0
  6
CONTINUOUS
 10
4.168120
 20
2.408560
  0
VERTEX
  8
0
  6
CONTINUOUS
 10
4.171200
 20
1.675080
  0
VERTEX
  8
0
  6
CONTINUOUS
 10
4.137760
 20
1.679480
  0
SEQEND
  8
0
  0
SOLID
  8
0
 62
    15
 10
4.171200
 20
1.675080
 11
4.168120
 21
2.408560
 12
4.203320
 22
1.671120
 13
4.200240
 23
2.404600
  0
POLYLINE
  8
0
  6
CONTINUOUS
 66
     1
 40
0.000000
 41
0.000000
  0
VERTEX
  8
0
  6
CONTINUOUS
 10
4.171200
 20
1.675080
  0
VERTEX
  8
0
  6
CONTINUOUS
 10
4.168120
 20
2.408560
  0
VERTEX
  8
0
  6
CONTINUOUS
 10
4.200240
 20
2.404600
  0
VERTEX
  8
0
  6
CONTINUOUS
 10
4.203320
 20
1.671120
  0
VERTEX
  8
0
  6
CONTINUOUS
 10
4.171200
 20
1.675080
  0
SEQEND
  8
0
  0
SOLID
  8
0
 62
    15
 10
4.203320
 20
1.671120
 11
4.200240
 21
2.404600
 12
4.263600
 22
1.663640
 13
4.260520
 23
2.396680
  0
POLYLINE
  8
0
  6
CONTINUOUS
 66
     1
 40
0.000000
 41
0.000000
  0
VERTEX
  8
0
  6
CONTINUOUS
 10
4.203320
 20
1.671120
  0
VERTEX
  8
0
  6
CONTINUOUS
 10
4.200240
 20
2.404600
  0
VERTEX
  8
0
  6
CONTINUOUS
 10
4.260520
 20
2.396680
  0
VERTEX
  8
0
  6
CONTINUOUS
 10
4.263600
 20
1.663640
  0
VERTEX
  8
0
  6
CONTINUOUS
 10
4.203320
 20
1.671120
  0
SEQEND
  8
0
  0
SOLID
  8
0
 62
    15
 10
4.263600
 20
1.663640
 11
4.260520
 21
2.396680
 12
4.281200
 22
1.762200
 13
4.278560
 23
2.495240
  0
POLYLINE
  8
0
  6
CONTINUOUS
 66
     1
 40
0.000000
 41
0.000000
  0
VERTEX
  8
0
  6
CONTINUOUS
 10
4.263600
 20
1.663640
  0
VERTEX
  8
0
  6
CONTINUOUS
 10
4.260520
 20
2.396680
  0
VERTEX
  8
0
  6
CONTINUOUS
 10
4.278560
 20
2.495240
  0
VERTEX
  8
0
  6
CONTINUOUS
 10
4.281200
 20
1.762200
  0
VERTEX
  8
0
  6
CONTINUOUS
 10
4.263600
 20
1.663640
  0
SEQEND
  8
0
  0
SOLID
  8
0
 62
    15
 10
4.281200
 20
1.762200
 11
4.278560
 21
2.495240
 12
4.443120
 22
1.762200
 13
4.440040
 23
2.495240
  0
POLYLINE
  8
0
  6
CONTINUOUS
 66
     1
 40
0.000000
 41
0.000000
  0
VERTEX
  8
0
  6
CONTINUOUS
 10
4.281200
 20
1.762200
  0
VERTEX
  8
0
  6
CONTINUOUS
 10
4.278560
 20
2.495240
  0
VERTEX
  8
0
  6
CONTINUOUS
 10
4.440040
 20
2.495240
  0
VERTEX
  8
0
  6
CONTINUOUS
 10
4.443120
 20
1.762200
  0
VERTEX
  8
0
  6
CONTINUOUS
 10
4.281200
 20
1.762200
  0
SEQEND
  8
0
  0
SOLID
  8
0
 62
    15
 10
4.443120
 20
1.762200
 11
4.440040
 21
2.495240
 12
4.453680
 22
1.789040
 13
4.450600
 23
2.522080
  0
POLYLINE
  8
0
  6
CONTINUOUS
 66
     1
 40
0.000000
 41
0.000000
  0
VERTEX
  8
0
  6
CONTINUOUS
 10
4.443120
 20
1.762200
  0
VERTEX
  8
0
  6
CONTINUOUS
 10
4.440040
 20
2.495240
  0
VERTEX
  8
0
  6
CONTINUOUS
 10
4.450600
 20
2.522080
  0
VERTEX
  8
0
  6
CONTINUOUS
 10
4.453680
 20
1.789040
  0
VERTEX
  8
0
  6
CONTINUOUS
 10
4.443120
 20
1.762200
  0
SEQEND
  8
0
  0
SOLID
  8
0
 62
    15
 10
4.453680
 20
1.789040
 11
4.450600
 21
2.522080
 12
4.466880
 22
1.812360
 13
4.464240
 23
2.545840
  0
POLYLINE
  8
0
  6
CONTINUOUS
 66
     1
 40
0.000000
 41
0.000000
  0
VERTEX
  8
0
  6
CONTINUOUS
 10
4.453680
 20
1.789040
  0
VERTEX
  8
0
  6
CONTINUOUS
 10
4.450600
 20
2.522080
  0
VERTEX
  8
0
  6
CONTINUOUS
 10
4.464240
 20
2.545840
  0
VERTEX
  8
0
  6
CONTINUOUS
 10
4.466880
 20
1.812360
  0
VERTEX
  8
0
  6
CONTINUOUS
 10
4.453680
 20
1.789040
  0
SEQEND
  8
0
  0
SOLID
  8
0
 62
    15
 10
4.466880
 20
1.812360
 11
4.464240
 21
2.545840
 12
4.499880
 22
1.851520
 13
4.496800
 23
2.584560
  0
POLYLINE
  8
0
  6
CONTINUOUS
 66
     1
 40
0.000000
 41
0.000000
  0
VERTEX
  8
0
  6
CONTINUOUS
 10
4.466880
 20
1.812360
  0
VERTEX
  8
0
  6
CONTINUOUS
 10
4.464240
 20
2.545840
  0
VERTEX
  8
0
  6
CONTINUOUS
 10
4.496800
 20
2.584560
  0
VERTEX
  8
0
  6
CONTINUOUS
 10
4.499880
 20
1.851520
  0
VERTEX
  8
0
  6
CONTINUOUS
 10
4.466880
 20
1.812360
  0
SEQEND
  8
0
  0
SOLID
  8
0
 62
    15
 10
4.499880
 20
1.851520
 11
4.496800
 21
2.584560
 12
4.538600
 22
1.880560
 13
4.535520
 23
2.613600
  0
POLYLINE
  8
0
  6
CONTINUOUS
 66
     1
 40
0.000000
 41
0.000000
  0
VERTEX
  8
0
  6
CONTINUOUS
 10
4.499880
 20
1.851520
  0
VERTEX
  8
0
  6
CONTINUOUS
 10
4.496800
 20
2.584560
  0
VERTEX
  8
0
  6
CONTINUOUS
 10
4.535520
 20
2.613600
  0
VERTEX
  8
0
  6
CONTINUOUS
 10
4.538600
 20
1.880560
  0
VERTEX
  8
0
  6
CONTINUOUS
 10
4.499880
 20
1.851520
  0
SEQEND
  8
0
  0
SOLID
  8
0
 62
    15
 10
4.538600
 20
1.880560
 11
4.535520
 21
2.613600
 12
4.579080
 22
1.900800
 13
4.576440
 23
2.634280
  0
POLYLINE
  8
0
  6
CONTINUOUS
 66
     1
 40
0.000000
 41
0.000000
  0
VERTEX
  8
0
  6
CONTINUOUS
 10
4.538600
 20
1.880560
  0
VERTEX
  8
0
  6
CONTINUOUS
 10
4.535520
 20
2.613600
  0
VERTEX
  8
0
  6
CONTINUOUS
 10
4.576440
 20
2.634280
  0
VERTEX
  8
0
  6
CONTINUOUS
 10
4.579080
 20
1.900800
  0
VERTEX
  8
0
  6
CONTINUOUS
 10
4.538600
 20
1.880560
  0
SEQEND
  8
0
  0
SOLID
  8
0
 62
    15
 10
4.579080
 20
1.900800
 11
4.576440
 21
2.634280
 12
4.619120
 22
1.914440
 13
4.616040
 23
2.647480
  0
POLYLINE
  8
0
  6
CONTINUOUS
 66
     1
 40
0.000000
 41
0.000000
  0
VERTEX
  8
0
  6
CONTINUOUS
 10
4.579080
 20
1.900800
  0
VERTEX
  8
0
  6
CONTINUOUS
 10
4.576440
 20
2.634280
  0
VERTEX
  8
0
  6
CONTINUOUS
 10
4.616040
 20
2.647480
  0
VERTEX
  8
0
  6
CONTINUOUS
 10
4.619120
 20
1.914440
  0
VERTEX
  8
0
  6
CONTINUOUS
 10
4.579080
 20
1.900800
  0
SEQEND
  8
0
  0
SOLID
  8
0
 62
    15
 10
4.619120
 20
1.914440
 11
4.616040
 21
2.647480
 12
4.654760
 22
1.922360
 13
4.651680
 23
2.655400
  0
POLYLINE
  8
0
  6
CONTINUOUS
 66
     1
 40
0.000000
 41
0.000000
  0
VERTEX
  8
0
  6
CONTINUOUS
 10
4.619120
 20
1.914440
  0
VERTEX
  8
0
  6
CONTINUOUS
 10
4.616040
 20
2.647480
  0
VERTEX
  8
0
  6
CONTINUOUS
 10
4.651680
 20
2.655400
  0
VERTEX
  8
0
  6
CONTINUOUS
 10
4.654760
 20
1.922360
  0
VERTEX
  8
0
  6
CONTINUOUS
 10
4.619120
 20
1.914440
  0
SEQEND
  8
0
  0
SOLID
  8
0
 62
    15
 10
4.654760
 20
1.922360
 11
4.651680
 21
2.655400
 12
4.683360
 22
1.925880
 13
4.680280
 23
2.658920
  0
POLYLINE
  8
0
  6
CONTINUOUS
 66
     1
 40
0.000000
 41
0.000000
  0
VERTEX
  8
0
  6
CONTINUOUS
 10
4.654760
 20
1.922360
  0
VERTEX
  8
0
  6
CONTINUOUS
 10
4.651680
 20
2.655400
  0
VERTEX
  8
0
  6
CONTINUOUS
 10
4.680280
 20
2.658920
  0
VERTEX
  8
0
  6
CONTINUOUS
 10
4.683360
 20
1.925880
  0
VERTEX
  8
0
  6
CONTINUOUS
 10
4.654760
 20
1.922360
  0
SEQEND
  8
0
  0
SOLID
  8
0
 62
    15
 10
4.691280
 20
1.926760
 11
4.688200
 21
2.660240
 12
4.697000
 22
1.926760
 13
4.693920
 23
2.660240
  0
POLYLINE
  8
0
  6
CONTINUOUS
 66
     1
 40
0.000000
 41
0.000000
  0
VERTEX
  8
0
  6
CONTINUOUS
 10
4.691280
 20
1.926760
  0
VERTEX
  8
0
  6
CONTINUOUS
 10
4.688200
 20
2.660240
  0
VERTEX
  8
0
  6
CONTINUOUS
 10
4.693920
 20
2.660240
  0
VERTEX
  8
0
  6
CONTINUOUS
 10
4.697000
 20
1.926760
  0
VERTEX
  8
0
  6
CONTINUOUS
 10
4.691280
 20
1.926760
  0
SEQEND
  8
0
  0
SOLID
  8
0
 62
    15
 10
2.189440
 20
1.246520
 11
2.186360
 21
1.979560
 12
2.189440
 22
1.945680
 13
2.186360
 23
2.679160
  0
POLYLINE
  8
0
  6
CONTINUOUS
 66
     1
 40
0.000000
 41
0.000000
  0
VERTEX
  8
0
  6
CONTINUOUS
 10
2.189440
 20
1.246520
  0
VERTEX
  8
0
  6
CONTINUOUS
 10
2.186360
 20
1.979560
  0
VERTEX
  8
0
  6
CONTINUOUS
 10
2.186360
 20
2.679160
  0
VERTEX
  8
0
  6
CONTINUOUS
 10
2.189440
 20
1.945680
  0
VERTEX
  8
0
  6
CONTINUOUS
 10
2.189440
 20
1.246520
  0
SEQEND
  8
0
  0
SOLID
  8
0
 62
    15
 10
4.697000
 20
1.926760
 11
4.693920
 21
2.660240
 12
4.706240
 22
1.926320
 13
4.703160
 23
2.659800
  0
POLYLINE
  8
0
  6
CONTINUOUS
 66
     1
 40
0.000000
 41
0.000000
  0
VERTEX
  8
0
  6
CONTINUOUS
 10
4.697000
 20
1.926760
  0
VERTEX
  8
0
  6
CONTINUOUS
 10
4.693920
 20
2.660240
  0
VERTEX
  8
0
  6
CONTINUOUS
 10
4.703160
 20
2.659800
  0
VERTEX
  8
0
  6
CONTINUOUS
 10
4.706240
 20
1.926320
  0
VERTEX
  8
0
  6
CONTINUOUS
 10
4.697000
 20
1.926760
  0
SEQEND
  8
0
  0
SOLID
  8
0
 62
    15
 10
4.706240
 20
1.926320
 11
4.703160
 21
2.659800
 12
4.733080
 22
1.923240
 13
4.730000
 23
2.656280
  0
POLYLINE
  8
0
  6
CONTINUOUS
 66
     1
 40
0.000000
 41
0.000000
  0
VERTEX
  8
0
  6
CONTINUOUS
 10
4.706240
 20
1.926320
  0
VERTEX
  8
0
  6
CONTINUOUS
 10
4.703160
 20
2.659800
  0
VERTEX
  8
0
  6
CONTINUOUS
 10
4.730000
 20
2.656280
  0
VERTEX
  8
0
  6
CONTINUOUS
 10
4.733080
 20
1.923240
  0
VERTEX
  8
0
  6
CONTINUOUS
 10
4.706240
 20
1.926320
  0
SEQEND
  8
0
  0
SOLID
  8
0
 62
    15
 10
4.733080
 20
1.923240
 11
4.730000
 21
2.656280
 12
4.768720
 22
1.915320
 13
4.765640
 23
2.648360
  0
POLYLINE
  8
0
  6
CONTINUOUS
 66
     1
 40
0.000000
 41
0.000000
  0
VERTEX
  8
0
  6
CONTINUOUS
 10
4.733080
 20
1.923240
  0
VERTEX
  8
0
  6
CONTINUOUS
 10
4.730000
 20
2.656280
  0
VERTEX
  8
0
  6
CONTINUOUS
 10
4.765640
 20
2.648360
  0
VERTEX
  8
0
  6
CONTINUOUS
 10
4.768720
 20
1.915320
  0
VERTEX
  8
0
  6
CONTINUOUS
 10
4.733080
 20
1.923240
  0
SEQEND
  8
0
  0
SOLID
  8
0
 62
    15
 10
4.768720
 20
1.915320
 11
4.765640
 21
2.648360
 12
4.809200
 22
1.901680
 13
4.806120
 23
2.634720
  0
POLYLINE
  8
0
  6
CONTINUOUS
 66
     1
 40
0.000000
 41
0.000000
  0
VERTEX
  8
0
  6
CONTINUOUS
 10
4.768720
 20
1.915320
  0
VERTEX
  8
0
  6
CONTINUOUS
 10
4.765640
 20
2.648360
  0
VERTEX
  8
0
  6
CONTINUOUS
 10
4.806120
 20
2.634720
  0
VERTEX
  8
0
  6
CONTINUOUS
 10
4.809200
 20
1.901680
  0
VERTEX
  8
0
  6
CONTINUOUS
 10
4.768720
 20
1.915320
  0
SEQEND
  8
0
  0
SOLID
  8
0
 62
    15
 10
4.809200
 20
1.901680
 11
4.806120
 21
2.634720
 12
4.851000
 22
1.881000
 13
4.847920
 23
2.614480
  0
POLYLINE
  8
0
  6
CONTINUOUS
 66
     1
 40
0.000000
 41
0.000000
  0
VERTEX
  8
0
  6
CONTINUOUS
 10
4.809200
 20
1.901680
  0
VERTEX
  8
0
  6
CONTINUOUS
 10
4.806120
 20
2.634720
  0
VERTEX
  8
0
  6
CONTINUOUS
 10
4.847920
 20
2.614480
  0
VERTEX
  8
0
  6
CONTINUOUS
 10
4.851000
 20
1.881000
  0
VERTEX
  8
0
  6
CONTINUOUS
 10
4.809200
 20
1.901680
  0
SEQEND
  8
0
  0
SOLID
  8
0
 62
    15
 10
4.851000
 20
1.881000
 11
4.847920
 21
2.614480
 12
4.890600
 22
1.851960
 13
4.887520
 23
2.585000
  0
POLYLINE
  8
0
  6
CONTINUOUS
 66
     1
 40
0.000000
 41
0.000000
  0
VERTEX
  8
0
  6
CONTINUOUS
 10
4.851000
 20
1.881000
  0
VERTEX
  8
0
  6
CONTINUOUS
 10
4.847920
 20
2.614480
  0
VERTEX
  8
0
  6
CONTINUOUS
 10
4.887520
 20
2.585000
  0
VERTEX
  8
0
  6
CONTINUOUS
 10
4.890600
 20
1.851960
  0
VERTEX
  8
0
  6
CONTINUOUS
 10
4.851000
 20
1.881000
  0
SEQEND
  8
0
  0
SOLID
  8
0
 62
    15
 10
4.890600
 20
1.851960
 11
4.887520
 21
2.585000
 12
4.924480
 22
1.812800
 13
4.921400
 23
2.545840
  0
POLYLINE
  8
0
  6
CONTINUOUS
 66
     1
 40
0.000000
 41
0.000000
  0
VERTEX
  8
0
  6
CONTINUOUS
 10
4.890600
 20
1.851960
  0
VERTEX
  8
0
  6
CONTINUOUS
 10
4.887520
 20
2.585000
  0
VERTEX
  8
0
  6
CONTINUOUS
 10
4.921400
 20
2.545840
  0
VERTEX
  8
0
  6
CONTINUOUS
 10
4.924480
 20
1.812800
  0
VERTEX
  8
0
  6
CONTINUOUS
 10
4.890600
 20
1.851960
  0
SEQEND
  8
0
  0
SOLID
  8
0
 62
    15
 10
4.924480
 20
1.812800
 11
4.921400
 21
2.545840
 12
4.938120
 22
1.789040
 13
4.935040
 23
2.522520
  0
POLYLINE
  8
0
  6
CONTINUOUS
 66
     1
 40
0.000000
 41
0.000000
  0
VERTEX
  8
0
  6
CONTINUOUS
 10
4.924480
 20
1.812800
  0
VERTEX
  8
0
  6
CONTINUOUS
 10
4.921400
 20
2.545840
  0
VERTEX
  8
0
  6
CONTINUOUS
 10
4.935040
 20
2.522520
  0
VERTEX
  8
0
  6
CONTINUOUS
 10
4.938120
 20
1.789040
  0
VERTEX
  8
0
  6
CONTINUOUS
 10
4.924480
 20
1.812800
  0
SEQEND
  8
0
  0
SOLID
  8
0
 62
    15
 10
4.938120
 20
1.789040
 11
4.935040
 21
2.522520
 12
4.948680
 22
1.762200
 13
4.945600
 23
2.495680
  0
POLYLINE
  8
0
  6
CONTINUOUS
 66
     1
 40
0.000000
 41
0.000000
  0
VERTEX
  8
0
  6
CONTINUOUS
 10
4.938120
 20
1.789040
  0
VERTEX
  8
0
  6
CONTINUOUS
 10
4.935040
 20
2.522520
  0
VERTEX
  8
0
  6
CONTINUOUS
 10
4.945600
 20
2.495680
  0
VERTEX
  8
0
  6
CONTINUOUS
 10
4.948680
 20
1.762200
  0
VERTEX
  8
0
  6
CONTINUOUS
 10
4.938120
 20
1.789040
  0
SEQEND
  8
0
  0
SOLID
  8
0
 62
    15
 10
4.948680
 20
1.762200
 11
4.945600
 21
2.495680
 12
5.110600
 22
1.762200
 13
5.107520
 23
2.495680
  0
POLYLINE
  8
0
  6
CONTINUOUS
 66
     1
 40
0.000000
 41
0.000000
  0
VERTEX
  8
0
  6
CONTINUOUS
 10
4.948680
 20
1.762200
  0
VERTEX
  8
0
  6
CONTINUOUS
 10
4.945600
 20
2.495680
  0
VERTEX
  8
0
  6
CONTINUOUS
 10
5.107520
 20
2.495680
  0
VERTEX
  8
0
  6
CONTINUOUS
 10
5.110600
 20
1.762200
  0
VERTEX
  8
0
  6
CONTINUOUS
 10
4.948680
 20
1.762200
  0
SEQEND
  8
0
  0
SOLID
  8
0
 62
    15
 10
5.110600
 20
1.762200
 11
5.107520
 21
2.495680
 12
5.128200
 22
1.663640
 13
5.125560
 23
2.397120
  0
POLYLINE
  8
0
  6
CONTINUOUS
 66
     1
 40
0.000000
 41
0.000000
  0
VERTEX
  8
0
  6
CONTINUOUS
 10
5.110600
 20
1.762200
  0
VERTEX
  8
0
  6
CONTINUOUS
 10
5.107520
 20
2.495680
  0
VERTEX
  8
0
  6
CONTINUOUS
 10
5.125560
 20
2.397120
  0
VERTEX
  8
0
  6
CONTINUOUS
 10
5.128200
 20
1.663640
  0
VERTEX
  8
0
  6
CONTINUOUS
 10
5.110600
 20
1.762200
  0
SEQEND
  8
0
  0
SOLID
  8
0
 62
    15
 10
5.128200
 20
1.663640
 11
5.125560
 21
2.397120
 12
5.188920
 22
1.671560
 13
5.185840
 23
2.404600
  0
POLYLINE
  8
0
  6
CONTINUOUS
 66
     1
 40
0.000000
 41
0.000000
  0
VERTEX
  8
0
  6
CONTINUOUS
 10
5.128200
 20
1.663640
  0
VERTEX
  8
0
  6
CONTINUOUS
 10
5.125560
 20
2.397120
  0
VERTEX
  8
0
  6
CONTINUOUS
 10
5.185840
 20
2.404600
  0
VERTEX
  8
0
  6
CONTINUOUS
 10
5.188920
 20
1.671560
  0
VERTEX
  8
0
  6
CONTINUOUS
 10
5.128200
 20
1.663640
  0
SEQEND
  8
0
  0
SOLID
  8
0
 62
    15
 10
5.188920
 20
1.671560
 11
5.185840
 21
2.404600
 12
5.221040
 22
1.675520
 13
5.217960
 23
2.408560
  0
POLYLINE
  8
0
  6
CONTINUOUS
 66
     1
 40
0.000000
 41
0.000000
  0
VERTEX
  8
0
  6
CONTINUOUS
 10
5.188920
 20
1.671560
  0
VERTEX
  8
0
  6
CONTINUOUS
 10
5.185840
 20
2.404600
  0
VERTEX
  8
0
  6
CONTINUOUS
 10
5.217960
 20
2.408560
  0
VERTEX
  8
0
  6
CONTINUOUS
 10
5.221040
 20
1.675520
  0
VERTEX
  8
0
  6
CONTINUOUS
 10
5.188920
 20
1.671560
  0
SEQEND
  8
0
  0
SOLID
  8
0
 62
    15
 10
5.221040
 20
1.675520
 11
5.217960
 21
2.408560
 12
5.254040
 22
1.679480
 13
5.251400
 23
2.412960
  0
POLYLINE
  8
0
  6
CONTINUOUS
 66
     1
 40
0.000000
 41
0.000000
  0
VERTEX
  8
0
  6
CONTINUOUS
 10
5.221040
 20
1.675520
  0
VERTEX
  8
0
  6
CONTINUOUS
 10
5.217960
 20
2.408560
  0
VERTEX
  8
0
  6
CONTINUOUS
 10
5.251400
 20
2.412960
  0
VERTEX
  8
0
  6
CONTINUOUS
 10
5.254040
 20
1.679480
  0
VERTEX
  8
0
  6
CONTINUOUS
 10
5.221040
 20
1.675520
  0
SEQEND
  8
0
  0
SOLID
  8
0
 62
    15
 10
5.254040
 20
1.679480
 11
5.251400
 21
2.412960
 12
5.324000
 22
1.690040
 13
5.320920
 23
2.423520
  0
POLYLINE
  8
0
  6
CONTINUOUS
 66
     1
 40
0.000000
 41
0.000000
  0
VERTEX
  8
0
  6
CONTINUOUS
 10
5.254040
 20
1.679480
  0
VERTEX
  8
0
  6
CONTINUOUS
 10
5.251400
 20
2.412960
  0
VERTEX
  8
0
  6
CONTINUOUS
 10
5.320920
 20
2.423520
  0
VERTEX
  8
0
  6
CONTINUOUS
 10
5.324000
 20
1.690040
  0
VERTEX
  8
0
  6
CONTINUOUS
 10
5.254040
 20
1.679480
  0
SEQEND
  8
0
  0
SOLID
  8
0
 62
    15
 10
5.324000
 20
1.690040
 11
5.320920
 21
2.423520
 12
5.397040
 22
1.705000
 13
5.393960
 23
2.438040
  0
POLYLINE
  8
0
  6
CONTINUOUS
 66
     1
 40
0.000000
 41
0.000000
  0
VERTEX
  8
0
  6
CONTINUOUS
 10
5.324000
 20
1.690040
  0
VERTEX
  8
0
  6
CONTINUOUS
 10
5.320920
 20
2.423520
  0
VERTEX
  8
0
  6
CONTINUOUS
 10
5.393960
 20
2.438040
  0
VERTEX
  8
0
  6
CONTINUOUS
 10
5.397040
 20
1.705000
  0
VERTEX
  8
0
  6
CONTINUOUS
 10
5.324000
 20
1.690040
  0
SEQEND
  8
0
  0
SOLID
  8
0
 62
    15
 10
5.397040
 20
1.705000
 11
5.393960
 21
2.438040
 12
5.472720
 22
1.725680
 13
5.469640
 23
2.459160
  0
POLYLINE
  8
0
  6
CONTINUOUS
 66
     1
 40
0.000000
 41
0.000000
  0
VERTEX
  8
0
  6
CONTINUOUS
 10
5.397040
 20
1.705000
  0
VERTEX
  8
0
  6
CONTINUOUS
 10
5.393960
 20
2.438040
  0
VERTEX
  8
0
  6
CONTINUOUS
 10
5.469640
 20
2.459160
  0
VERTEX
  8
0
  6
CONTINUOUS
 10
5.472720
 20
1.725680
  0
VERTEX
  8
0
  6
CONTINUOUS
 10
5.397040
 20
1.705000
  0
SEQEND
  8
0
  0
SOLID
  8
0
 62
    15
 10
5.472720
 20
1.725680
 11
5.469640
 21
2.459160
 12
5.550160
 22
1.754720
 13
5.547080
 23
2.487760
  0
POLYLINE
  8
0
  6
CONTINUOUS
 66
     1
 40
0.000000
 41
0.000000
  0
VERTEX
  8
0
  6
CONTINUOUS
 10
5.472720
 20
1.725680
  0
VERTEX
  8
0
  6
CONTINUOUS
 10
5.469640
 20
2.459160
  0
VERTEX
  8
0
  6
CONTINUOUS
 10
5.547080
 20
2.487760
  0
VERTEX
  8
0
  6
CONTINUOUS
 10
5.550160
 20
1.754720
  0
VERTEX
  8
0
  6
CONTINUOUS
 10
5.472720
 20
1.725680
  0
SEQEND
  8
0
  0
SOLID
  8
0
 62
    15
 10
5.550160
 20
1.754720
 11
5.547080
 21
2.487760
 12
5.628480
 22
1.793880
 13
5.625400
 23
2.526920
  0
POLYLINE
  8
0
  6
CONTINUOUS
 66
     1
 40
0.000000
 41
0.000000
  0
VERTEX
  8
0
  6
CONTINUOUS
 10
5.550160
 20
1.754720
  0
VERTEX
  8
0
  6
CONTINUOUS
 10
5.547080
 20
2.487760
  0
VERTEX
  8
0
  6
CONTINUOUS
 10
5.625400
 20
2.526920
  0
VERTEX
  8
0
  6
CONTINUOUS
 10
5.628480
 20
1.793880
  0
VERTEX
  8
0
  6
CONTINUOUS
 10
5.550160
 20
1.754720
  0
SEQEND
  8
0
  0
SOLID
  8
0
 62
    15
 10
5.628480
 20
1.793880
 11
5.625400
 21
2.526920
 12
5.706800
 22
1.844480
 13
5.703720
 23
2.577960
  0
POLYLINE
  8
0
  6
CONTINUOUS
 66
     1
 40
0.000000
 41
0.000000
  0
VERTEX
  8
0
  6
CONTINUOUS
 10
5.628480
 20
1.793880
  0
VERTEX
  8
0
  6
CONTINUOUS
 10
5.625400
 20
2.526920
  0
VERTEX
  8
0
  6
CONTINUOUS
 10
5.703720
 20
2.577960
  0
VERTEX
  8
0
  6
CONTINUOUS
 10
5.706800
 20
1.844480
  0
VERTEX
  8
0
  6
CONTINUOUS
 10
5.628480
 20
1.793880
  0
SEQEND
  8
0
  0
SOLID
  8
0
 62
    15
 10
5.706800
 20
1.844480
 11
5.703720
 21
2.577960
 12
5.745080
 22
1.871320
 13
5.742000
 23
2.604800
  0
POLYLINE
  8
0
  6
CONTINUOUS
 66
     1
 40
0.000000
 41
0.000000
  0
VERTEX
  8
0
  6
CONTINUOUS
 10
5.706800
 20
1.844480
  0
VERTEX
  8
0
  6
CONTINUOUS
 10
5.703720
 20
2.577960
  0
VERTEX
  8
0
  6
CONTINUOUS
 10
5.742000
 20
2.604800
  0
VERTEX
  8
0
  6
CONTINUOUS
 10
5.745080
 20
1.871320
  0
VERTEX
  8
0
  6
CONTINUOUS
 10
5.706800
 20
1.844480
  0
SEQEND
  8
0
  0
SOLID
  8
0
 62
    15
 10
5.745080
 20
1.871320
 11
5.742000
 21
2.604800
 12
5.782040
 22
1.894200
 13
5.778960
 23
2.627240
  0
POLYLINE
  8
0
  6
CONTINUOUS
 66
     1
 40
0.000000
 41
0.000000
  0
VERTEX
  8
0
  6
CONTINUOUS
 10
5.745080
 20
1.871320
  0
VERTEX
  8
0
  6
CONTINUOUS
 10
5.742000
 20
2.604800
  0
VERTEX
  8
0
  6
CONTINUOUS
 10
5.778960
 20
2.627240
  0
VERTEX
  8
0
  6
CONTINUOUS
 10
5.782040
 20
1.894200
  0
VERTEX
  8
0
  6
CONTINUOUS
 10
5.745080
 20
1.871320
  0
SEQEND
  8
0
  0
SOLID
  8
0
 62
    15
 10
5.782040
 20
1.894200
 11
5.778960
 21
2.627240
 12
5.817680
 22
1.913120
 13
5.814600
 23
2.646160
  0
POLYLINE
  8
0
  6
CONTINUOUS
 66
     1
 40
0.000000
 41
0.000000
  0
VERTEX
  8
0
  6
CONTINUOUS
 10
5.782040
 20
1.894200
  0
VERTEX
  8
0
  6
CONTINUOUS
 10
5.778960
 20
2.627240
  0
VERTEX
  8
0
  6
CONTINUOUS
 10
5.814600
 20
2.646160
  0
VERTEX
  8
0
  6
CONTINUOUS
 10
5.817680
 20
1.913120
  0
VERTEX
  8
0
  6
CONTINUOUS
 10
5.782040
 20
1.894200
  0
SEQEND
  8
0
  0
SOLID
  8
0
 62
    15
 10
5.817680
 20
1.913120
 11
5.814600
 21
2.646160
 12
5.852000
 22
1.928080
 13
5.848920
 23
2.661560
  0
POLYLINE
  8
0
  6
CONTINUOUS
 66
     1
 40
0.000000
 41
0.000000
  0
VERTEX
  8
0
  6
CONTINUOUS
 10
5.817680
 20
1.913120
  0
VERTEX
  8
0
  6
CONTINUOUS
 10
5.814600
 20
2.646160
  0
VERTEX
  8
0
  6
CONTINUOUS
 10
5.848920
 20
2.661560
  0
VERTEX
  8
0
  6
CONTINUOUS
 10
5.852000
 20
1.928080
  0
VERTEX
  8
0
  6
CONTINUOUS
 10
5.817680
 20
1.913120
  0
SEQEND
  8
0
  0
SOLID
  8
0
 62
    15
 10
5.852000
 20
1.928080
 11
5.848920
 21
2.661560
 12
5.884560
 22
1.939960
 13
5.881480
 23
2.673000
  0
POLYLINE
  8
0
  6
CONTINUOUS
 66
     1
 40
0.000000
 41
0.000000
  0
VERTEX
  8
0
  6
CONTINUOUS
 10
5.852000
 20
1.928080
  0
VERTEX
  8
0
  6
CONTINUOUS
 10
5.848920
 20
2.661560
  0
VERTEX
  8
0
  6
CONTINUOUS
 10
5.881480
 20
2.673000
  0
VERTEX
  8
0
  6
CONTINUOUS
 10
5.884560
 20
1.939960
  0
VERTEX
  8
0
  6
CONTINUOUS
 10
5.852000
 20
1.928080
  0
SEQEND
  8
0
  0
SOLID
  8
0
 62
    15
 10
5.884560
 20
1.939960
 11
5.881480
 21
2.673000
 12
5.915800
 22
1.948320
 13
5.912720
 23
2.681360
  0
POLYLINE
  8
0
  6
CONTINUOUS
 66
     1
 40
0.000000
 41
0.000000
  0
VERTEX
  8
0
  6
CONTINUOUS
 10
5.884560
 20
1.939960
  0
VERTEX
  8
0
  6
CONTINUOUS
 10
5.881480
 20
2.673000
  0
VERTEX
  8
0
  6
CONTINUOUS
 10
5.912720
 20
2.681360
  0
VERTEX
  8
0
  6
CONTINUOUS
 10
5.915800
 20
1.948320
  0
VERTEX
  8
0
  6
CONTINUOUS
 10
5.884560
 20
1.939960
  0
SEQEND
  8
0
  0
SOLID
  8
0
 62
    15
 10
5.915800
 20
1.948320
 11
5.912720
 21
2.681360
 12
5.945280
 22
1.953160
 13
5.942200
 23
2.686640
  0
POLYLINE
  8
0
  6
CONTINUOUS
 66
     1
 40
0.000000
 41
0.000000
  0
VERTEX
  8
0
  6
CONTINUOUS
 10
5.915800
 20
1.948320
  0
VERTEX
  8
0
  6
CONTINUOUS
 10
5.912720
 20
2.681360
  0
VERTEX
  8
0
  6
CONTINUOUS
 10
5.942200
 20
2.686640
  0
VERTEX
  8
0
  6
CONTINUOUS
 10
5.945280
 20
1.953160
  0
VERTEX
  8
0
  6
CONTINUOUS
 10
5.915800
 20
1.948320
  0
SEQEND
  8
0
  0
SOLID
  8
0
 62
    15
 10
5.945280
 20
1.953160
 11
5.942200
 21
2.686640
 12
5.973000
 22
1.955360
 13
5.969920
 23
2.688400
  0
POLYLINE
  8
0
  6
CONTINUOUS
 66
     1
 40
0.000000
 41
0.000000
  0
VERTEX
  8
0
  6
CONTINUOUS
 10
5.945280
 20
1.953160
  0
VERTEX
  8
0
  6
CONTINUOUS
 10
5.942200
 20
2.686640
  0
VERTEX
  8
0
  6
CONTINUOUS
 10
5.969920
 20
2.688400
  0
VERTEX
  8
0
  6
CONTINUOUS
 10
5.973000
 20
1.955360
  0
VERTEX
  8
0
  6
CONTINUOUS
 10
5.945280
 20
1.953160
  0
SEQEND
  8
0
  0
SOLID
  8
0
 62
    15
 10
5.973000
 20
1.955360
 11
5.969920
 21
2.688400
 12
6.023160
 22
1.951400
 13
6.020080
 23
2.684440
  0
POLYLINE
  8
0
  6
CONTINUOUS
 66
     1
 40
0.000000
 41
0.000000
  0
VERTEX
  8
0
  6
CONTINUOUS
 10
5.973000
 20
1.955360
  0
VERTEX
  8
0
  6
CONTINUOUS
 10
5.969920
 20
2.688400
  0
VERTEX
  8
0
  6
CONTINUOUS
 10
6.020080
 20
2.684440
  0
VERTEX
  8
0
  6
CONTINUOUS
 10
6.023160
 20
1.951400
  0
VERTEX
  8
0
  6
CONTINUOUS
 10
5.973000
 20
1.955360
  0
SEQEND
  8
0
  0
SOLID
  8
0
 62
    15
 10
6.023160
 20
1.951400
 11
6.020080
 21
2.684440
 12
6.065840
 22
1.936880
 13
6.062760
 23
2.669920
  0
POLYLINE
  8
0
  6
CONTINUOUS
 66
     1
 40
0.000000
 41
0.000000
  0
VERTEX
  8
0
  6
CONTINUOUS
 10
6.023160
 20
1.951400
  0
VERTEX
  8
0
  6
CONTINUOUS
 10
6.020080
 20
2.684440
  0
VERTEX
  8
0
  6
CONTINUOUS
 10
6.062760
 20
2.669920
  0
VERTEX
  8
0
  6
CONTINUOUS
 10
6.065840
 20
1.936880
  0
VERTEX
  8
0
  6
CONTINUOUS
 10
6.023160
 20
1.951400
  0
SEQEND
  8
0
  0
SOLID
  8
0
 62
    15
 10
6.065840
 20
1.936880
 11
6.062760
 21
2.669920
 12
6.100160
 22
1.913560
 13
6.097520
 23
2.647040
  0
POLYLINE
  8
0
  6
CONTINUOUS
 66
     1
 40
0.000000
 41
0.000000
  0
VERTEX
  8
0
  6
CONTINUOUS
 10
6.065840
 20
1.936880
  0
VERTEX
  8
0
  6
CONTINUOUS
 10
6.062760
 20
2.669920
  0
VERTEX
  8
0
  6
CONTINUOUS
 10
6.097520
 20
2.647040
  0
VERTEX
  8
0
  6
CONTINUOUS
 10
6.100160
 20
1.913560
  0
VERTEX
  8
0
  6
CONTINUOUS
 10
6.065840
 20
1.936880
  0
SEQEND
  8
0
  0
SOLID
  8
0
 62
    15
 10
6.100160
 20
1.913560
 11
6.097520
 21
2.647040
 12
6.126560
 22
1.883200
 13
6.123480
 23
2.616240
  0
POLYLINE
  8
0
  6
CONTINUOUS
 66
     1
 40
0.000000
 41
0.000000
  0
VERTEX
  8
0
  6
CONTINUOUS
 10
6.100160
 20
1.913560
  0
VERTEX
  8
0
  6
CONTINUOUS
 10
6.097520
 20
2.647040
  0
VERTEX
  8
0
  6
CONTINUOUS
 10
6.123480
 20
2.616240
  0
VERTEX
  8
0
  6
CONTINUOUS
 10
6.126560
 20
1.883200
  0
VERTEX
  8
0
  6
CONTINUOUS
 10
6.100160
 20
1.913560
  0
SEQEND
  8
0
  0
SOLID
  8
0
 62
    15
 10
6.126560
 20
1.883200
 11
6.123480
 21
2.616240
 12
6.141520
 22
1.905640
 13
6.138440
 23
2.639120
  0
POLYLINE
  8
0
  6
CONTINUOUS
 66
     1
 40
0.000000
 41
0.000000
  0
VERTEX
  8
0
  6
CONTINUOUS
 10
6.126560
 20
1.883200
  0
VERTEX
  8
0
  6
CONTINUOUS
 10
6.123480
 20
2.616240
  0
VERTEX
  8
0
  6
CONTINUOUS
 10
6.138440
 20
2.639120
  0
VERTEX
  8
0
  6
CONTINUOUS
 10
6.141520
 20
1.905640
  0
VERTEX
  8
0
  6
CONTINUOUS
 10
6.126560
 20
1.883200
  0
SEQEND
  8
0
  0
SOLID
  8
0
 62
    15
 10
6.141520
 20
1.905640
 11
6.138440
 21
2.639120
 12
6.158680
 22
1.925440
 13
6.155600
 23
2.658480
  0
POLYLINE
  8
0
  6
CONTINUOUS
 66
     1
 40
0.000000
 41
0.000000
  0
VERTEX
  8
0
  6
CONTINUOUS
 10
6.141520
 20
1.905640
  0
VERTEX
  8
0
  6
CONTINUOUS
 10
6.138440
 20
2.639120
  0
VERTEX
  8
0
  6
CONTINUOUS
 10
6.155600
 20
2.658480
  0
VERTEX
  8
0
  6
CONTINUOUS
 10
6.158680
 20
1.925440
  0
VERTEX
  8
0
  6
CONTINUOUS
 10
6.141520
 20
1.905640
  0
SEQEND
  8
0
  0
SOLID
  8
0
 62
    15
 10
6.158680
 20
1.925440
 11
6.155600
 21
2.658480
 12
6.197400
 22
1.955360
 13
6.194320
 23
2.688840
  0
POLYLINE
  8
0
  6
CONTINUOUS
 66
     1
 40
0.000000
 41
0.000000
  0
VERTEX
  8
0
  6
CONTINUOUS
 10
6.158680
 20
1.925440
  0
VERTEX
  8
0
  6
CONTINUOUS
 10
6.155600
 20
2.658480
  0
VERTEX
  8
0
  6
CONTINUOUS
 10
6.194320
 20
2.688840
  0
VERTEX
  8
0
  6
CONTINUOUS
 10
6.197400
 20
1.955360
  0
VERTEX
  8
0
  6
CONTINUOUS
 10
6.158680
 20
1.925440
  0
SEQEND
  8
0
  0
SOLID
  8
0
 62
    15
 10
6.197400
 20
1.955360
 11
6.194320
 21
2.688840
 12
6.240960
 22
1.973840
 13
6.238320
 23
2.707320
  0
POLYLINE
  8
0
  6
CONTINUOUS
 66
     1
 40
0.000000
 41
0.000000
  0
VERTEX
  8
0
  6
CONTINUOUS
 10
6.197400
 20
1.955360
  0
VERTEX
  8
0
  6
CONTINUOUS
 10
6.194320
 20
2.688840
  0
VERTEX
  8
0
  6
CONTINUOUS
 10
6.238320
 20
2.707320
  0
VERTEX
  8
0
  6
CONTINUOUS
 10
6.240960
 20
1.973840
  0
VERTEX
  8
0
  6
CONTINUOUS
 10
6.197400
 20
1.955360
  0
SEQEND
  8
0
  0
SOLID
  8
0
 62
    15
 10
6.240960
 20
1.973840
 11
6.238320
 21
2.707320
 12
6.287160
 22
1.980880
 13
6.284520
 23
2.714360
  0
POLYLINE
  8
0
  6
CONTINUOUS
 66
     1
 40
0.000000
 41
0.000000
  0
VERTEX
  8
0
  6
CONTINUOUS
 10
6.240960
 20
1.973840
  0
VERTEX
  8
0
  6
CONTINUOUS
 10
6.238320
 20
2.707320
  0
VERTEX
  8
0
  6
CONTINUOUS
 10
6.284520
 20
2.714360
  0
VERTEX
  8
0
  6
CONTINUOUS
 10
6.287160
 20
1.980880
  0
VERTEX
  8
0
  6
CONTINUOUS
 10
6.240960
 20
1.973840
  0
SEQEND
  8
0
  0
SOLID
  8
0
 62
    15
 10
6.287160
 20
1.980880
 11
6.284520
 21
2.714360
 12
6.333800
 22
1.977360
 13
6.330720
 23
2.710400
  0
POLYLINE
  8
0
  6
CONTINUOUS
 66
     1
 40
0.000000
 41
0.000000
  0
VERTEX
  8
0
  6
CONTINUOUS
 10
6.287160
 20
1.980880
  0
VERTEX
  8
0
  6
CONTINUOUS
 10
6.284520
 20
2.714360
  0
VERTEX
  8
0
  6
CONTINUOUS
 10
6.330720
 20
2.710400
  0
VERTEX
  8
0
  6
CONTINUOUS
 10
6.333800
 20
1.977360
  0
VERTEX
  8
0
  6
CONTINUOUS
 10
6.287160
 20
1.980880
  0
SEQEND
  8
0
  0
SOLID
  8
0
 62
    15
 10
6.333800
 20
1.977360
 11
6.330720
 21
2.710400
 12
6.377800
 22
1.962400
 13
6.375160
 23
2.695880
  0
POLYLINE
  8
0
  6
CONTINUOUS
 66
     1
 40
0.000000
 41
0.000000
  0
VERTEX
  8
0
  6
CONTINUOUS
 10
6.333800
 20
1.977360
  0
VERTEX
  8
0
  6
CONTINUOUS
 10
6.330720
 20
2.710400
  0
VERTEX
  8
0
  6
CONTINUOUS
 10
6.375160
 20
2.695880
  0
VERTEX
  8
0
  6
CONTINUOUS
 10
6.377800
 20
1.962400
  0
VERTEX
  8
0
  6
CONTINUOUS
 10
6.333800
 20
1.977360
  0
SEQEND
  8
0
  0
SOLID
  8
0
 62
    15
 10
6.377800
 20
1.962400
 11
6.375160
 21
2.695880
 12
6.417840
 22
1.937320
 13
6.414760
 23
2.670800
  0
POLYLINE
  8
0
  6
CONTINUOUS
 66
     1
 40
0.000000
 41
0.000000
  0
VERTEX
  8
0
  6
CONTINUOUS
 10
6.377800
 20
1.962400
  0
VERTEX
  8
0
  6
CONTINUOUS
 10
6.375160
 20
2.695880
  0
VERTEX
  8
0
  6
CONTINUOUS
 10
6.414760
 20
2.670800
  0
VERTEX
  8
0
  6
CONTINUOUS
 10
6.417840
 20
1.937320
  0
VERTEX
  8
0
  6
CONTINUOUS
 10
6.377800
 20
1.962400
  0
SEQEND
  8
0
  0
SOLID
  8
0
 62
    15
 10
6.417840
 20
1.937320
 11
6.414760
 21
2.670800
 12
6.451280
 22
1.902120
 13
6.448200
 23
2.635600
  0
POLYLINE
  8
0
  6
CONTINUOUS
 66
     1
 40
0.000000
 41
0.000000
  0
VERTEX
  8
0
  6
CONTINUOUS
 10
6.417840
 20
1.937320
  0
VERTEX
  8
0
  6
CONTINUOUS
 10
6.414760
 20
2.670800
  0
VERTEX
  8
0
  6
CONTINUOUS
 10
6.448200
 20
2.635600
  0
VERTEX
  8
0
  6
CONTINUOUS
 10
6.451280
 20
1.902120
  0
VERTEX
  8
0
  6
CONTINUOUS
 10
6.417840
 20
1.937320
  0
SEQEND
  8
0
  0
SOLID
  8
0
 62
    15
 10
6.451280
 20
1.902120
 11
6.448200
 21
2.635600
 12
6.459640
 22
1.987040
 13
6.456560
 23
2.720520
  0
POLYLINE
  8
0
  6
CONTINUOUS
 66
     1
 40
0.000000
 41
0.000000
  0
VERTEX
  8
0
  6
CONTINUOUS
 10
6.451280
 20
1.902120
  0
VERTEX
  8
0
  6
CONTINUOUS
 10
6.448200
 20
2.635600
  0
VERTEX
  8
0
  6
CONTINUOUS
 10
6.456560
 20
2.720520
  0
VERTEX
  8
0
  6
CONTINUOUS
 10
6.459640
 20
1.987040
  0
VERTEX
  8
0
  6
CONTINUOUS
 10
6.451280
 20
1.902120
  0
SEQEND
  8
0
  0
SOLID
  8
0
 62
    15
 10
6.459640
 20
1.987040
 11
6.456560
 21
2.720520
 12
7.158800
 22
1.987040
 13
7.155720
 23
2.720520
  0
POLYLINE
  8
0
  6
CONTINUOUS
 66
     1
 40
0.000000
 41
0.000000
  0
VERTEX
  8
0
  6
CONTINUOUS
 10
6.459640
 20
1.987040
  0
VERTEX
  8
0
  6
CONTINUOUS
 10
6.456560
 20
2.720520
  0
VERTEX
  8
0
  6
CONTINUOUS
 10
7.155720
 20
2.720520
  0
VERTEX
  8
0
  6
CONTINUOUS
 10
7.158800
 20
1.987040
  0
VERTEX
  8
0
  6
CONTINUOUS
 10
6.459640
 20
1.987040
  0
SEQEND
  8
0
  0
SOLID
  8
0
 62
    15
 10
7.158800
 20
1.987040
 11
7.155720
 21
2.720520
 12
7.176840
 22
1.986160
 13
7.173760
 23
2.719640
  0
POLYLINE
  8
0
  6
CONTINUOUS
 66
     1
 40
0.000000
 41
0.000000
  0
VERTEX
  8
0
  6
CONTINUOUS
 10
7.158800
 20
1.987040
  0
VERTEX
  8
0
  6
CONTINUOUS
 10
7.155720
 20
2.720520
  0
VERTEX
  8
0
  6
CONTINUOUS
 10
7.173760
 20
2.719640
  0
VERTEX
  8
0
  6
CONTINUOUS
 10
7.176840
 20
1.986160
  0
VERTEX
  8
0
  6
CONTINUOUS
 10
7.158800
 20
1.987040
  0
SEQEND
  8
0
  0
SOLID
  8
0
 62
    15
 10
7.176840
 20
1.986160
 11
7.173760
 21
2.719640
 12
7.190920
 22
1.980880
 13
7.187840
 23
2.714360
  0
POLYLINE
  8
0
  6
CONTINUOUS
 66
     1
 40
0.000000
 41
0.000000
  0
VERTEX
  8
0
  6
CONTINUOUS
 10
7.176840
 20
1.986160
  0
VERTEX
  8
0
  6
CONTINUOUS
 10
7.173760
 20
2.719640
  0
VERTEX
  8
0
  6
CONTINUOUS
 10
7.187840
 20
2.714360
  0
VERTEX
  8
0
  6
CONTINUOUS
 10
7.190920
 20
1.980880
  0
VERTEX
  8
0
  6
CONTINUOUS
 10
7.176840
 20
1.986160
  0
SEQEND
  8
0
  0
SOLID
  8
0
 62
    15
 10
7.199280
 20
1.968560
 11
7.196200
 21
2.702040
 12
7.202360
 22
1.946120
 13
7.199280
 23
2.679160
  0
POLYLINE
  8
0
  6
CONTINUOUS
 66
     1
 40
0.000000
 41
0.000000
  0
VERTEX
  8
0
  6
CONTINUOUS
 10
7.199280
 20
1.968560
  0
VERTEX
  8
0
  6
CONTINUOUS
 10
7.196200
 20
2.702040
  0
VERTEX
  8
0
  6
CONTINUOUS
 10
7.199280
 20
2.679160
  0
VERTEX
  8
0
  6
CONTINUOUS
 10
7.202360
 20
1.946120
  0
VERTEX
  8
0
  6
CONTINUOUS
 10
7.199280
 20
1.968560
  0
SEQEND
  8
0
  0
SOLID
  8
0
 62
    15
 10
7.190920
 20
1.980880
 11
7.187840
 21
2.714360
 12
7.199280
 22
1.968560
 13
7.196200
 23
2.702040
  0
POLYLINE
  8
0
  6
CONTINUOUS
 66
     1
 40
0.000000
 41
0.000000
  0
VERTEX
  8
0
  6
CONTINUOUS
 10
7.190920
 20
1.980880
  0
VERTEX
  8
0
  6
CONTINUOUS
 10
7.187840
 20
2.714360
  0
VERTEX
  8
0
  6
CONTINUOUS
 10
7.196200
 20
2.702040
  0
VERTEX
  8
0
  6
CONTINUOUS
 10
7.199280
 20
1.968560
  0
VERTEX
  8
0
  6
CONTINUOUS
 10
7.190920
 20
1.980880
  0
SEQEND
  8
0
  0
SOLID
  8
0
 62
    15
 10
7.202360
 20
1.946120
 11
7.199280
 21
2.679160
 12
7.205440
 22
1.935120
 13
7.202360
 23
2.668160
  0
POLYLINE
  8
0
  6
CONTINUOUS
 66
     1
 40
0.000000
 41
0.000000
  0
VERTEX
  8
0
  6
CONTINUOUS
 10
7.202360
 20
1.946120
  0
VERTEX
  8
0
  6
CONTINUOUS
 10
7.199280
 20
2.679160
  0
VERTEX
  8
0
  6
CONTINUOUS
 10
7.202360
 20
2.668160
  0
VERTEX
  8
0
  6
CONTINUOUS
 10
7.205440
 20
1.935120
  0
VERTEX
  8
0
  6
CONTINUOUS
 10
7.202360
 20
1.946120
  0
SEQEND
  8
0
  0
POLYLINE
  8
0
  6
CONTINUOUS
 66
     1
 40
0.000000
 41
0.000000
  0
VERTEX
  8
0
  6
CONTINUOUS
 10
7.205440
 20
1.935120
  0
VERTEX
  8
0
  6
CONTINUOUS
 10
7.205440
 20
1.246520
  0
VERTEX
  8
0
  6
CONTINUOUS
 10
2.189440
 20
1.246520
  0
VERTEX
  8
0
  6
CONTINUOUS
 10
2.189440
 20
1.945680
  0
VERTEX
  8
0
  6
CONTINUOUS
 10
2.192520
 20
1.968560
  0
VERTEX
  8
0
  6
CONTINUOUS
 10
2.200880
 20
1.980880
  0
VERTEX
  8
0
  6
CONTINUOUS
 10
2.214960
 20
1.986160
  0
VERTEX
  8
0
  6
CONTINUOUS
 10
2.233440
 20
1.987040
  0
VERTEX
  8
0
  6
CONTINUOUS
 10
2.932160
 20
1.987040
  0
VERTEX
  8
0
  6
CONTINUOUS
 10
2.940520
 20
1.902120
  0
VERTEX
  8
0
  6
CONTINUOUS
 10
2.973960
 20
1.937320
  0
VERTEX
  8
0
  6
CONTINUOUS
 10
3.013560
 20
1.962400
  0
VERTEX
  8
0
  6
CONTINUOUS
 10
3.058000
 20
1.976920
  0
VERTEX
  8
0
  6
CONTINUOUS
 10
3.104640
 20
1.980880
  0
VERTEX
  8
0
  6
CONTINUOUS
 10
3.150400
 20
1.973840
  0
VERTEX
  8
0
  6
CONTINUOUS
 10
3.194400
 20
1.955360
  0
VERTEX
  8
0
  6
CONTINUOUS
 10
3.233120
 20
1.925000
  0
VERTEX
  8
0
  6
CONTINUOUS
 10
3.250280
 20
1.905640
  0
VERTEX
  8
0
  6
CONTINUOUS
 10
3.265240
 20
1.882760
  0
VERTEX
  8
0
  6
CONTINUOUS
 10
3.291200
 20
1.913560
  0
VERTEX
  8
0
  6
CONTINUOUS
 10
3.325960
 20
1.936440
  0
VERTEX
  8
0
  6
CONTINUOUS
 10
3.368640
 20
1.950960
  0
VERTEX
  8
0
  6
CONTINUOUS
 10
3.418800
 20
1.954920
  0
VERTEX
  8
0
  6
CONTINUOUS
 10
3.446520
 20
1.953160
  0
VERTEX
  8
0
  6
CONTINUOUS
 10
3.476000
 20
1.947880
  0
VERTEX
  8
0
  6
CONTINUOUS
 10
3.506800
 20
1.939520
  0
VERTEX
  8
0
  6
CONTINUOUS
 10
3.539800
 20
1.928080
  0
VERTEX
  8
0
  6
CONTINUOUS
 10
3.574120
 20
1.912680
  0
VERTEX
  8
0
  6
CONTINUOUS
 10
3.609760
 20
1.893760
  0
VERTEX
  8
0
  6
CONTINUOUS
 10
3.646720
 20
1.871320
  0
VERTEX
  8
0
  6
CONTINUOUS
 10
3.685000
 20
1.844480
  0
VERTEX
  8
0
  6
CONTINUOUS
 10
3.763320
 20
1.793440
  0
VERTEX
  8
0
  6
CONTINUOUS
 10
3.841640
 20
1.754280
  0
VERTEX
  8
0
  6
CONTINUOUS
 10
3.919080
 20
1.725680
  0
VERTEX
  8
0
  6
CONTINUOUS
 10
3.994760
 20
1.704560
  0
VERTEX
  8
0
  6
CONTINUOUS
 10
4.067800
 20
1.690040
  0
VERTEX
  8
0
  6
CONTINUOUS
 10
4.171200
 20
1.675080
  0
VERTEX
  8
0
  6
CONTINUOUS
 10
4.263600
 20
1.663640
  0
VERTEX
  8
0
  6
CONTINUOUS
 10
4.281200
 20
1.762200
  0
VERTEX
  8
0
  6
CONTINUOUS
 10
4.443120
 20
1.762200
  0
VERTEX
  8
0
  6
CONTINUOUS
 10
4.453680
 20
1.789040
  0
VERTEX
  8
0
  6
CONTINUOUS
 10
4.466880
 20
1.812360
  0
VERTEX
  8
0
  6
CONTINUOUS
 10
4.499880
 20
1.851520
  0
VERTEX
  8
0
  6
CONTINUOUS
 10
4.538600
 20
1.880560
  0
VERTEX
  8
0
  6
CONTINUOUS
 10
4.579080
 20
1.900800
  0
VERTEX
  8
0
  6
CONTINUOUS
 10
4.619120
 20
1.914440
  0
VERTEX
  8
0
  6
CONTINUOUS
 10
4.654760
 20
1.922360
  0
VERTEX
  8
0
  6
CONTINUOUS
 10
4.697000
 20
1.926760
  0
VERTEX
  8
0
  6
CONTINUOUS
 10
4.733080
 20
1.923240
  0
VERTEX
  8
0
  6
CONTINUOUS
 10
4.768720
 20
1.915320
  0
VERTEX
  8
0
  6
CONTINUOUS
 10
4.809200
 20
1.901680
  0
VERTEX
  8
0
  6
CONTINUOUS
 10
4.851000
 20
1.881000
  0
VERTEX
  8
0
  6
CONTINUOUS
 10
4.890600
 20
1.851960
  0
VERTEX
  8
0
  6
CONTINUOUS
 10
4.924480
 20
1.812800
  0
VERTEX
  8
0
  6
CONTINUOUS
 10
4.938120
 20
1.789040
  0
VERTEX
  8
0
  6
CONTINUOUS
 10
4.948680
 20
1.762200
  0
VERTEX
  8
0
  6
CONTINUOUS
 10
5.110600
 20
1.762200
  0
VERTEX
  8
0
  6
CONTINUOUS
 10
5.128200
 20
1.663640
  0
VERTEX
  8
0
  6
CONTINUOUS
 10
5.254040
 20
1.679480
  0
VERTEX
  8
0
  6
CONTINUOUS
 10
5.324000
 20
1.690040
  0
VERTEX
  8
0
  6
CONTINUOUS
 10
5.397040
 20
1.705000
  0
VERTEX
  8
0
  6
CONTINUOUS
 10
5.472720
 20
1.725680
  0
VERTEX
  8
0
  6
CONTINUOUS
 10
5.550160
 20
1.754720
  0
VERTEX
  8
0
  6
CONTINUOUS
 10
5.628480
 20
1.793880
  0
VERTEX
  8
0
  6
CONTINUOUS
 10
5.706800
 20
1.844480
  0
VERTEX
  8
0
  6
CONTINUOUS
 10
5.745080
 20
1.871320
  0
VERTEX
  8
0
  6
CONTINUOUS
 10
5.782040
 20
1.894200
  0
VERTEX
  8
0
  6
CONTINUOUS
 10
5.817680
 20
1.913120
  0
VERTEX
  8
0
  6
CONTINUOUS
 10
5.852000
 20
1.928080
  0
VERTEX
  8
0
  6
CONTINUOUS
 10
5.884560
 20
1.939960
  0
VERTEX
  8
0
  6
CONTINUOUS
 10
5.915800
 20
1.948320
  0
VERTEX
  8
0
  6
CONTINUOUS
 10
5.945280
 20
1.953160
  0
VERTEX
  8
0
  6
CONTINUOUS
 10
5.973000
 20
1.955360
  0
VERTEX
  8
0
  6
CONTINUOUS
 10
6.023160
 20
1.951400
  0
VERTEX
  8
0
  6
CONTINUOUS
 10
6.065840
 20
1.936880
  0
VERTEX
  8
0
  6
CONTINUOUS
 10
6.100160
 20
1.913560
  0
VERTEX
  8
0
  6
CONTINUOUS
 10
6.126560
 20
1.883200
  0
VERTEX
  8
0
  6
CONTINUOUS
 10
6.141520
 20
1.905640
  0
VERTEX
  8
0
  6
CONTINUOUS
 10
6.158680
 20
1.925440
  0
VERTEX
  8
0
  6
CONTINUOUS
 10
6.197400
 20
1.955360
  0
VERTEX
  8
0
  6
CONTINUOUS
 10
6.240960
 20
1.973840
  0
VERTEX
  8
0
  6
CONTINUOUS
 10
6.287160
 20
1.980880
  0
VERTEX
  8
0
  6
CONTINUOUS
 10
6.333800
 20
1.977360
  0
VERTEX
  8
0
  6
CONTINUOUS
 10
6.377800
 20
1.962400
  0
VERTEX
  8
0
  6
CONTINUOUS
 10
6.417840
 20
1.937320
  0
VERTEX
  8
0
  6
CONTINUOUS
 10
6.451280
 20
1.902120
  0
VERTEX
  8
0
  6
CONTINUOUS
 10
6.459640
 20
1.987040
  0
VERTEX
  8
0
  6
CONTINUOUS
 10
7.158800
 20
1.987040
  0
VERTEX
  8
0
  6
CONTINUOUS
 10
7.176840
 20
1.986160
  0
VERTEX
  8
0
  6
CONTINUOUS
 10
7.190920
 20
1.980880
  0
VERTEX
  8
0
  6
CONTINUOUS
 10
7.199280
 20
1.968560
  0
VERTEX
  8
0
  6
CONTINUOUS
 10
7.202360
 20
1.946120
  0
VERTEX
  8
0
  6
CONTINUOUS
 10
7.205440
 20
1.935120
  0
SEQEND
  8
0
  0
TEXT
  8
0
 10
4.400440
 20
0.998800
 40
0.138195
  1
BA  855
 41
1.000000
  7
SN0
 71
     0
 72
     5
 11
4.991737
 21
0.998800
  0
TEXT
  8
0
 10
4.387680
 20
0.806960
 40
0.138195
  1
3/4" x 5"
 41
1.000000
  7
SN0
 71
     0
 72
     5
 11
5.004188
 21
0.806960
  0
POLYLINE
  8
0
  6
CONTINUOUS
 66
     1
 40
0.014080
 41
0.014080
  0
VERTEX
  8
0
  6
CONTINUOUS
 10
7.135920
 20
3.948120
  0
VERTEX
  8
0
  6
CONTINUOUS
 10
7.135920
 20
3.259520
  0
VERTEX
  8
0
  6
CONTINUOUS
 10
2.119920
 20
3.259520
  0
VERTEX
  8
0
  6
CONTINUOUS
 10
2.119920
 20
3.965280
  0
VERTEX
  8
0
  6
CONTINUOUS
 10
2.123000
 20
3.981120
  0
VERTEX
  8
0
  6
CONTINUOUS
 10
2.126520
 20
3.988600
  0
VERTEX
  8
0
  6
CONTINUOUS
 10
2.131360
 20
3.993880
  0
VERTEX
  8
0
  6
CONTINUOUS
 10
2.145440
 20
3.999160
  0
VERTEX
  8
0
  6
CONTINUOUS
 10
2.163920
 20
4.000040
  0
VERTEX
  8
0
  6
CONTINUOUS
 10
2.862640
 20
4.000040
  0
VERTEX
  8
0
  6
CONTINUOUS
 10
2.871000
 20
3.915120
  0
VERTEX
  8
0
  6
CONTINUOUS
 10
2.895200
 20
3.942400
  0
VERTEX
  8
0
  6
CONTINUOUS
 10
2.923800
 20
3.963960
  0
VERTEX
  8
0
  6
CONTINUOUS
 10
2.944480
 20
3.975400
  0
VERTEX
  8
0
  6
CONTINUOUS
 10
2.977480
 20
3.987280
  0
VERTEX
  8
0
  6
CONTINUOUS
 10
3.011800
 20
3.993440
  0
VERTEX
  8
0
  6
CONTINUOUS
 10
3.035120
 20
3.993880
  0
VERTEX
  8
0
  6
CONTINUOUS
 10
3.058440
 20
3.991680
  0
VERTEX
  8
0
  6
CONTINUOUS
 10
3.092320
 20
3.983320
  0
VERTEX
  8
0
  6
CONTINUOUS
 10
3.124880
 20
3.968360
  0
VERTEX
  8
0
  6
CONTINUOUS
 10
3.154800
 20
3.946800
  0
VERTEX
  8
0
  6
CONTINUOUS
 10
3.180760
 20
3.918200
  0
VERTEX
  8
0
  6
CONTINUOUS
 10
3.195720
 20
3.895760
  0
VERTEX
  8
0
  6
CONTINUOUS
 10
3.214640
 20
3.919520
  0
VERTEX
  8
0
  6
CONTINUOUS
 10
3.229600
 20
3.933160
  0
VERTEX
  8
0
  6
CONTINUOUS
 10
3.256440
 20
3.949440
  0
VERTEX
  8
0
  6
CONTINUOUS
 10
3.276680
 20
3.957800
  0
VERTEX
  8
0
  6
CONTINUOUS
 10
3.299120
 20
3.963960
  0
VERTEX
  8
0
  6
CONTINUOUS
 10
3.323320
 20
3.967480
  0
VERTEX
  8
0
  6
CONTINUOUS
 10
3.349280
 20
3.968360
  0
VERTEX
  8
0
  6
CONTINUOUS
 10
3.391520
 20
3.963960
  0
VERTEX
  8
0
  6
CONTINUOUS
 10
3.421880
 20
3.957360
  0
VERTEX
  8
0
  6
CONTINUOUS
 10
3.470280
 20
3.941080
  0
VERTEX
  8
0
  6
CONTINUOUS
 10
3.522200
 20
3.916880
  0
VERTEX
  8
0
  6
CONTINUOUS
 10
3.577200
 20
3.884320
  0
VERTEX
  8
0
  6
CONTINUOUS
 10
3.654640
 20
3.830200
  0
VERTEX
  8
0
  6
CONTINUOUS
 10
3.713600
 20
3.795880
  0
VERTEX
  8
0
  6
CONTINUOUS
 10
3.772120
 20
3.767720
  0
VERTEX
  8
0
  6
CONTINUOUS
 10
3.811280
 20
3.751880
  0
VERTEX
  8
0
  6
CONTINUOUS
 10
3.849560
 20
3.738680
  0
VERTEX
  8
0
  6
CONTINUOUS
 10
3.925240
 20
3.717560
  0
VERTEX
  8
0
  6
CONTINUOUS
 10
3.998720
 20
3.703040
  0
VERTEX
  8
0
  6
CONTINUOUS
 10
4.068240
 20
3.692480
  0
VERTEX
  8
0
  6
CONTINUOUS
 10
4.194080
 20
3.676640
  0
VERTEX
  8
0
  6
CONTINUOUS
 10
4.211680
 20
3.775200
  0
VERTEX
  8
0
  6
CONTINUOUS
 10
4.373600
 20
3.775200
  0
VERTEX
  8
0
  6
CONTINUOUS
 10
4.384160
 20
3.802040
  0
VERTEX
  8
0
  6
CONTINUOUS
 10
4.405280
 20
3.836360
  0
VERTEX
  8
0
  6
CONTINUOUS
 10
4.430360
 20
3.864520
  0
VERTEX
  8
0
  6
CONTINUOUS
 10
4.449280
 20
3.880360
  0
VERTEX
  8
0
  6
CONTINUOUS
 10
4.489320
 20
3.905000
  0
VERTEX
  8
0
  6
CONTINUOUS
 10
4.530240
 20
3.921720
  0
VERTEX
  8
0
  6
CONTINUOUS
 10
4.568520
 20
3.931840
  0
VERTEX
  8
0
  6
CONTINUOUS
 10
4.607680
 20
3.938440
  0
VERTEX
  8
0
  6
CONTINUOUS
 10
4.631880
 20
3.939760
  0
VERTEX
  8
0
  6
CONTINUOUS
 10
4.663560
 20
3.935800
  0
VERTEX
  8
0
  6
CONTINUOUS
 10
4.699200
 20
3.928320
  0
VERTEX
  8
0
  6
CONTINUOUS
 10
4.739680
 20
3.914680
  0
VERTEX
  8
0
  6
CONTINUOUS
 10
4.760800
 20
3.905440
  0
VERTEX
  8
0
  6
CONTINUOUS
 10
4.801720
 20
3.880800
  0
VERTEX
  8
0
  6
CONTINUOUS
 10
4.830320
 20
3.856160
  0
VERTEX
  8
0
  6
CONTINUOUS
 10
4.854960
 20
3.825800
  0
VERTEX
  8
0
  6
CONTINUOUS
 10
4.868160
 20
3.802040
  0
VERTEX
  8
0
  6
CONTINUOUS
 10
4.879160
 20
3.775200
  0
VERTEX
  8
0
  6
CONTINUOUS
 10
5.041080
 20
3.775200
  0
VERTEX
  8
0
  6
CONTINUOUS
 10
5.058680
 20
3.676640
  0
VERTEX
  8
0
  6
CONTINUOUS
 10
5.218840
 20
3.697320
  0
VERTEX
  8
0
  6
CONTINUOUS
 10
5.290560
 20
3.710080
  0
VERTEX
  8
0
  6
CONTINUOUS
 10
5.364920
 20
3.727240
  0
VERTEX
  8
0
  6
CONTINUOUS
 10
5.403200
 20
3.738680
  0
VERTEX
  8
0
  6
CONTINUOUS
 10
5.480640
 20
3.767720
  0
VERTEX
  8
0
  6
CONTINUOUS
 10
5.539160
 20
3.795880
  0
VERTEX
  8
0
  6
CONTINUOUS
 10
5.578320
 20
3.818320
  0
VERTEX
  8
0
  6
CONTINUOUS
 10
5.617920
 20
3.843400
  0
VERTEX
  8
0
  6
CONTINUOUS
 10
5.675560
 20
3.884320
  0
VERTEX
  8
0
  6
CONTINUOUS
 10
5.730560
 20
3.916880
  0
VERTEX
  8
0
  6
CONTINUOUS
 10
5.782480
 20
3.941080
  0
VERTEX
  8
0
  6
CONTINUOUS
 10
5.830880
 20
3.957360
  0
VERTEX
  8
0
  6
CONTINUOUS
 10
5.875760
 20
3.966160
  0
VERTEX
  8
0
  6
CONTINUOUS
 10
5.903480
 20
3.968360
  0
VERTEX
  8
0
  6
CONTINUOUS
 10
5.929440
 20
3.967480
  0
VERTEX
  8
0
  6
CONTINUOUS
 10
5.953640
 20
3.963960
  0
VERTEX
  8
0
  6
CONTINUOUS
 10
5.976080
 20
3.958240
  0
VERTEX
  8
0
  6
CONTINUOUS
 10
5.996320
 20
3.949880
  0
VERTEX
  8
0
  6
CONTINUOUS
 10
6.023160
 20
3.933160
  0
VERTEX
  8
0
  6
CONTINUOUS
 10
6.045160
 20
3.912480
  0
VERTEX
  8
0
  6
CONTINUOUS
 10
6.057040
 20
3.896200
  0
VERTEX
  8
0
  6
CONTINUOUS
 10
6.072000
 20
3.918640
  0
VERTEX
  8
0
  6
CONTINUOUS
 10
6.089160
 20
3.938440
  0
VERTEX
  8
0
  6
CONTINUOUS
 10
6.107640
 20
3.954720
  0
VERTEX
  8
0
  6
CONTINUOUS
 10
6.138440
 20
3.974080
  0
VERTEX
  8
0
  6
CONTINUOUS
 10
6.171880
 20
3.986840
  0
VERTEX
  8
0
  6
CONTINUOUS
 10
6.206200
 20
3.993000
  0
VERTEX
  8
0
  6
CONTINUOUS
 10
6.229520
 20
3.993880
  0
VERTEX
  8
0
  6
CONTINUOUS
 10
6.252840
 20
3.992120
  0
VERTEX
  8
0
  6
CONTINUOUS
 10
6.286720
 20
3.984200
  0
VERTEX
  8
0
  6
CONTINUOUS
 10
6.318840
 20
3.970120
  0
VERTEX
  8
0
  6
CONTINUOUS
 10
6.348320
 20
3.950320
  0
VERTEX
  8
0
  6
CONTINUOUS
 10
6.374280
 20
3.924800
  0
VERTEX
  8
0
  6
CONTINUOUS
 10
6.381760
 20
3.915120
  0
VERTEX
  8
0
  6
CONTINUOUS
 10
6.390120
 20
4.000040
  0
VERTEX
  8
0
  6
CONTINUOUS
 10
7.098960
 20
4.000040
  0
VERTEX
  8
0
  6
CONTINUOUS
 10
7.115240
 20
3.997400
  0
VERTEX
  8
0
  6
CONTINUOUS
 10
7.121400
 20
3.993880
  0
VERTEX
  8
0
  6
CONTINUOUS
 10
7.128440
 20
3.985520
  0
VERTEX
  8
0
  6
CONTINUOUS
 10
7.132840
 20
3.965720
  0
VERTEX
  8
0
  6
CONTINUOUS
 10
7.132840
 20
3.959120
  0
VERTEX
  8
0
  6
CONTINUOUS
 10
7.135920
 20
3.948120
  0
SEQEND
  8
0
  0
ENDSEC
  0
EOF
