  0
SECTION
  2
HEADER
  9
$ACADVER
  1
AC1006
  9
$EXTMIN
 10
2.354000
 20
0.649440
  9
$EXTMAX
 10
6.950680
 20
4.192320
  9
$LTSCALE
 40
0.044000
  9
$PDMODE
 70
    35
  9
$PDSIZE
 40
0.035200
  0
ENDSEC
  0
SECTION
  2
TABLES
  0
TABLE
  2
LTYPE
 70
     9
  0
LTYPE
  2
CONTINUOUS
 70
    64
  3
Solid line
 72
    65
 73
     0
 40
0.000000
  0
LTYPE
  2
DASHED
 70
    64
  3
__ __ __ __ __ __ __ __ __ __ __ __ __ __ __
 72
    65
 73
     2
 40
0.000330
 49
0.000220
 49
-0.000110
  0
LTYPE
  2
HIDDEN
 70
    64
  3
 _ _ _ _ _ _ _ _ _ _ _ _ _ _ _ _ _ _ _ _ _ _
 72
    65
 73
     2
 40
0.000165
 49
0.000110
 49
-0.000055
  0
LTYPE
  2
CENTER
 70
    64
  3
____ _ ____ _ ____ _ ____ _ ____ _ ____ _ ____
 72
    65
 73
     4
 40
0.000880
 49
0.000550
 49
-0.000110
 49
0.000110
 49
-0.000110
  0
LTYPE
  2
PHANTOM
 70
    64
  3
_____ _ _ _____ _ _ _____ _ _ _____ _ _ ____
 72
    65
 73
     6
 40
0.001100
 49
0.000550
 49
-0.000110
 49
0.000110
 49
-0.000110
 49
0.000110
 49
-0.000110
  0
LTYPE
  2
DOT
 70
    64
  3
...............................................
 72
    65
 73
     2
 40
0.000110
 49
0.000000
 49
-0.000110
  0
LTYPE
  2
DASHDOT
 70
    64
  3
__ . __ . __ . __ . __ . __ . __ . __ . __ . __
 72
    65
 73
     4
 40
0.000440
 49
0.000220
 49
-0.000110
 49
0.000000
 49
-0.000110
  0
LTYPE
  2
BORDER
 70
    64
  3
__ __ . __ __ . __ __ . __ __ . __ __ . __ __
 72
    65
 73
     6
 40
0.000770
 49
0.000220
 49
-0.000110
 49
0.000220
 49
-0.000110
 49
0.000000
 49
-0.000110
  0
LTYPE
  2
DIVIDE
 70
    64
  3
__ . . __ . . __ . . __ . . __ . . __ . . __
 72
    65
 73
     6
 40
0.000550
 49
0.000220
 49
-0.000110
 49
0.000000
 49
-0.000110
 49
0.000000
 49
-0.000110
  0
LTYPE
  2
DOTDOT
 70
    64
  3
 . .  . .  . .  . .  . .  . . 
 72
    65
 73
     5
 40
0.000242
 49
-0.000110
 49
0.000000
 49
-0.000110
 49
0.000000
 49
-0.000110
  0
ENDTAB
  0
TABLE
  2
STYLE
 70
     2
  0
STYLE
 70
     0
  2
SN0
 40
0.000000
 41
0.000440
 50
0.000000
 71
     0
 42
0.000000
  3
ROMAND
  0
STYLE
 70
    68
  2
SV0
 40
0.000000
 41
0.000440
 50
0.000000
 71
     0
 42
0.000000
  3
ROMAND
  0
ENDTAB
  0
TABLE
  2
LAYER
 70
     3
  0
LAYER
  2
FOREGROUND
 70
    64
 62
     7
  6
CONTINUOUS
  0
LAYER
  2
BACKGROUND
 70
    65
 62
    -7
  6
CONTINUOUS
  0
LAYER
  2
0
 70
    64
 62
     7
  6
CONTINUOUS
  0
ENDTAB
  0
ENDSEC
  0
SECTION
  2
ENTITIES
  0
POLYLINE
  8
FOREGROUND
  6
CONTINUOUS
 66
     1
 40
0.000000
 41
0.000000
  0
VERTEX
  8
FOREGROUND
  6
CONTINUOUS
 10
0.000000
 20
4.841760
  0
VERTEX
  8
FOREGROUND
  6
CONTINUOUS
 10
8.499920
 20
4.841760
  0
VERTEX
  8
FOREGROUND
  6
CONTINUOUS
 10
8.499920
 20
-6.158240
  0
VERTEX
  8
FOREGROUND
  6
CONTINUOUS
 10
0.000000
 20
-6.158240
  0
VERTEX
  8
FOREGROUND
  6
CONTINUOUS
 10
0.000000
 20
4.841760
  0
SEQEND
  8
0
  0
POLYLINE
  8
FOREGROUND
  6
CONTINUOUS
 66
     1
 40
0.000000
 41
0.000000
  0
VERTEX
  8
FOREGROUND
  6
CONTINUOUS
 10
0.000000
 20
4.841760
  0
VERTEX
  8
FOREGROUND
  6
CONTINUOUS
 10
8.499920
 20
4.841760
  0
VERTEX
  8
FOREGROUND
  6
CONTINUOUS
 10
8.499920
 20
-6.158240
  0
VERTEX
  8
FOREGROUND
  6
CONTINUOUS
 10
0.000000
 20
-6.158240
  0
VERTEX
  8
FOREGROUND
  6
CONTINUOUS
 10
0.000000
 20
4.841760
  0
SEQEND
  8
0
  0
SOLID
  8
0
 62
    15
 10
5.153720
 20
1.702800
 11
5.158120
 21
2.450800
 12
5.476680
 22
1.702800
 13
5.480640
 23
2.450800
  0
POLYLINE
  8
0
  6
CONTINUOUS
 66
     1
 40
0.000000
 41
0.000000
  0
VERTEX
  8
0
  6
CONTINUOUS
 10
5.153720
 20
1.702800
  0
VERTEX
  8
0
  6
CONTINUOUS
 10
5.158120
 20
2.450800
  0
VERTEX
  8
0
  6
CONTINUOUS
 10
5.480640
 20
2.450800
  0
VERTEX
  8
0
  6
CONTINUOUS
 10
5.476680
 20
1.702800
  0
VERTEX
  8
0
  6
CONTINUOUS
 10
5.153720
 20
1.702800
  0
SEQEND
  8
0
  0
SOLID
  8
0
 62
    15
 10
2.815120
 20
2.027520
 11
2.819520
 21
2.775520
 12
2.846360
 22
1.912240
 13
2.850320
 23
2.660680
  0
POLYLINE
  8
0
  6
CONTINUOUS
 66
     1
 40
0.000000
 41
0.000000
  0
VERTEX
  8
0
  6
CONTINUOUS
 10
2.815120
 20
2.027520
  0
VERTEX
  8
0
  6
CONTINUOUS
 10
2.819520
 20
2.775520
  0
VERTEX
  8
0
  6
CONTINUOUS
 10
2.850320
 20
2.660680
  0
VERTEX
  8
0
  6
CONTINUOUS
 10
2.846360
 20
1.912240
  0
VERTEX
  8
0
  6
CONTINUOUS
 10
2.815120
 20
2.027520
  0
SEQEND
  8
0
  0
SOLID
  8
0
 62
    15
 10
2.846360
 20
1.912240
 11
2.850320
 21
2.660680
 12
2.931720
 22
1.909160
 13
2.935680
 23
2.657160
  0
POLYLINE
  8
0
  6
CONTINUOUS
 66
     1
 40
0.000000
 41
0.000000
  0
VERTEX
  8
0
  6
CONTINUOUS
 10
2.846360
 20
1.912240
  0
VERTEX
  8
0
  6
CONTINUOUS
 10
2.850320
 20
2.660680
  0
VERTEX
  8
0
  6
CONTINUOUS
 10
2.935680
 20
2.657160
  0
VERTEX
  8
0
  6
CONTINUOUS
 10
2.931720
 20
1.909160
  0
VERTEX
  8
0
  6
CONTINUOUS
 10
2.846360
 20
1.912240
  0
SEQEND
  8
0
  0
SOLID
  8
0
 62
    15
 10
2.931720
 20
1.909160
 11
2.935680
 21
2.657160
 12
3.006960
 22
1.900360
 13
3.010920
 23
2.648360
  0
POLYLINE
  8
0
  6
CONTINUOUS
 66
     1
 40
0.000000
 41
0.000000
  0
VERTEX
  8
0
  6
CONTINUOUS
 10
2.931720
 20
1.909160
  0
VERTEX
  8
0
  6
CONTINUOUS
 10
2.935680
 20
2.657160
  0
VERTEX
  8
0
  6
CONTINUOUS
 10
3.010920
 20
2.648360
  0
VERTEX
  8
0
  6
CONTINUOUS
 10
3.006960
 20
1.900360
  0
VERTEX
  8
0
  6
CONTINUOUS
 10
2.931720
 20
1.909160
  0
SEQEND
  8
0
  0
SOLID
  8
0
 62
    15
 10
3.006960
 20
1.900360
 11
3.010920
 21
2.648360
 12
3.072520
 22
1.887160
 13
3.076480
 23
2.635600
  0
POLYLINE
  8
0
  6
CONTINUOUS
 66
     1
 40
0.000000
 41
0.000000
  0
VERTEX
  8
0
  6
CONTINUOUS
 10
3.006960
 20
1.900360
  0
VERTEX
  8
0
  6
CONTINUOUS
 10
3.010920
 20
2.648360
  0
VERTEX
  8
0
  6
CONTINUOUS
 10
3.076480
 20
2.635600
  0
VERTEX
  8
0
  6
CONTINUOUS
 10
3.072520
 20
1.887160
  0
VERTEX
  8
0
  6
CONTINUOUS
 10
3.006960
 20
1.900360
  0
SEQEND
  8
0
  0
SOLID
  8
0
 62
    15
 10
3.072520
 20
1.887160
 11
3.076480
 21
2.635600
 12
3.129280
 22
1.870880
 13
3.133240
 23
2.619320
  0
POLYLINE
  8
0
  6
CONTINUOUS
 66
     1
 40
0.000000
 41
0.000000
  0
VERTEX
  8
0
  6
CONTINUOUS
 10
3.072520
 20
1.887160
  0
VERTEX
  8
0
  6
CONTINUOUS
 10
3.076480
 20
2.635600
  0
VERTEX
  8
0
  6
CONTINUOUS
 10
3.133240
 20
2.619320
  0
VERTEX
  8
0
  6
CONTINUOUS
 10
3.129280
 20
1.870880
  0
VERTEX
  8
0
  6
CONTINUOUS
 10
3.072520
 20
1.887160
  0
SEQEND
  8
0
  0
SOLID
  8
0
 62
    15
 10
3.129280
 20
1.870880
 11
3.133240
 21
2.619320
 12
3.177240
 22
1.853280
 13
3.181200
 23
2.601720
  0
POLYLINE
  8
0
  6
CONTINUOUS
 66
     1
 40
0.000000
 41
0.000000
  0
VERTEX
  8
0
  6
CONTINUOUS
 10
3.129280
 20
1.870880
  0
VERTEX
  8
0
  6
CONTINUOUS
 10
3.133240
 20
2.619320
  0
VERTEX
  8
0
  6
CONTINUOUS
 10
3.181200
 20
2.601720
  0
VERTEX
  8
0
  6
CONTINUOUS
 10
3.177240
 20
1.853280
  0
VERTEX
  8
0
  6
CONTINUOUS
 10
3.129280
 20
1.870880
  0
SEQEND
  8
0
  0
SOLID
  8
0
 62
    15
 10
3.177240
 20
1.853280
 11
3.181200
 21
2.601720
 12
3.217720
 22
1.835240
 13
3.221680
 23
2.583240
  0
POLYLINE
  8
0
  6
CONTINUOUS
 66
     1
 40
0.000000
 41
0.000000
  0
VERTEX
  8
0
  6
CONTINUOUS
 10
3.177240
 20
1.853280
  0
VERTEX
  8
0
  6
CONTINUOUS
 10
3.181200
 20
2.601720
  0
VERTEX
  8
0
  6
CONTINUOUS
 10
3.221680
 20
2.583240
  0
VERTEX
  8
0
  6
CONTINUOUS
 10
3.217720
 20
1.835240
  0
VERTEX
  8
0
  6
CONTINUOUS
 10
3.177240
 20
1.853280
  0
SEQEND
  8
0
  0
SOLID
  8
0
 62
    15
 10
3.217720
 20
1.835240
 11
3.221680
 21
2.583240
 12
3.251160
 22
1.817640
 13
3.255120
 23
2.566080
  0
POLYLINE
  8
0
  6
CONTINUOUS
 66
     1
 40
0.000000
 41
0.000000
  0
VERTEX
  8
0
  6
CONTINUOUS
 10
3.217720
 20
1.835240
  0
VERTEX
  8
0
  6
CONTINUOUS
 10
3.221680
 20
2.583240
  0
VERTEX
  8
0
  6
CONTINUOUS
 10
3.255120
 20
2.566080
  0
VERTEX
  8
0
  6
CONTINUOUS
 10
3.251160
 20
1.817640
  0
VERTEX
  8
0
  6
CONTINUOUS
 10
3.217720
 20
1.835240
  0
SEQEND
  8
0
  0
SOLID
  8
0
 62
    15
 10
3.251160
 20
1.817640
 11
3.255120
 21
2.566080
 12
3.278000
 22
1.802680
 13
3.281960
 23
2.550680
  0
POLYLINE
  8
0
  6
CONTINUOUS
 66
     1
 40
0.000000
 41
0.000000
  0
VERTEX
  8
0
  6
CONTINUOUS
 10
3.251160
 20
1.817640
  0
VERTEX
  8
0
  6
CONTINUOUS
 10
3.255120
 20
2.566080
  0
VERTEX
  8
0
  6
CONTINUOUS
 10
3.281960
 20
2.550680
  0
VERTEX
  8
0
  6
CONTINUOUS
 10
3.278000
 20
1.802680
  0
VERTEX
  8
0
  6
CONTINUOUS
 10
3.251160
 20
1.817640
  0
SEQEND
  8
0
  0
SOLID
  8
0
 62
    15
 10
3.278000
 20
1.802680
 11
3.281960
 21
2.550680
 12
3.306160
 22
1.787720
 13
3.310560
 23
2.535720
  0
POLYLINE
  8
0
  6
CONTINUOUS
 66
     1
 40
0.000000
 41
0.000000
  0
VERTEX
  8
0
  6
CONTINUOUS
 10
3.278000
 20
1.802680
  0
VERTEX
  8
0
  6
CONTINUOUS
 10
3.281960
 20
2.550680
  0
VERTEX
  8
0
  6
CONTINUOUS
 10
3.310560
 20
2.535720
  0
VERTEX
  8
0
  6
CONTINUOUS
 10
3.306160
 20
1.787720
  0
VERTEX
  8
0
  6
CONTINUOUS
 10
3.278000
 20
1.802680
  0
SEQEND
  8
0
  0
SOLID
  8
0
 62
    15
 10
3.306160
 20
1.787720
 11
3.310560
 21
2.535720
 12
3.342680
 22
1.771000
 13
3.347080
 23
2.519440
  0
POLYLINE
  8
0
  6
CONTINUOUS
 66
     1
 40
0.000000
 41
0.000000
  0
VERTEX
  8
0
  6
CONTINUOUS
 10
3.306160
 20
1.787720
  0
VERTEX
  8
0
  6
CONTINUOUS
 10
3.310560
 20
2.535720
  0
VERTEX
  8
0
  6
CONTINUOUS
 10
3.347080
 20
2.519440
  0
VERTEX
  8
0
  6
CONTINUOUS
 10
3.342680
 20
1.771000
  0
VERTEX
  8
0
  6
CONTINUOUS
 10
3.306160
 20
1.787720
  0
SEQEND
  8
0
  0
SOLID
  8
0
 62
    15
 10
3.342680
 20
1.771000
 11
3.347080
 21
2.519440
 12
3.430680
 22
1.738000
 13
3.434640
 23
2.486000
  0
POLYLINE
  8
0
  6
CONTINUOUS
 66
     1
 40
0.000000
 41
0.000000
  0
VERTEX
  8
0
  6
CONTINUOUS
 10
3.342680
 20
1.771000
  0
VERTEX
  8
0
  6
CONTINUOUS
 10
3.347080
 20
2.519440
  0
VERTEX
  8
0
  6
CONTINUOUS
 10
3.434640
 20
2.486000
  0
VERTEX
  8
0
  6
CONTINUOUS
 10
3.430680
 20
1.738000
  0
VERTEX
  8
0
  6
CONTINUOUS
 10
3.342680
 20
1.771000
  0
SEQEND
  8
0
  0
SOLID
  8
0
 62
    15
 10
3.430680
 20
1.738000
 11
3.434640
 21
2.486000
 12
3.522200
 22
1.711160
 13
3.526160
 23
2.459600
  0
POLYLINE
  8
0
  6
CONTINUOUS
 66
     1
 40
0.000000
 41
0.000000
  0
VERTEX
  8
0
  6
CONTINUOUS
 10
3.430680
 20
1.738000
  0
VERTEX
  8
0
  6
CONTINUOUS
 10
3.434640
 20
2.486000
  0
VERTEX
  8
0
  6
CONTINUOUS
 10
3.526160
 20
2.459600
  0
VERTEX
  8
0
  6
CONTINUOUS
 10
3.522200
 20
1.711160
  0
VERTEX
  8
0
  6
CONTINUOUS
 10
3.430680
 20
1.738000
  0
SEQEND
  8
0
  0
SOLID
  8
0
 62
    15
 10
3.522200
 20
1.711160
 11
3.526160
 21
2.459600
 12
3.563120
 22
1.703240
 13
3.567520
 23
2.451680
  0
POLYLINE
  8
0
  6
CONTINUOUS
 66
     1
 40
0.000000
 41
0.000000
  0
VERTEX
  8
0
  6
CONTINUOUS
 10
3.522200
 20
1.711160
  0
VERTEX
  8
0
  6
CONTINUOUS
 10
3.526160
 20
2.459600
  0
VERTEX
  8
0
  6
CONTINUOUS
 10
3.567520
 20
2.451680
  0
VERTEX
  8
0
  6
CONTINUOUS
 10
3.563120
 20
1.703240
  0
VERTEX
  8
0
  6
CONTINUOUS
 10
3.522200
 20
1.711160
  0
SEQEND
  8
0
  0
SOLID
  8
0
 62
    15
 10
3.563120
 20
1.703240
 11
3.567520
 21
2.451680
 12
3.598320
 22
1.700600
 13
3.602280
 23
2.448600
  0
POLYLINE
  8
0
  6
CONTINUOUS
 66
     1
 40
0.000000
 41
0.000000
  0
VERTEX
  8
0
  6
CONTINUOUS
 10
3.563120
 20
1.703240
  0
VERTEX
  8
0
  6
CONTINUOUS
 10
3.567520
 20
2.451680
  0
VERTEX
  8
0
  6
CONTINUOUS
 10
3.602280
 20
2.448600
  0
VERTEX
  8
0
  6
CONTINUOUS
 10
3.598320
 20
1.700600
  0
VERTEX
  8
0
  6
CONTINUOUS
 10
3.563120
 20
1.703240
  0
SEQEND
  8
0
  0
SOLID
  8
0
 62
    15
 10
3.598320
 20
1.700600
 11
3.602280
 21
2.448600
 12
3.622520
 22
1.591480
 13
3.626480
 23
2.339480
  0
POLYLINE
  8
0
  6
CONTINUOUS
 66
     1
 40
0.000000
 41
0.000000
  0
VERTEX
  8
0
  6
CONTINUOUS
 10
3.598320
 20
1.700600
  0
VERTEX
  8
0
  6
CONTINUOUS
 10
3.602280
 20
2.448600
  0
VERTEX
  8
0
  6
CONTINUOUS
 10
3.626480
 20
2.339480
  0
VERTEX
  8
0
  6
CONTINUOUS
 10
3.622520
 20
1.591480
  0
VERTEX
  8
0
  6
CONTINUOUS
 10
3.598320
 20
1.700600
  0
SEQEND
  8
0
  0
SOLID
  8
0
 62
    15
 10
3.622520
 20
1.591480
 11
3.626480
 21
2.339480
 12
5.151960
 22
1.591480
 13
5.155920
 23
2.339480
  0
POLYLINE
  8
0
  6
CONTINUOUS
 66
     1
 40
0.000000
 41
0.000000
  0
VERTEX
  8
0
  6
CONTINUOUS
 10
3.622520
 20
1.591480
  0
VERTEX
  8
0
  6
CONTINUOUS
 10
3.626480
 20
2.339480
  0
VERTEX
  8
0
  6
CONTINUOUS
 10
5.155920
 20
2.339480
  0
VERTEX
  8
0
  6
CONTINUOUS
 10
5.151960
 20
1.591480
  0
VERTEX
  8
0
  6
CONTINUOUS
 10
3.622520
 20
1.591480
  0
SEQEND
  8
0
  0
SOLID
  8
0
 62
    15
 10
5.151960
 20
1.591480
 11
5.155920
 21
2.339480
 12
5.153720
 22
1.702800
 13
5.158120
 23
2.450800
  0
POLYLINE
  8
0
  6
CONTINUOUS
 66
     1
 40
0.000000
 41
0.000000
  0
VERTEX
  8
0
  6
CONTINUOUS
 10
5.151960
 20
1.591480
  0
VERTEX
  8
0
  6
CONTINUOUS
 10
5.155920
 20
2.339480
  0
VERTEX
  8
0
  6
CONTINUOUS
 10
5.158120
 20
2.450800
  0
VERTEX
  8
0
  6
CONTINUOUS
 10
5.153720
 20
1.702800
  0
VERTEX
  8
0
  6
CONTINUOUS
 10
5.151960
 20
1.591480
  0
SEQEND
  8
0
  0
SOLID
  8
0
 62
    15
 10
2.354440
 20
2.026200
 11
2.358400
 21
2.774640
 12
2.371160
 22
2.026200
 13
2.375120
 23
2.774640
  0
POLYLINE
  8
0
  6
CONTINUOUS
 66
     1
 40
0.000000
 41
0.000000
  0
VERTEX
  8
0
  6
CONTINUOUS
 10
2.354440
 20
2.026200
  0
VERTEX
  8
0
  6
CONTINUOUS
 10
2.358400
 20
2.774640
  0
VERTEX
  8
0
  6
CONTINUOUS
 10
2.375120
 20
2.774640
  0
VERTEX
  8
0
  6
CONTINUOUS
 10
2.371160
 20
2.026200
  0
VERTEX
  8
0
  6
CONTINUOUS
 10
2.354440
 20
2.026200
  0
SEQEND
  8
0
  0
SOLID
  8
0
 62
    15
 10
5.476680
 20
1.702800
 11
5.480640
 21
2.450800
 12
5.540480
 22
1.592800
 13
5.544880
 23
2.340800
  0
POLYLINE
  8
0
  6
CONTINUOUS
 66
     1
 40
0.000000
 41
0.000000
  0
VERTEX
  8
0
  6
CONTINUOUS
 10
5.476680
 20
1.702800
  0
VERTEX
  8
0
  6
CONTINUOUS
 10
5.480640
 20
2.450800
  0
VERTEX
  8
0
  6
CONTINUOUS
 10
5.544880
 20
2.340800
  0
VERTEX
  8
0
  6
CONTINUOUS
 10
5.540480
 20
1.592800
  0
VERTEX
  8
0
  6
CONTINUOUS
 10
5.476680
 20
1.702800
  0
SEQEND
  8
0
  0
SOLID
  8
0
 62
    15
 10
5.540480
 20
1.592800
 11
5.544880
 21
2.340800
 12
5.579640
 22
1.594560
 13
5.583600
 23
2.343000
  0
POLYLINE
  8
0
  6
CONTINUOUS
 66
     1
 40
0.000000
 41
0.000000
  0
VERTEX
  8
0
  6
CONTINUOUS
 10
5.540480
 20
1.592800
  0
VERTEX
  8
0
  6
CONTINUOUS
 10
5.544880
 20
2.340800
  0
VERTEX
  8
0
  6
CONTINUOUS
 10
5.583600
 20
2.343000
  0
VERTEX
  8
0
  6
CONTINUOUS
 10
5.579640
 20
1.594560
  0
VERTEX
  8
0
  6
CONTINUOUS
 10
5.540480
 20
1.592800
  0
SEQEND
  8
0
  0
SOLID
  8
0
 62
    15
 10
5.579640
 20
1.594560
 11
5.583600
 21
2.343000
 12
5.612640
 22
1.595000
 13
5.617040
 23
2.343000
  0
POLYLINE
  8
0
  6
CONTINUOUS
 66
     1
 40
0.000000
 41
0.000000
  0
VERTEX
  8
0
  6
CONTINUOUS
 10
5.579640
 20
1.594560
  0
VERTEX
  8
0
  6
CONTINUOUS
 10
5.583600
 20
2.343000
  0
VERTEX
  8
0
  6
CONTINUOUS
 10
5.617040
 20
2.343000
  0
VERTEX
  8
0
  6
CONTINUOUS
 10
5.612640
 20
1.595000
  0
VERTEX
  8
0
  6
CONTINUOUS
 10
5.579640
 20
1.594560
  0
SEQEND
  8
0
  0
SOLID
  8
0
 62
    15
 10
5.612640
 20
1.595000
 11
5.617040
 21
2.343000
 12
5.668520
 22
1.589280
 13
5.672480
 23
2.337280
  0
POLYLINE
  8
0
  6
CONTINUOUS
 66
     1
 40
0.000000
 41
0.000000
  0
VERTEX
  8
0
  6
CONTINUOUS
 10
5.612640
 20
1.595000
  0
VERTEX
  8
0
  6
CONTINUOUS
 10
5.617040
 20
2.343000
  0
VERTEX
  8
0
  6
CONTINUOUS
 10
5.672480
 20
2.337280
  0
VERTEX
  8
0
  6
CONTINUOUS
 10
5.668520
 20
1.589280
  0
VERTEX
  8
0
  6
CONTINUOUS
 10
5.612640
 20
1.595000
  0
SEQEND
  8
0
  0
SOLID
  8
0
 62
    15
 10
5.668520
 20
1.589280
 11
5.672480
 21
2.337280
 12
5.721320
 22
1.572560
 13
5.725280
 23
2.321000
  0
POLYLINE
  8
0
  6
CONTINUOUS
 66
     1
 40
0.000000
 41
0.000000
  0
VERTEX
  8
0
  6
CONTINUOUS
 10
5.668520
 20
1.589280
  0
VERTEX
  8
0
  6
CONTINUOUS
 10
5.672480
 20
2.337280
  0
VERTEX
  8
0
  6
CONTINUOUS
 10
5.725280
 20
2.321000
  0
VERTEX
  8
0
  6
CONTINUOUS
 10
5.721320
 20
1.572560
  0
VERTEX
  8
0
  6
CONTINUOUS
 10
5.668520
 20
1.589280
  0
SEQEND
  8
0
  0
SOLID
  8
0
 62
    15
 10
5.721320
 20
1.572560
 11
5.725280
 21
2.321000
 12
5.751240
 22
1.559800
 13
5.755200
 23
2.307800
  0
POLYLINE
  8
0
  6
CONTINUOUS
 66
     1
 40
0.000000
 41
0.000000
  0
VERTEX
  8
0
  6
CONTINUOUS
 10
5.721320
 20
1.572560
  0
VERTEX
  8
0
  6
CONTINUOUS
 10
5.725280
 20
2.321000
  0
VERTEX
  8
0
  6
CONTINUOUS
 10
5.755200
 20
2.307800
  0
VERTEX
  8
0
  6
CONTINUOUS
 10
5.751240
 20
1.559800
  0
VERTEX
  8
0
  6
CONTINUOUS
 10
5.721320
 20
1.572560
  0
SEQEND
  8
0
  0
SOLID
  8
0
 62
    15
 10
5.751240
 20
1.559800
 11
5.755200
 21
2.307800
 12
5.785560
 22
1.543080
 13
5.789520
 23
2.291080
  0
POLYLINE
  8
0
  6
CONTINUOUS
 66
     1
 40
0.000000
 41
0.000000
  0
VERTEX
  8
0
  6
CONTINUOUS
 10
5.751240
 20
1.559800
  0
VERTEX
  8
0
  6
CONTINUOUS
 10
5.755200
 20
2.307800
  0
VERTEX
  8
0
  6
CONTINUOUS
 10
5.789520
 20
2.291080
  0
VERTEX
  8
0
  6
CONTINUOUS
 10
5.785560
 20
1.543080
  0
VERTEX
  8
0
  6
CONTINUOUS
 10
5.751240
 20
1.559800
  0
SEQEND
  8
0
  0
SOLID
  8
0
 62
    15
 10
5.785560
 20
1.543080
 11
5.789520
 21
2.291080
 12
5.819880
 22
1.526360
 13
5.823840
 23
2.274800
  0
POLYLINE
  8
0
  6
CONTINUOUS
 66
     1
 40
0.000000
 41
0.000000
  0
VERTEX
  8
0
  6
CONTINUOUS
 10
5.785560
 20
1.543080
  0
VERTEX
  8
0
  6
CONTINUOUS
 10
5.789520
 20
2.291080
  0
VERTEX
  8
0
  6
CONTINUOUS
 10
5.823840
 20
2.274800
  0
VERTEX
  8
0
  6
CONTINUOUS
 10
5.819880
 20
1.526360
  0
VERTEX
  8
0
  6
CONTINUOUS
 10
5.785560
 20
1.543080
  0
SEQEND
  8
0
  0
SOLID
  8
0
 62
    15
 10
5.819880
 20
1.526360
 11
5.823840
 21
2.274800
 12
5.848480
 22
1.513600
 13
5.852440
 23
2.262040
  0
POLYLINE
  8
0
  6
CONTINUOUS
 66
     1
 40
0.000000
 41
0.000000
  0
VERTEX
  8
0
  6
CONTINUOUS
 10
5.819880
 20
1.526360
  0
VERTEX
  8
0
  6
CONTINUOUS
 10
5.823840
 20
2.274800
  0
VERTEX
  8
0
  6
CONTINUOUS
 10
5.852440
 20
2.262040
  0
VERTEX
  8
0
  6
CONTINUOUS
 10
5.848480
 20
1.513600
  0
VERTEX
  8
0
  6
CONTINUOUS
 10
5.819880
 20
1.526360
  0
SEQEND
  8
0
  0
SOLID
  8
0
 62
    15
 10
5.848480
 20
1.513600
 11
5.852440
 21
2.262040
 12
5.871800
 22
1.504360
 13
5.875760
 23
2.252800
  0
POLYLINE
  8
0
  6
CONTINUOUS
 66
     1
 40
0.000000
 41
0.000000
  0
VERTEX
  8
0
  6
CONTINUOUS
 10
5.848480
 20
1.513600
  0
VERTEX
  8
0
  6
CONTINUOUS
 10
5.852440
 20
2.262040
  0
VERTEX
  8
0
  6
CONTINUOUS
 10
5.875760
 20
2.252800
  0
VERTEX
  8
0
  6
CONTINUOUS
 10
5.871800
 20
1.504360
  0
VERTEX
  8
0
  6
CONTINUOUS
 10
5.848480
 20
1.513600
  0
SEQEND
  8
0
  0
SOLID
  8
0
 62
    15
 10
5.871800
 20
1.504360
 11
5.875760
 21
2.252800
 12
5.890280
 22
1.497760
 13
5.894680
 23
2.246200
  0
POLYLINE
  8
0
  6
CONTINUOUS
 66
     1
 40
0.000000
 41
0.000000
  0
VERTEX
  8
0
  6
CONTINUOUS
 10
5.871800
 20
1.504360
  0
VERTEX
  8
0
  6
CONTINUOUS
 10
5.875760
 20
2.252800
  0
VERTEX
  8
0
  6
CONTINUOUS
 10
5.894680
 20
2.246200
  0
VERTEX
  8
0
  6
CONTINUOUS
 10
5.890280
 20
1.497760
  0
VERTEX
  8
0
  6
CONTINUOUS
 10
5.871800
 20
1.504360
  0
SEQEND
  8
0
  0
SOLID
  8
0
 62
    15
 10
5.890280
 20
1.497760
 11
5.894680
 21
2.246200
 12
5.904800
 22
1.493360
 13
5.908760
 23
2.241800
  0
POLYLINE
  8
0
  6
CONTINUOUS
 66
     1
 40
0.000000
 41
0.000000
  0
VERTEX
  8
0
  6
CONTINUOUS
 10
5.890280
 20
1.497760
  0
VERTEX
  8
0
  6
CONTINUOUS
 10
5.894680
 20
2.246200
  0
VERTEX
  8
0
  6
CONTINUOUS
 10
5.908760
 20
2.241800
  0
VERTEX
  8
0
  6
CONTINUOUS
 10
5.904800
 20
1.493360
  0
VERTEX
  8
0
  6
CONTINUOUS
 10
5.890280
 20
1.497760
  0
SEQEND
  8
0
  0
SOLID
  8
0
 62
    15
 10
5.904800
 20
1.493360
 11
5.908760
 21
2.241800
 12
5.914480
 22
1.491160
 13
5.918880
 23
2.239160
  0
POLYLINE
  8
0
  6
CONTINUOUS
 66
     1
 40
0.000000
 41
0.000000
  0
VERTEX
  8
0
  6
CONTINUOUS
 10
5.904800
 20
1.493360
  0
VERTEX
  8
0
  6
CONTINUOUS
 10
5.908760
 20
2.241800
  0
VERTEX
  8
0
  6
CONTINUOUS
 10
5.918880
 20
2.239160
  0
VERTEX
  8
0
  6
CONTINUOUS
 10
5.914480
 20
1.491160
  0
VERTEX
  8
0
  6
CONTINUOUS
 10
5.904800
 20
1.493360
  0
SEQEND
  8
0
  0
SOLID
  8
0
 62
    15
 10
6.927800
 20
1.419000
 11
6.931760
 21
2.167000
 12
6.927800
 22
1.117160
 13
6.931760
 23
1.865600
  0
POLYLINE
  8
0
  6
CONTINUOUS
 66
     1
 40
0.000000
 41
0.000000
  0
VERTEX
  8
0
  6
CONTINUOUS
 10
6.927800
 20
1.419000
  0
VERTEX
  8
0
  6
CONTINUOUS
 10
6.931760
 20
2.167000
  0
VERTEX
  8
0
  6
CONTINUOUS
 10
6.931760
 20
1.865600
  0
VERTEX
  8
0
  6
CONTINUOUS
 10
6.927800
 20
1.117160
  0
VERTEX
  8
0
  6
CONTINUOUS
 10
6.927800
 20
1.419000
  0
SEQEND
  8
0
  0
SOLID
  8
0
 62
    15
 10
5.930760
 20
1.419000
 11
5.934720
 21
2.167000
 12
6.927800
 22
1.419000
 13
6.931760
 23
2.167000
  0
POLYLINE
  8
0
  6
CONTINUOUS
 66
     1
 40
0.000000
 41
0.000000
  0
VERTEX
  8
0
  6
CONTINUOUS
 10
5.930760
 20
1.419000
  0
VERTEX
  8
0
  6
CONTINUOUS
 10
5.934720
 20
2.167000
  0
VERTEX
  8
0
  6
CONTINUOUS
 10
6.931760
 20
2.167000
  0
VERTEX
  8
0
  6
CONTINUOUS
 10
6.927800
 20
1.419000
  0
VERTEX
  8
0
  6
CONTINUOUS
 10
5.930760
 20
1.419000
  0
SEQEND
  8
0
  0
SOLID
  8
0
 62
    15
 10
5.923720
 20
1.489840
 11
5.927680
 21
2.237840
 12
5.930760
 22
1.419000
 13
5.934720
 23
2.167000
  0
POLYLINE
  8
0
  6
CONTINUOUS
 66
     1
 40
0.000000
 41
0.000000
  0
VERTEX
  8
0
  6
CONTINUOUS
 10
5.923720
 20
1.489840
  0
VERTEX
  8
0
  6
CONTINUOUS
 10
5.927680
 20
2.237840
  0
VERTEX
  8
0
  6
CONTINUOUS
 10
5.934720
 20
2.167000
  0
VERTEX
  8
0
  6
CONTINUOUS
 10
5.930760
 20
1.419000
  0
VERTEX
  8
0
  6
CONTINUOUS
 10
5.923720
 20
1.489840
  0
SEQEND
  8
0
  0
SOLID
  8
0
 62
    15
 10
5.914480
 20
1.491160
 11
5.918880
 21
2.239160
 12
5.923720
 22
1.489840
 13
5.927680
 23
2.237840
  0
POLYLINE
  8
0
  6
CONTINUOUS
 66
     1
 40
0.000000
 41
0.000000
  0
VERTEX
  8
0
  6
CONTINUOUS
 10
5.914480
 20
1.491160
  0
VERTEX
  8
0
  6
CONTINUOUS
 10
5.918880
 20
2.239160
  0
VERTEX
  8
0
  6
CONTINUOUS
 10
5.927680
 20
2.237840
  0
VERTEX
  8
0
  6
CONTINUOUS
 10
5.923720
 20
1.489840
  0
VERTEX
  8
0
  6
CONTINUOUS
 10
5.914480
 20
1.491160
  0
SEQEND
  8
0
  0
SOLID
  8
0
 62
    15
 10
2.371160
 20
2.027520
 11
2.375120
 21
2.775520
 12
2.815120
 22
2.027520
 13
2.819520
 23
2.775520
  0
POLYLINE
  8
0
  6
CONTINUOUS
 66
     1
 40
0.000000
 41
0.000000
  0
VERTEX
  8
0
  6
CONTINUOUS
 10
2.371160
 20
2.027520
  0
VERTEX
  8
0
  6
CONTINUOUS
 10
2.375120
 20
2.775520
  0
VERTEX
  8
0
  6
CONTINUOUS
 10
2.819520
 20
2.775520
  0
VERTEX
  8
0
  6
CONTINUOUS
 10
2.815120
 20
2.027520
  0
VERTEX
  8
0
  6
CONTINUOUS
 10
2.371160
 20
2.027520
  0
SEQEND
  8
0
  0
POLYLINE
  8
0
  6
CONTINUOUS
 66
     1
 40
0.000000
 41
0.000000
  0
VERTEX
  8
0
  6
CONTINUOUS
 10
2.371160
 20
2.027520
  0
VERTEX
  8
0
  6
CONTINUOUS
 10
2.815120
 20
2.027520
  0
VERTEX
  8
0
  6
CONTINUOUS
 10
2.846360
 20
1.912240
  0
VERTEX
  8
0
  6
CONTINUOUS
 10
2.931720
 20
1.909160
  0
VERTEX
  8
0
  6
CONTINUOUS
 10
3.006960
 20
1.900360
  0
VERTEX
  8
0
  6
CONTINUOUS
 10
3.072520
 20
1.887160
  0
VERTEX
  8
0
  6
CONTINUOUS
 10
3.129280
 20
1.870880
  0
VERTEX
  8
0
  6
CONTINUOUS
 10
3.177240
 20
1.853280
  0
VERTEX
  8
0
  6
CONTINUOUS
 10
3.217720
 20
1.835240
  0
VERTEX
  8
0
  6
CONTINUOUS
 10
3.251160
 20
1.817640
  0
VERTEX
  8
0
  6
CONTINUOUS
 10
3.278000
 20
1.802680
  0
VERTEX
  8
0
  6
CONTINUOUS
 10
3.306160
 20
1.787720
  0
VERTEX
  8
0
  6
CONTINUOUS
 10
3.342680
 20
1.771000
  0
VERTEX
  8
0
  6
CONTINUOUS
 10
3.430680
 20
1.738000
  0
VERTEX
  8
0
  6
CONTINUOUS
 10
3.522200
 20
1.711160
  0
VERTEX
  8
0
  6
CONTINUOUS
 10
3.563120
 20
1.703240
  0
VERTEX
  8
0
  6
CONTINUOUS
 10
3.598320
 20
1.700600
  0
VERTEX
  8
0
  6
CONTINUOUS
 10
3.622520
 20
1.591480
  0
VERTEX
  8
0
  6
CONTINUOUS
 10
5.151960
 20
1.591480
  0
VERTEX
  8
0
  6
CONTINUOUS
 10
5.153720
 20
1.702800
  0
VERTEX
  8
0
  6
CONTINUOUS
 10
5.476680
 20
1.702800
  0
VERTEX
  8
0
  6
CONTINUOUS
 10
5.540480
 20
1.592800
  0
VERTEX
  8
0
  6
CONTINUOUS
 10
5.579640
 20
1.594560
  0
VERTEX
  8
0
  6
CONTINUOUS
 10
5.612640
 20
1.595000
  0
VERTEX
  8
0
  6
CONTINUOUS
 10
5.668520
 20
1.589280
  0
VERTEX
  8
0
  6
CONTINUOUS
 10
5.721320
 20
1.572560
  0
VERTEX
  8
0
  6
CONTINUOUS
 10
5.751240
 20
1.559800
  0
VERTEX
  8
0
  6
CONTINUOUS
 10
5.785560
 20
1.543080
  0
VERTEX
  8
0
  6
CONTINUOUS
 10
5.819880
 20
1.526360
  0
VERTEX
  8
0
  6
CONTINUOUS
 10
5.848480
 20
1.513600
  0
VERTEX
  8
0
  6
CONTINUOUS
 10
5.871800
 20
1.504360
  0
VERTEX
  8
0
  6
CONTINUOUS
 10
5.890280
 20
1.497760
  0
VERTEX
  8
0
  6
CONTINUOUS
 10
5.904800
 20
1.493360
  0
VERTEX
  8
0
  6
CONTINUOUS
 10
5.914480
 20
1.491160
  0
VERTEX
  8
0
  6
CONTINUOUS
 10
5.923720
 20
1.489840
  0
VERTEX
  8
0
  6
CONTINUOUS
 10
5.930760
 20
1.419000
  0
VERTEX
  8
0
  6
CONTINUOUS
 10
6.927800
 20
1.419000
  0
VERTEX
  8
0
  6
CONTINUOUS
 10
6.927800
 20
1.117160
  0
VERTEX
  8
0
  6
CONTINUOUS
 10
2.354440
 20
1.117160
  0
VERTEX
  8
0
  6
CONTINUOUS
 10
2.354440
 20
2.026200
  0
VERTEX
  8
0
  6
CONTINUOUS
 10
2.371160
 20
2.026200
  0
VERTEX
  8
0
  6
CONTINUOUS
 10
2.371160
 20
2.027520
  0
SEQEND
  8
0
  0
TEXT
  8
0
 10
4.348520
 20
0.884840
 40
0.138001
  1
BA  854
 41
1.000000
  7
SN0
 71
     0
 72
     5
 11
4.939423
 21
0.884840
  0
TEXT
  8
0
 10
4.146560
 20
0.693440
 40
0.138001
  1
7/8" x 4-9/16"
 41
1.000000
  7
SN0
 71
     0
 72
     5
 11
5.140822
 21
0.693440
  0
POLYLINE
  8
0
  6
CONTINUOUS
 66
     1
 40
0.014080
 41
0.014080
  0
VERTEX
  8
0
  6
CONTINUOUS
 10
2.387000
 20
4.184840
  0
VERTEX
  8
0
  6
CONTINUOUS
 10
2.830960
 20
4.184840
  0
VERTEX
  8
0
  6
CONTINUOUS
 10
2.862200
 20
4.069560
  0
VERTEX
  8
0
  6
CONTINUOUS
 10
2.927320
 20
4.067800
  0
VERTEX
  8
0
  6
CONTINUOUS
 10
2.986280
 20
4.062520
  0
VERTEX
  8
0
  6
CONTINUOUS
 10
3.039960
 20
4.054600
  0
VERTEX
  8
0
  6
CONTINUOUS
 10
3.088360
 20
4.044480
  0
VERTEX
  8
0
  6
CONTINUOUS
 10
3.145120
 20
4.028200
  0
VERTEX
  8
0
  6
CONTINUOUS
 10
3.193080
 20
4.010600
  0
VERTEX
  8
0
  6
CONTINUOUS
 10
3.251160
 20
3.983320
  0
VERTEX
  8
0
  6
CONTINUOUS
 10
3.322440
 20
3.945040
  0
VERTEX
  8
0
  6
CONTINUOUS
 10
3.379200
 20
3.919960
  0
VERTEX
  8
0
  6
CONTINUOUS
 10
3.446520
 20
3.895320
  0
VERTEX
  8
0
  6
CONTINUOUS
 10
3.516040
 20
3.874200
  0
VERTEX
  8
0
  6
CONTINUOUS
 10
3.559160
 20
3.864080
  0
VERTEX
  8
0
  6
CONTINUOUS
 10
3.606240
 20
3.857920
  0
VERTEX
  8
0
  6
CONTINUOUS
 10
3.614160
 20
3.857920
  0
VERTEX
  8
0
  6
CONTINUOUS
 10
3.638360
 20
3.748800
  0
VERTEX
  8
0
  6
CONTINUOUS
 10
5.167800
 20
3.748800
  0
VERTEX
  8
0
  6
CONTINUOUS
 10
5.170000
 20
3.860120
  0
VERTEX
  8
0
  6
CONTINUOUS
 10
5.492520
 20
3.860120
  0
VERTEX
  8
0
  6
CONTINUOUS
 10
5.556320
 20
3.750120
  0
VERTEX
  8
0
  6
CONTINUOUS
 10
5.612640
 20
3.752320
  0
VERTEX
  8
0
  6
CONTINUOUS
 10
5.643440
 20
3.751880
  0
VERTEX
  8
0
  6
CONTINUOUS
 10
5.684360
 20
3.746600
  0
VERTEX
  8
0
  6
CONTINUOUS
 10
5.723520
 20
3.735600
  0
VERTEX
  8
0
  6
CONTINUOUS
 10
5.767080
 20
3.717120
  0
VERTEX
  8
0
  6
CONTINUOUS
 10
5.864320
 20
3.670920
  0
VERTEX
  8
0
  6
CONTINUOUS
 10
5.920200
 20
3.650680
  0
VERTEX
  8
0
  6
CONTINUOUS
 10
5.939560
 20
3.647160
  0
VERTEX
  8
0
  6
CONTINUOUS
 10
5.946600
 20
3.576320
  0
VERTEX
  8
0
  6
CONTINUOUS
 10
6.943640
 20
3.576320
  0
VERTEX
  8
0
  6
CONTINUOUS
 10
6.943640
 20
3.274480
  0
VERTEX
  8
0
  6
CONTINUOUS
 10
2.370280
 20
3.274480
  0
VERTEX
  8
0
  6
CONTINUOUS
 10
2.370280
 20
4.183520
  0
VERTEX
  8
0
  6
CONTINUOUS
 10
2.387000
 20
4.183520
  0
VERTEX
  8
0
  6
CONTINUOUS
 10
2.387000
 20
4.184840
  0
SEQEND
  8
0
  0
ENDSEC
  0
EOF
