  0
SECTION
  2
HEADER
  9
$ACADVER
  1
AC1006
  9
$EXTMIN
 10
3.035120
 20
0.724240
  9
$EXTMAX
 10
7.068600
 20
3.949000
  9
$LTSCALE
 40
0.044000
  9
$PDMODE
 70
    35
  9
$PDSIZE
 40
0.035200
  0
ENDSEC
  0
SECTION
  2
TABLES
  0
TABLE
  2
LTYPE
 70
     9
  0
LTYPE
  2
CONTINUOUS
 70
    64
  3
Solid line
 72
    65
 73
     0
 40
0.000000
  0
LTYPE
  2
DASHED
 70
    64
  3
__ __ __ __ __ __ __ __ __ __ __ __ __ __ __
 72
    65
 73
     2
 40
0.000330
 49
0.000220
 49
-0.000110
  0
LTYPE
  2
HIDDEN
 70
    64
  3
 _ _ _ _ _ _ _ _ _ _ _ _ _ _ _ _ _ _ _ _ _ _
 72
    65
 73
     2
 40
0.000165
 49
0.000110
 49
-0.000055
  0
LTYPE
  2
CENTER
 70
    64
  3
____ _ ____ _ ____ _ ____ _ ____ _ ____ _ ____
 72
    65
 73
     4
 40
0.000880
 49
0.000550
 49
-0.000110
 49
0.000110
 49
-0.000110
  0
LTYPE
  2
PHANTOM
 70
    64
  3
_____ _ _ _____ _ _ _____ _ _ _____ _ _ ____
 72
    65
 73
     6
 40
0.001100
 49
0.000550
 49
-0.000110
 49
0.000110
 49
-0.000110
 49
0.000110
 49
-0.000110
  0
LTYPE
  2
DOT
 70
    64
  3
...............................................
 72
    65
 73
     2
 40
0.000110
 49
0.000000
 49
-0.000110
  0
LTYPE
  2
DASHDOT
 70
    64
  3
__ . __ . __ . __ . __ . __ . __ . __ . __ . __
 72
    65
 73
     4
 40
0.000440
 49
0.000220
 49
-0.000110
 49
0.000000
 49
-0.000110
  0
LTYPE
  2
BORDER
 70
    64
  3
__ __ . __ __ . __ __ . __ __ . __ __ . __ __
 72
    65
 73
     6
 40
0.000770
 49
0.000220
 49
-0.000110
 49
0.000220
 49
-0.000110
 49
0.000000
 49
-0.000110
  0
LTYPE
  2
DIVIDE
 70
    64
  3
__ . . __ . . __ . . __ . . __ . . __ . . __
 72
    65
 73
     6
 40
0.000550
 49
0.000220
 49
-0.000110
 49
0.000000
 49
-0.000110
 49
0.000000
 49
-0.000110
  0
LTYPE
  2
DOTDOT
 70
    64
  3
 . .  . .  . .  . .  . .  . . 
 72
    65
 73
     5
 40
0.000242
 49
-0.000110
 49
0.000000
 49
-0.000110
 49
0.000000
 49
-0.000110
  0
ENDTAB
  0
TABLE
  2
STYLE
 70
     2
  0
STYLE
 70
     0
  2
SN0
 40
0.000000
 41
0.000440
 50
0.000000
 71
     0
 42
0.000000
  3
ROMAND
  0
STYLE
 70
    68
  2
SV0
 40
0.000000
 41
0.000440
 50
0.000000
 71
     0
 42
0.000000
  3
ROMAND
  0
ENDTAB
  0
TABLE
  2
LAYER
 70
     3
  0
LAYER
  2
FOREGROUND
 70
    64
 62
     7
  6
CONTINUOUS
  0
LAYER
  2
BACKGROUND
 70
    65
 62
    -7
  6
CONTINUOUS
  0
LAYER
  2
0
 70
    64
 62
     7
  6
CONTINUOUS
  0
ENDTAB
  0
ENDSEC
  0
SECTION
  2
ENTITIES
  0
POLYLINE
  8
FOREGROUND
  6
CONTINUOUS
 66
     1
 40
0.000000
 41
0.000000
  0
VERTEX
  8
FOREGROUND
  6
CONTINUOUS
 10
0.000000
 20
4.673240
  0
VERTEX
  8
FOREGROUND
  6
CONTINUOUS
 10
8.499920
 20
4.673240
  0
VERTEX
  8
FOREGROUND
  6
CONTINUOUS
 10
8.499920
 20
-6.326760
  0
VERTEX
  8
FOREGROUND
  6
CONTINUOUS
 10
0.000000
 20
-6.326760
  0
VERTEX
  8
FOREGROUND
  6
CONTINUOUS
 10
0.000000
 20
4.673240
  0
SEQEND
  8
0
  0
POLYLINE
  8
FOREGROUND
  6
CONTINUOUS
 66
     1
 40
0.000000
 41
0.000000
  0
VERTEX
  8
FOREGROUND
  6
CONTINUOUS
 10
0.000000
 20
4.673240
  0
VERTEX
  8
FOREGROUND
  6
CONTINUOUS
 10
8.499920
 20
4.673240
  0
VERTEX
  8
FOREGROUND
  6
CONTINUOUS
 10
8.499920
 20
-6.326760
  0
VERTEX
  8
FOREGROUND
  6
CONTINUOUS
 10
0.000000
 20
-6.326760
  0
VERTEX
  8
FOREGROUND
  6
CONTINUOUS
 10
0.000000
 20
4.673240
  0
SEQEND
  8
0
  0
SOLID
  8
0
 62
    15
 10
4.963640
 20
1.702360
 11
4.967160
 21
2.441560
 12
5.026120
 22
1.727000
 13
5.029640
 23
2.465760
  0
POLYLINE
  8
0
  6
CONTINUOUS
 66
     1
 40
0.000000
 41
0.000000
  0
VERTEX
  8
0
  6
CONTINUOUS
 10
4.963640
 20
1.702360
  0
VERTEX
  8
0
  6
CONTINUOUS
 10
4.967160
 20
2.441560
  0
VERTEX
  8
0
  6
CONTINUOUS
 10
5.029640
 20
2.465760
  0
VERTEX
  8
0
  6
CONTINUOUS
 10
5.026120
 20
1.727000
  0
VERTEX
  8
0
  6
CONTINUOUS
 10
4.963640
 20
1.702360
  0
SEQEND
  8
0
  0
SOLID
  8
0
 62
    15
 10
3.568840
 20
1.863840
 11
3.572360
 21
2.602600
 12
3.595680
 22
1.827320
 13
3.599200
 23
2.566080
  0
POLYLINE
  8
0
  6
CONTINUOUS
 66
     1
 40
0.000000
 41
0.000000
  0
VERTEX
  8
0
  6
CONTINUOUS
 10
3.568840
 20
1.863840
  0
VERTEX
  8
0
  6
CONTINUOUS
 10
3.572360
 20
2.602600
  0
VERTEX
  8
0
  6
CONTINUOUS
 10
3.599200
 20
2.566080
  0
VERTEX
  8
0
  6
CONTINUOUS
 10
3.595680
 20
1.827320
  0
VERTEX
  8
0
  6
CONTINUOUS
 10
3.568840
 20
1.863840
  0
SEQEND
  8
0
  0
SOLID
  8
0
 62
    15
 10
3.595680
 20
1.827320
 11
3.599200
 21
2.566080
 12
3.625600
 22
1.791680
 13
3.629120
 23
2.530880
  0
POLYLINE
  8
0
  6
CONTINUOUS
 66
     1
 40
0.000000
 41
0.000000
  0
VERTEX
  8
0
  6
CONTINUOUS
 10
3.595680
 20
1.827320
  0
VERTEX
  8
0
  6
CONTINUOUS
 10
3.599200
 20
2.566080
  0
VERTEX
  8
0
  6
CONTINUOUS
 10
3.629120
 20
2.530880
  0
VERTEX
  8
0
  6
CONTINUOUS
 10
3.625600
 20
1.791680
  0
VERTEX
  8
0
  6
CONTINUOUS
 10
3.595680
 20
1.827320
  0
SEQEND
  8
0
  0
SOLID
  8
0
 62
    15
 10
3.625600
 20
1.791680
 11
3.629120
 21
2.530880
 12
3.659040
 22
1.762200
 13
3.663000
 23
2.500960
  0
POLYLINE
  8
0
  6
CONTINUOUS
 66
     1
 40
0.000000
 41
0.000000
  0
VERTEX
  8
0
  6
CONTINUOUS
 10
3.625600
 20
1.791680
  0
VERTEX
  8
0
  6
CONTINUOUS
 10
3.629120
 20
2.530880
  0
VERTEX
  8
0
  6
CONTINUOUS
 10
3.663000
 20
2.500960
  0
VERTEX
  8
0
  6
CONTINUOUS
 10
3.659040
 20
1.762200
  0
VERTEX
  8
0
  6
CONTINUOUS
 10
3.625600
 20
1.791680
  0
SEQEND
  8
0
  0
SOLID
  8
0
 62
    15
 10
3.659040
 20
1.762200
 11
3.663000
 21
2.500960
 12
3.696880
 22
1.741520
 13
3.700400
 23
2.480720
  0
POLYLINE
  8
0
  6
CONTINUOUS
 66
     1
 40
0.000000
 41
0.000000
  0
VERTEX
  8
0
  6
CONTINUOUS
 10
3.659040
 20
1.762200
  0
VERTEX
  8
0
  6
CONTINUOUS
 10
3.663000
 20
2.500960
  0
VERTEX
  8
0
  6
CONTINUOUS
 10
3.700400
 20
2.480720
  0
VERTEX
  8
0
  6
CONTINUOUS
 10
3.696880
 20
1.741520
  0
VERTEX
  8
0
  6
CONTINUOUS
 10
3.659040
 20
1.762200
  0
SEQEND
  8
0
  0
SOLID
  8
0
 62
    15
 10
3.696880
 20
1.741520
 11
3.700400
 21
2.480720
 12
3.717120
 22
1.736240
 13
3.720640
 23
2.475440
  0
POLYLINE
  8
0
  6
CONTINUOUS
 66
     1
 40
0.000000
 41
0.000000
  0
VERTEX
  8
0
  6
CONTINUOUS
 10
3.696880
 20
1.741520
  0
VERTEX
  8
0
  6
CONTINUOUS
 10
3.700400
 20
2.480720
  0
VERTEX
  8
0
  6
CONTINUOUS
 10
3.720640
 20
2.475440
  0
VERTEX
  8
0
  6
CONTINUOUS
 10
3.717120
 20
1.736240
  0
VERTEX
  8
0
  6
CONTINUOUS
 10
3.696880
 20
1.741520
  0
SEQEND
  8
0
  0
SOLID
  8
0
 62
    15
 10
3.717120
 20
1.736240
 11
3.720640
 21
2.475440
 12
3.738680
 22
1.734920
 13
3.742640
 23
2.473680
  0
POLYLINE
  8
0
  6
CONTINUOUS
 66
     1
 40
0.000000
 41
0.000000
  0
VERTEX
  8
0
  6
CONTINUOUS
 10
3.717120
 20
1.736240
  0
VERTEX
  8
0
  6
CONTINUOUS
 10
3.720640
 20
2.475440
  0
VERTEX
  8
0
  6
CONTINUOUS
 10
3.742640
 20
2.473680
  0
VERTEX
  8
0
  6
CONTINUOUS
 10
3.738680
 20
1.734920
  0
VERTEX
  8
0
  6
CONTINUOUS
 10
3.717120
 20
1.736240
  0
SEQEND
  8
0
  0
SOLID
  8
0
 62
    15
 10
3.738680
 20
1.734920
 11
3.742640
 21
2.473680
 12
3.761560
 22
1.737560
 13
3.765520
 23
2.476760
  0
POLYLINE
  8
0
  6
CONTINUOUS
 66
     1
 40
0.000000
 41
0.000000
  0
VERTEX
  8
0
  6
CONTINUOUS
 10
3.738680
 20
1.734920
  0
VERTEX
  8
0
  6
CONTINUOUS
 10
3.742640
 20
2.473680
  0
VERTEX
  8
0
  6
CONTINUOUS
 10
3.765520
 20
2.476760
  0
VERTEX
  8
0
  6
CONTINUOUS
 10
3.761560
 20
1.737560
  0
VERTEX
  8
0
  6
CONTINUOUS
 10
3.738680
 20
1.734920
  0
SEQEND
  8
0
  0
SOLID
  8
0
 62
    15
 10
3.761560
 20
1.737560
 11
3.765520
 21
2.476760
 12
3.785760
 22
1.745480
 13
3.789720
 23
2.484240
  0
POLYLINE
  8
0
  6
CONTINUOUS
 66
     1
 40
0.000000
 41
0.000000
  0
VERTEX
  8
0
  6
CONTINUOUS
 10
3.761560
 20
1.737560
  0
VERTEX
  8
0
  6
CONTINUOUS
 10
3.765520
 20
2.476760
  0
VERTEX
  8
0
  6
CONTINUOUS
 10
3.789720
 20
2.484240
  0
VERTEX
  8
0
  6
CONTINUOUS
 10
3.785760
 20
1.745480
  0
VERTEX
  8
0
  6
CONTINUOUS
 10
3.761560
 20
1.737560
  0
SEQEND
  8
0
  0
SOLID
  8
0
 62
    15
 10
3.785760
 20
1.745480
 11
3.789720
 21
2.484240
 12
3.811280
 22
1.758680
 13
3.815240
 23
2.497440
  0
POLYLINE
  8
0
  6
CONTINUOUS
 66
     1
 40
0.000000
 41
0.000000
  0
VERTEX
  8
0
  6
CONTINUOUS
 10
3.785760
 20
1.745480
  0
VERTEX
  8
0
  6
CONTINUOUS
 10
3.789720
 20
2.484240
  0
VERTEX
  8
0
  6
CONTINUOUS
 10
3.815240
 20
2.497440
  0
VERTEX
  8
0
  6
CONTINUOUS
 10
3.811280
 20
1.758680
  0
VERTEX
  8
0
  6
CONTINUOUS
 10
3.785760
 20
1.745480
  0
SEQEND
  8
0
  0
SOLID
  8
0
 62
    15
 10
3.811280
 20
1.758680
 11
3.815240
 21
2.497440
 12
3.838560
 22
1.777600
 13
3.842080
 23
2.516800
  0
POLYLINE
  8
0
  6
CONTINUOUS
 66
     1
 40
0.000000
 41
0.000000
  0
VERTEX
  8
0
  6
CONTINUOUS
 10
3.811280
 20
1.758680
  0
VERTEX
  8
0
  6
CONTINUOUS
 10
3.815240
 20
2.497440
  0
VERTEX
  8
0
  6
CONTINUOUS
 10
3.842080
 20
2.516800
  0
VERTEX
  8
0
  6
CONTINUOUS
 10
3.838560
 20
1.777600
  0
VERTEX
  8
0
  6
CONTINUOUS
 10
3.811280
 20
1.758680
  0
SEQEND
  8
0
  0
SOLID
  8
0
 62
    15
 10
3.838560
 20
1.777600
 11
3.842080
 21
2.516800
 12
3.866720
 22
1.803120
 13
3.870240
 23
2.542320
  0
POLYLINE
  8
0
  6
CONTINUOUS
 66
     1
 40
0.000000
 41
0.000000
  0
VERTEX
  8
0
  6
CONTINUOUS
 10
3.838560
 20
1.777600
  0
VERTEX
  8
0
  6
CONTINUOUS
 10
3.842080
 20
2.516800
  0
VERTEX
  8
0
  6
CONTINUOUS
 10
3.870240
 20
2.542320
  0
VERTEX
  8
0
  6
CONTINUOUS
 10
3.866720
 20
1.803120
  0
VERTEX
  8
0
  6
CONTINUOUS
 10
3.838560
 20
1.777600
  0
SEQEND
  8
0
  0
SOLID
  8
0
 62
    15
 10
3.866720
 20
1.803120
 11
3.870240
 21
2.542320
 12
3.896640
 22
1.835680
 13
3.900600
 23
2.574440
  0
POLYLINE
  8
0
  6
CONTINUOUS
 66
     1
 40
0.000000
 41
0.000000
  0
VERTEX
  8
0
  6
CONTINUOUS
 10
3.866720
 20
1.803120
  0
VERTEX
  8
0
  6
CONTINUOUS
 10
3.870240
 20
2.542320
  0
VERTEX
  8
0
  6
CONTINUOUS
 10
3.900600
 20
2.574440
  0
VERTEX
  8
0
  6
CONTINUOUS
 10
3.896640
 20
1.835680
  0
VERTEX
  8
0
  6
CONTINUOUS
 10
3.866720
 20
1.803120
  0
SEQEND
  8
0
  0
SOLID
  8
0
 62
    15
 10
3.896640
 20
1.835680
 11
3.900600
 21
2.574440
 12
3.964840
 22
1.787280
 13
3.968360
 23
2.526480
  0
POLYLINE
  8
0
  6
CONTINUOUS
 66
     1
 40
0.000000
 41
0.000000
  0
VERTEX
  8
0
  6
CONTINUOUS
 10
3.896640
 20
1.835680
  0
VERTEX
  8
0
  6
CONTINUOUS
 10
3.900600
 20
2.574440
  0
VERTEX
  8
0
  6
CONTINUOUS
 10
3.968360
 20
2.526480
  0
VERTEX
  8
0
  6
CONTINUOUS
 10
3.964840
 20
1.787280
  0
VERTEX
  8
0
  6
CONTINUOUS
 10
3.896640
 20
1.835680
  0
SEQEND
  8
0
  0
SOLID
  8
0
 62
    15
 10
3.964840
 20
1.787280
 11
3.968360
 21
2.526480
 12
3.983320
 22
1.807520
 13
3.986840
 23
2.546280
  0
POLYLINE
  8
0
  6
CONTINUOUS
 66
     1
 40
0.000000
 41
0.000000
  0
VERTEX
  8
0
  6
CONTINUOUS
 10
3.964840
 20
1.787280
  0
VERTEX
  8
0
  6
CONTINUOUS
 10
3.968360
 20
2.526480
  0
VERTEX
  8
0
  6
CONTINUOUS
 10
3.986840
 20
2.546280
  0
VERTEX
  8
0
  6
CONTINUOUS
 10
3.983320
 20
1.807520
  0
VERTEX
  8
0
  6
CONTINUOUS
 10
3.964840
 20
1.787280
  0
SEQEND
  8
0
  0
SOLID
  8
0
 62
    15
 10
3.983320
 20
1.807520
 11
3.986840
 21
2.546280
 12
4.002240
 22
1.824240
 13
4.006200
 23
2.563000
  0
POLYLINE
  8
0
  6
CONTINUOUS
 66
     1
 40
0.000000
 41
0.000000
  0
VERTEX
  8
0
  6
CONTINUOUS
 10
3.983320
 20
1.807520
  0
VERTEX
  8
0
  6
CONTINUOUS
 10
3.986840
 20
2.546280
  0
VERTEX
  8
0
  6
CONTINUOUS
 10
4.006200
 20
2.563000
  0
VERTEX
  8
0
  6
CONTINUOUS
 10
4.002240
 20
1.824240
  0
VERTEX
  8
0
  6
CONTINUOUS
 10
3.983320
 20
1.807520
  0
SEQEND
  8
0
  0
SOLID
  8
0
 62
    15
 10
4.002240
 20
1.824240
 11
4.006200
 21
2.563000
 12
4.042720
 22
1.848440
 13
4.046240
 23
2.587200
  0
POLYLINE
  8
0
  6
CONTINUOUS
 66
     1
 40
0.000000
 41
0.000000
  0
VERTEX
  8
0
  6
CONTINUOUS
 10
4.002240
 20
1.824240
  0
VERTEX
  8
0
  6
CONTINUOUS
 10
4.006200
 20
2.563000
  0
VERTEX
  8
0
  6
CONTINUOUS
 10
4.046240
 20
2.587200
  0
VERTEX
  8
0
  6
CONTINUOUS
 10
4.042720
 20
1.848440
  0
VERTEX
  8
0
  6
CONTINUOUS
 10
4.002240
 20
1.824240
  0
SEQEND
  8
0
  0
SOLID
  8
0
 62
    15
 10
4.042720
 20
1.848440
 11
4.046240
 21
2.587200
 12
4.083640
 22
1.861200
 13
4.087160
 23
2.600400
  0
POLYLINE
  8
0
  6
CONTINUOUS
 66
     1
 40
0.000000
 41
0.000000
  0
VERTEX
  8
0
  6
CONTINUOUS
 10
4.042720
 20
1.848440
  0
VERTEX
  8
0
  6
CONTINUOUS
 10
4.046240
 20
2.587200
  0
VERTEX
  8
0
  6
CONTINUOUS
 10
4.087160
 20
2.600400
  0
VERTEX
  8
0
  6
CONTINUOUS
 10
4.083640
 20
1.861200
  0
VERTEX
  8
0
  6
CONTINUOUS
 10
4.042720
 20
1.848440
  0
SEQEND
  8
0
  0
SOLID
  8
0
 62
    15
 10
4.083640
 20
1.861200
 11
4.087160
 21
2.600400
 12
4.124120
 22
1.864720
 13
4.127640
 23
2.603920
  0
POLYLINE
  8
0
  6
CONTINUOUS
 66
     1
 40
0.000000
 41
0.000000
  0
VERTEX
  8
0
  6
CONTINUOUS
 10
4.083640
 20
1.861200
  0
VERTEX
  8
0
  6
CONTINUOUS
 10
4.087160
 20
2.600400
  0
VERTEX
  8
0
  6
CONTINUOUS
 10
4.127640
 20
2.603920
  0
VERTEX
  8
0
  6
CONTINUOUS
 10
4.124120
 20
1.864720
  0
VERTEX
  8
0
  6
CONTINUOUS
 10
4.083640
 20
1.861200
  0
SEQEND
  8
0
  0
SOLID
  8
0
 62
    15
 10
4.124120
 20
1.864720
 11
4.127640
 21
2.603920
 12
4.161960
 22
1.860320
 13
4.165480
 23
2.599080
  0
POLYLINE
  8
0
  6
CONTINUOUS
 66
     1
 40
0.000000
 41
0.000000
  0
VERTEX
  8
0
  6
CONTINUOUS
 10
4.124120
 20
1.864720
  0
VERTEX
  8
0
  6
CONTINUOUS
 10
4.127640
 20
2.603920
  0
VERTEX
  8
0
  6
CONTINUOUS
 10
4.165480
 20
2.599080
  0
VERTEX
  8
0
  6
CONTINUOUS
 10
4.161960
 20
1.860320
  0
VERTEX
  8
0
  6
CONTINUOUS
 10
4.124120
 20
1.864720
  0
SEQEND
  8
0
  0
SOLID
  8
0
 62
    15
 10
4.161960
 20
1.860320
 11
4.165480
 21
2.599080
 12
4.196280
 22
1.848880
 13
4.199800
 23
2.588080
  0
POLYLINE
  8
0
  6
CONTINUOUS
 66
     1
 40
0.000000
 41
0.000000
  0
VERTEX
  8
0
  6
CONTINUOUS
 10
4.161960
 20
1.860320
  0
VERTEX
  8
0
  6
CONTINUOUS
 10
4.165480
 20
2.599080
  0
VERTEX
  8
0
  6
CONTINUOUS
 10
4.199800
 20
2.588080
  0
VERTEX
  8
0
  6
CONTINUOUS
 10
4.196280
 20
1.848880
  0
VERTEX
  8
0
  6
CONTINUOUS
 10
4.161960
 20
1.860320
  0
SEQEND
  8
0
  0
SOLID
  8
0
 62
    15
 10
4.196280
 20
1.848880
 11
4.199800
 21
2.588080
 12
4.225320
 22
1.832600
 13
4.228840
 23
2.571800
  0
POLYLINE
  8
0
  6
CONTINUOUS
 66
     1
 40
0.000000
 41
0.000000
  0
VERTEX
  8
0
  6
CONTINUOUS
 10
4.196280
 20
1.848880
  0
VERTEX
  8
0
  6
CONTINUOUS
 10
4.199800
 20
2.588080
  0
VERTEX
  8
0
  6
CONTINUOUS
 10
4.228840
 20
2.571800
  0
VERTEX
  8
0
  6
CONTINUOUS
 10
4.225320
 20
1.832600
  0
VERTEX
  8
0
  6
CONTINUOUS
 10
4.196280
 20
1.848880
  0
SEQEND
  8
0
  0
SOLID
  8
0
 62
    15
 10
4.225320
 20
1.832600
 11
4.228840
 21
2.571800
 12
4.247320
 22
1.812800
 13
4.250840
 23
2.552000
  0
POLYLINE
  8
0
  6
CONTINUOUS
 66
     1
 40
0.000000
 41
0.000000
  0
VERTEX
  8
0
  6
CONTINUOUS
 10
4.225320
 20
1.832600
  0
VERTEX
  8
0
  6
CONTINUOUS
 10
4.228840
 20
2.571800
  0
VERTEX
  8
0
  6
CONTINUOUS
 10
4.250840
 20
2.552000
  0
VERTEX
  8
0
  6
CONTINUOUS
 10
4.247320
 20
1.812800
  0
VERTEX
  8
0
  6
CONTINUOUS
 10
4.225320
 20
1.832600
  0
SEQEND
  8
0
  0
SOLID
  8
0
 62
    15
 10
4.247320
 20
1.812800
 11
4.250840
 21
2.552000
 12
4.296600
 22
1.851520
 13
4.300120
 23
2.590720
  0
POLYLINE
  8
0
  6
CONTINUOUS
 66
     1
 40
0.000000
 41
0.000000
  0
VERTEX
  8
0
  6
CONTINUOUS
 10
4.247320
 20
1.812800
  0
VERTEX
  8
0
  6
CONTINUOUS
 10
4.250840
 20
2.552000
  0
VERTEX
  8
0
  6
CONTINUOUS
 10
4.300120
 20
2.590720
  0
VERTEX
  8
0
  6
CONTINUOUS
 10
4.296600
 20
1.851520
  0
VERTEX
  8
0
  6
CONTINUOUS
 10
4.247320
 20
1.812800
  0
SEQEND
  8
0
  0
SOLID
  8
0
 62
    15
 10
4.296600
 20
1.851520
 11
4.300120
 21
2.590720
 12
4.353360
 22
1.794320
 13
4.356880
 23
2.533520
  0
POLYLINE
  8
0
  6
CONTINUOUS
 66
     1
 40
0.000000
 41
0.000000
  0
VERTEX
  8
0
  6
CONTINUOUS
 10
4.296600
 20
1.851520
  0
VERTEX
  8
0
  6
CONTINUOUS
 10
4.300120
 20
2.590720
  0
VERTEX
  8
0
  6
CONTINUOUS
 10
4.356880
 20
2.533520
  0
VERTEX
  8
0
  6
CONTINUOUS
 10
4.353360
 20
1.794320
  0
VERTEX
  8
0
  6
CONTINUOUS
 10
4.296600
 20
1.851520
  0
SEQEND
  8
0
  0
SOLID
  8
0
 62
    15
 10
4.353360
 20
1.794320
 11
4.356880
 21
2.533520
 12
4.406600
 22
1.746800
 13
4.410560
 23
2.486000
  0
POLYLINE
  8
0
  6
CONTINUOUS
 66
     1
 40
0.000000
 41
0.000000
  0
VERTEX
  8
0
  6
CONTINUOUS
 10
4.353360
 20
1.794320
  0
VERTEX
  8
0
  6
CONTINUOUS
 10
4.356880
 20
2.533520
  0
VERTEX
  8
0
  6
CONTINUOUS
 10
4.410560
 20
2.486000
  0
VERTEX
  8
0
  6
CONTINUOUS
 10
4.406600
 20
1.746800
  0
VERTEX
  8
0
  6
CONTINUOUS
 10
4.353360
 20
1.794320
  0
SEQEND
  8
0
  0
SOLID
  8
0
 62
    15
 10
4.406600
 20
1.746800
 11
4.410560
 21
2.486000
 12
4.458080
 22
1.708520
 13
4.461600
 23
2.447720
  0
POLYLINE
  8
0
  6
CONTINUOUS
 66
     1
 40
0.000000
 41
0.000000
  0
VERTEX
  8
0
  6
CONTINUOUS
 10
4.406600
 20
1.746800
  0
VERTEX
  8
0
  6
CONTINUOUS
 10
4.410560
 20
2.486000
  0
VERTEX
  8
0
  6
CONTINUOUS
 10
4.461600
 20
2.447720
  0
VERTEX
  8
0
  6
CONTINUOUS
 10
4.458080
 20
1.708520
  0
VERTEX
  8
0
  6
CONTINUOUS
 10
4.406600
 20
1.746800
  0
SEQEND
  8
0
  0
SOLID
  8
0
 62
    15
 10
4.458080
 20
1.708520
 11
4.461600
 21
2.447720
 12
4.507360
 22
1.679040
 13
4.510880
 23
2.417800
  0
POLYLINE
  8
0
  6
CONTINUOUS
 66
     1
 40
0.000000
 41
0.000000
  0
VERTEX
  8
0
  6
CONTINUOUS
 10
4.458080
 20
1.708520
  0
VERTEX
  8
0
  6
CONTINUOUS
 10
4.461600
 20
2.447720
  0
VERTEX
  8
0
  6
CONTINUOUS
 10
4.510880
 20
2.417800
  0
VERTEX
  8
0
  6
CONTINUOUS
 10
4.507360
 20
1.679040
  0
VERTEX
  8
0
  6
CONTINUOUS
 10
4.458080
 20
1.708520
  0
SEQEND
  8
0
  0
SOLID
  8
0
 62
    15
 10
4.507360
 20
1.679040
 11
4.510880
 21
2.417800
 12
4.555320
 22
1.657040
 13
4.558840
 23
2.396240
  0
POLYLINE
  8
0
  6
CONTINUOUS
 66
     1
 40
0.000000
 41
0.000000
  0
VERTEX
  8
0
  6
CONTINUOUS
 10
4.507360
 20
1.679040
  0
VERTEX
  8
0
  6
CONTINUOUS
 10
4.510880
 20
2.417800
  0
VERTEX
  8
0
  6
CONTINUOUS
 10
4.558840
 20
2.396240
  0
VERTEX
  8
0
  6
CONTINUOUS
 10
4.555320
 20
1.657040
  0
VERTEX
  8
0
  6
CONTINUOUS
 10
4.507360
 20
1.679040
  0
SEQEND
  8
0
  0
SOLID
  8
0
 62
    15
 10
4.555320
 20
1.657040
 11
4.558840
 21
2.396240
 12
4.602400
 22
1.642960
 13
4.606360
 23
2.381720
  0
POLYLINE
  8
0
  6
CONTINUOUS
 66
     1
 40
0.000000
 41
0.000000
  0
VERTEX
  8
0
  6
CONTINUOUS
 10
4.555320
 20
1.657040
  0
VERTEX
  8
0
  6
CONTINUOUS
 10
4.558840
 20
2.396240
  0
VERTEX
  8
0
  6
CONTINUOUS
 10
4.606360
 20
2.381720
  0
VERTEX
  8
0
  6
CONTINUOUS
 10
4.602400
 20
1.642960
  0
VERTEX
  8
0
  6
CONTINUOUS
 10
4.555320
 20
1.657040
  0
SEQEND
  8
0
  0
SOLID
  8
0
 62
    15
 10
4.602400
 20
1.642960
 11
4.606360
 21
2.381720
 12
4.649920
 22
1.635480
 13
4.653440
 23
2.374240
  0
POLYLINE
  8
0
  6
CONTINUOUS
 66
     1
 40
0.000000
 41
0.000000
  0
VERTEX
  8
0
  6
CONTINUOUS
 10
4.602400
 20
1.642960
  0
VERTEX
  8
0
  6
CONTINUOUS
 10
4.606360
 20
2.381720
  0
VERTEX
  8
0
  6
CONTINUOUS
 10
4.653440
 20
2.374240
  0
VERTEX
  8
0
  6
CONTINUOUS
 10
4.649920
 20
1.635480
  0
VERTEX
  8
0
  6
CONTINUOUS
 10
4.602400
 20
1.642960
  0
SEQEND
  8
0
  0
SOLID
  8
0
 62
    15
 10
4.649920
 20
1.635480
 11
4.653440
 21
2.374240
 12
4.697440
 22
1.634160
 13
4.700960
 23
2.373360
  0
POLYLINE
  8
0
  6
CONTINUOUS
 66
     1
 40
0.000000
 41
0.000000
  0
VERTEX
  8
0
  6
CONTINUOUS
 10
4.649920
 20
1.635480
  0
VERTEX
  8
0
  6
CONTINUOUS
 10
4.653440
 20
2.374240
  0
VERTEX
  8
0
  6
CONTINUOUS
 10
4.700960
 20
2.373360
  0
VERTEX
  8
0
  6
CONTINUOUS
 10
4.697440
 20
1.634160
  0
VERTEX
  8
0
  6
CONTINUOUS
 10
4.649920
 20
1.635480
  0
SEQEND
  8
0
  0
SOLID
  8
0
 62
    15
 10
4.697440
 20
1.634160
 11
4.700960
 21
2.373360
 12
4.746280
 22
1.639000
 13
4.749800
 23
2.377760
  0
POLYLINE
  8
0
  6
CONTINUOUS
 66
     1
 40
0.000000
 41
0.000000
  0
VERTEX
  8
0
  6
CONTINUOUS
 10
4.697440
 20
1.634160
  0
VERTEX
  8
0
  6
CONTINUOUS
 10
4.700960
 20
2.373360
  0
VERTEX
  8
0
  6
CONTINUOUS
 10
4.749800
 20
2.377760
  0
VERTEX
  8
0
  6
CONTINUOUS
 10
4.746280
 20
1.639000
  0
VERTEX
  8
0
  6
CONTINUOUS
 10
4.697440
 20
1.634160
  0
SEQEND
  8
0
  0
SOLID
  8
0
 62
    15
 10
4.746280
 20
1.639000
 11
4.749800
 21
2.377760
 12
4.796440
 22
1.648680
 13
4.799960
 23
2.387440
  0
POLYLINE
  8
0
  6
CONTINUOUS
 66
     1
 40
0.000000
 41
0.000000
  0
VERTEX
  8
0
  6
CONTINUOUS
 10
4.746280
 20
1.639000
  0
VERTEX
  8
0
  6
CONTINUOUS
 10
4.749800
 20
2.377760
  0
VERTEX
  8
0
  6
CONTINUOUS
 10
4.799960
 20
2.387440
  0
VERTEX
  8
0
  6
CONTINUOUS
 10
4.796440
 20
1.648680
  0
VERTEX
  8
0
  6
CONTINUOUS
 10
4.746280
 20
1.639000
  0
SEQEND
  8
0
  0
SOLID
  8
0
 62
    15
 10
4.796440
 20
1.648680
 11
4.799960
 21
2.387440
 12
4.849240
 22
1.662760
 13
4.852760
 23
2.401520
  0
POLYLINE
  8
0
  6
CONTINUOUS
 66
     1
 40
0.000000
 41
0.000000
  0
VERTEX
  8
0
  6
CONTINUOUS
 10
4.796440
 20
1.648680
  0
VERTEX
  8
0
  6
CONTINUOUS
 10
4.799960
 20
2.387440
  0
VERTEX
  8
0
  6
CONTINUOUS
 10
4.852760
 20
2.401520
  0
VERTEX
  8
0
  6
CONTINUOUS
 10
4.849240
 20
1.662760
  0
VERTEX
  8
0
  6
CONTINUOUS
 10
4.796440
 20
1.648680
  0
SEQEND
  8
0
  0
SOLID
  8
0
 62
    15
 10
4.849240
 20
1.662760
 11
4.852760
 21
2.401520
 12
4.904680
 22
1.680800
 13
4.908200
 23
2.420000
  0
POLYLINE
  8
0
  6
CONTINUOUS
 66
     1
 40
0.000000
 41
0.000000
  0
VERTEX
  8
0
  6
CONTINUOUS
 10
4.849240
 20
1.662760
  0
VERTEX
  8
0
  6
CONTINUOUS
 10
4.852760
 20
2.401520
  0
VERTEX
  8
0
  6
CONTINUOUS
 10
4.908200
 20
2.420000
  0
VERTEX
  8
0
  6
CONTINUOUS
 10
4.904680
 20
1.680800
  0
VERTEX
  8
0
  6
CONTINUOUS
 10
4.849240
 20
1.662760
  0
SEQEND
  8
0
  0
SOLID
  8
0
 62
    15
 10
4.904680
 20
1.680800
 11
4.908200
 21
2.420000
 12
4.963640
 22
1.702360
 13
4.967160
 23
2.441560
  0
POLYLINE
  8
0
  6
CONTINUOUS
 66
     1
 40
0.000000
 41
0.000000
  0
VERTEX
  8
0
  6
CONTINUOUS
 10
4.904680
 20
1.680800
  0
VERTEX
  8
0
  6
CONTINUOUS
 10
4.908200
 20
2.420000
  0
VERTEX
  8
0
  6
CONTINUOUS
 10
4.967160
 20
2.441560
  0
VERTEX
  8
0
  6
CONTINUOUS
 10
4.963640
 20
1.702360
  0
VERTEX
  8
0
  6
CONTINUOUS
 10
4.904680
 20
1.680800
  0
SEQEND
  8
0
  0
SOLID
  8
0
 62
    15
 10
3.037760
 20
1.875280
 11
3.041280
 21
2.614040
 12
3.568840
 22
1.863840
 13
3.572360
 23
2.602600
  0
POLYLINE
  8
0
  6
CONTINUOUS
 66
     1
 40
0.000000
 41
0.000000
  0
VERTEX
  8
0
  6
CONTINUOUS
 10
3.037760
 20
1.875280
  0
VERTEX
  8
0
  6
CONTINUOUS
 10
3.041280
 20
2.614040
  0
VERTEX
  8
0
  6
CONTINUOUS
 10
3.572360
 20
2.602600
  0
VERTEX
  8
0
  6
CONTINUOUS
 10
3.568840
 20
1.863840
  0
VERTEX
  8
0
  6
CONTINUOUS
 10
3.037760
 20
1.875280
  0
SEQEND
  8
0
  0
SOLID
  8
0
 62
    15
 10
5.026120
 20
1.727000
 11
5.029640
 21
2.465760
 12
5.093880
 22
1.753400
 13
5.097400
 23
2.492600
  0
POLYLINE
  8
0
  6
CONTINUOUS
 66
     1
 40
0.000000
 41
0.000000
  0
VERTEX
  8
0
  6
CONTINUOUS
 10
5.026120
 20
1.727000
  0
VERTEX
  8
0
  6
CONTINUOUS
 10
5.029640
 20
2.465760
  0
VERTEX
  8
0
  6
CONTINUOUS
 10
5.097400
 20
2.492600
  0
VERTEX
  8
0
  6
CONTINUOUS
 10
5.093880
 20
1.753400
  0
VERTEX
  8
0
  6
CONTINUOUS
 10
5.026120
 20
1.727000
  0
SEQEND
  8
0
  0
SOLID
  8
0
 62
    15
 10
5.093880
 20
1.753400
 11
5.097400
 21
2.492600
 12
5.166480
 22
1.782000
 13
5.170000
 23
2.520760
  0
POLYLINE
  8
0
  6
CONTINUOUS
 66
     1
 40
0.000000
 41
0.000000
  0
VERTEX
  8
0
  6
CONTINUOUS
 10
5.093880
 20
1.753400
  0
VERTEX
  8
0
  6
CONTINUOUS
 10
5.097400
 20
2.492600
  0
VERTEX
  8
0
  6
CONTINUOUS
 10
5.170000
 20
2.520760
  0
VERTEX
  8
0
  6
CONTINUOUS
 10
5.166480
 20
1.782000
  0
VERTEX
  8
0
  6
CONTINUOUS
 10
5.093880
 20
1.753400
  0
SEQEND
  8
0
  0
SOLID
  8
0
 62
    15
 10
5.166480
 20
1.782000
 11
5.170000
 21
2.520760
 12
5.241720
 22
1.807520
 13
5.245240
 23
2.546280
  0
POLYLINE
  8
0
  6
CONTINUOUS
 66
     1
 40
0.000000
 41
0.000000
  0
VERTEX
  8
0
  6
CONTINUOUS
 10
5.166480
 20
1.782000
  0
VERTEX
  8
0
  6
CONTINUOUS
 10
5.170000
 20
2.520760
  0
VERTEX
  8
0
  6
CONTINUOUS
 10
5.245240
 20
2.546280
  0
VERTEX
  8
0
  6
CONTINUOUS
 10
5.241720
 20
1.807520
  0
VERTEX
  8
0
  6
CONTINUOUS
 10
5.166480
 20
1.782000
  0
SEQEND
  8
0
  0
SOLID
  8
0
 62
    15
 10
5.241720
 20
1.807520
 11
5.245240
 21
2.546280
 12
5.316520
 22
1.826880
 13
5.320480
 23
2.566080
  0
POLYLINE
  8
0
  6
CONTINUOUS
 66
     1
 40
0.000000
 41
0.000000
  0
VERTEX
  8
0
  6
CONTINUOUS
 10
5.241720
 20
1.807520
  0
VERTEX
  8
0
  6
CONTINUOUS
 10
5.245240
 20
2.546280
  0
VERTEX
  8
0
  6
CONTINUOUS
 10
5.320480
 20
2.566080
  0
VERTEX
  8
0
  6
CONTINUOUS
 10
5.316520
 20
1.826880
  0
VERTEX
  8
0
  6
CONTINUOUS
 10
5.241720
 20
1.807520
  0
SEQEND
  8
0
  0
SOLID
  8
0
 62
    15
 10
5.316520
 20
1.826880
 11
5.320480
 21
2.566080
 12
5.391320
 22
1.840520
 13
5.394840
 23
2.579720
  0
POLYLINE
  8
0
  6
CONTINUOUS
 66
     1
 40
0.000000
 41
0.000000
  0
VERTEX
  8
0
  6
CONTINUOUS
 10
5.316520
 20
1.826880
  0
VERTEX
  8
0
  6
CONTINUOUS
 10
5.320480
 20
2.566080
  0
VERTEX
  8
0
  6
CONTINUOUS
 10
5.394840
 20
2.579720
  0
VERTEX
  8
0
  6
CONTINUOUS
 10
5.391320
 20
1.840520
  0
VERTEX
  8
0
  6
CONTINUOUS
 10
5.316520
 20
1.826880
  0
SEQEND
  8
0
  0
SOLID
  8
0
 62
    15
 10
5.391320
 20
1.840520
 11
5.394840
 21
2.579720
 12
5.465680
 22
1.849320
 13
5.469200
 23
2.588080
  0
POLYLINE
  8
0
  6
CONTINUOUS
 66
     1
 40
0.000000
 41
0.000000
  0
VERTEX
  8
0
  6
CONTINUOUS
 10
5.391320
 20
1.840520
  0
VERTEX
  8
0
  6
CONTINUOUS
 10
5.394840
 20
2.579720
  0
VERTEX
  8
0
  6
CONTINUOUS
 10
5.469200
 20
2.588080
  0
VERTEX
  8
0
  6
CONTINUOUS
 10
5.465680
 20
1.849320
  0
VERTEX
  8
0
  6
CONTINUOUS
 10
5.391320
 20
1.840520
  0
SEQEND
  8
0
  0
SOLID
  8
0
 62
    15
 10
5.465680
 20
1.849320
 11
5.469200
 21
2.588080
 12
5.538720
 22
1.852840
 13
5.542680
 23
2.591600
  0
POLYLINE
  8
0
  6
CONTINUOUS
 66
     1
 40
0.000000
 41
0.000000
  0
VERTEX
  8
0
  6
CONTINUOUS
 10
5.465680
 20
1.849320
  0
VERTEX
  8
0
  6
CONTINUOUS
 10
5.469200
 20
2.588080
  0
VERTEX
  8
0
  6
CONTINUOUS
 10
5.542680
 20
2.591600
  0
VERTEX
  8
0
  6
CONTINUOUS
 10
5.538720
 20
1.852840
  0
VERTEX
  8
0
  6
CONTINUOUS
 10
5.465680
 20
1.849320
  0
SEQEND
  8
0
  0
SOLID
  8
0
 62
    15
 10
5.538720
 20
1.852840
 11
5.542680
 21
2.591600
 12
5.611320
 22
1.851960
 13
5.614840
 23
2.590720
  0
POLYLINE
  8
0
  6
CONTINUOUS
 66
     1
 40
0.000000
 41
0.000000
  0
VERTEX
  8
0
  6
CONTINUOUS
 10
5.538720
 20
1.852840
  0
VERTEX
  8
0
  6
CONTINUOUS
 10
5.542680
 20
2.591600
  0
VERTEX
  8
0
  6
CONTINUOUS
 10
5.614840
 20
2.590720
  0
VERTEX
  8
0
  6
CONTINUOUS
 10
5.611320
 20
1.851960
  0
VERTEX
  8
0
  6
CONTINUOUS
 10
5.538720
 20
1.852840
  0
SEQEND
  8
0
  0
SOLID
  8
0
 62
    15
 10
5.611320
 20
1.851960
 11
5.614840
 21
2.590720
 12
5.682600
 22
1.847120
 13
5.686120
 23
2.586320
  0
POLYLINE
  8
0
  6
CONTINUOUS
 66
     1
 40
0.000000
 41
0.000000
  0
VERTEX
  8
0
  6
CONTINUOUS
 10
5.611320
 20
1.851960
  0
VERTEX
  8
0
  6
CONTINUOUS
 10
5.614840
 20
2.590720
  0
VERTEX
  8
0
  6
CONTINUOUS
 10
5.686120
 20
2.586320
  0
VERTEX
  8
0
  6
CONTINUOUS
 10
5.682600
 20
1.847120
  0
VERTEX
  8
0
  6
CONTINUOUS
 10
5.611320
 20
1.851960
  0
SEQEND
  8
0
  0
SOLID
  8
0
 62
    15
 10
5.682600
 20
1.847120
 11
5.686120
 21
2.586320
 12
5.752560
 22
1.839200
 13
5.756080
 23
2.577960
  0
POLYLINE
  8
0
  6
CONTINUOUS
 66
     1
 40
0.000000
 41
0.000000
  0
VERTEX
  8
0
  6
CONTINUOUS
 10
5.682600
 20
1.847120
  0
VERTEX
  8
0
  6
CONTINUOUS
 10
5.686120
 20
2.586320
  0
VERTEX
  8
0
  6
CONTINUOUS
 10
5.756080
 20
2.577960
  0
VERTEX
  8
0
  6
CONTINUOUS
 10
5.752560
 20
1.839200
  0
VERTEX
  8
0
  6
CONTINUOUS
 10
5.682600
 20
1.847120
  0
SEQEND
  8
0
  0
SOLID
  8
0
 62
    15
 10
5.752560
 20
1.839200
 11
5.756080
 21
2.577960
 12
5.887200
 22
1.814560
 13
5.890720
 23
2.553320
  0
POLYLINE
  8
0
  6
CONTINUOUS
 66
     1
 40
0.000000
 41
0.000000
  0
VERTEX
  8
0
  6
CONTINUOUS
 10
5.752560
 20
1.839200
  0
VERTEX
  8
0
  6
CONTINUOUS
 10
5.756080
 20
2.577960
  0
VERTEX
  8
0
  6
CONTINUOUS
 10
5.890720
 20
2.553320
  0
VERTEX
  8
0
  6
CONTINUOUS
 10
5.887200
 20
1.814560
  0
VERTEX
  8
0
  6
CONTINUOUS
 10
5.752560
 20
1.839200
  0
SEQEND
  8
0
  0
SOLID
  8
0
 62
    15
 10
5.887200
 20
1.814560
 11
5.890720
 21
2.553320
 12
6.014800
 22
1.781560
 13
6.018320
 23
2.520320
  0
POLYLINE
  8
0
  6
CONTINUOUS
 66
     1
 40
0.000000
 41
0.000000
  0
VERTEX
  8
0
  6
CONTINUOUS
 10
5.887200
 20
1.814560
  0
VERTEX
  8
0
  6
CONTINUOUS
 10
5.890720
 20
2.553320
  0
VERTEX
  8
0
  6
CONTINUOUS
 10
6.018320
 20
2.520320
  0
VERTEX
  8
0
  6
CONTINUOUS
 10
6.014800
 20
1.781560
  0
VERTEX
  8
0
  6
CONTINUOUS
 10
5.887200
 20
1.814560
  0
SEQEND
  8
0
  0
SOLID
  8
0
 62
    15
 10
6.014800
 20
1.781560
 11
6.018320
 21
2.520320
 12
6.132720
 22
1.744160
 13
6.136240
 23
2.482920
  0
POLYLINE
  8
0
  6
CONTINUOUS
 66
     1
 40
0.000000
 41
0.000000
  0
VERTEX
  8
0
  6
CONTINUOUS
 10
6.014800
 20
1.781560
  0
VERTEX
  8
0
  6
CONTINUOUS
 10
6.018320
 20
2.520320
  0
VERTEX
  8
0
  6
CONTINUOUS
 10
6.136240
 20
2.482920
  0
VERTEX
  8
0
  6
CONTINUOUS
 10
6.132720
 20
1.744160
  0
VERTEX
  8
0
  6
CONTINUOUS
 10
6.014800
 20
1.781560
  0
SEQEND
  8
0
  0
SOLID
  8
0
 62
    15
 10
6.132720
 20
1.744160
 11
6.136240
 21
2.482920
 12
6.240080
 22
1.705440
 13
6.244040
 23
2.444640
  0
POLYLINE
  8
0
  6
CONTINUOUS
 66
     1
 40
0.000000
 41
0.000000
  0
VERTEX
  8
0
  6
CONTINUOUS
 10
6.132720
 20
1.744160
  0
VERTEX
  8
0
  6
CONTINUOUS
 10
6.136240
 20
2.482920
  0
VERTEX
  8
0
  6
CONTINUOUS
 10
6.244040
 20
2.444640
  0
VERTEX
  8
0
  6
CONTINUOUS
 10
6.240080
 20
1.705440
  0
VERTEX
  8
0
  6
CONTINUOUS
 10
6.132720
 20
1.744160
  0
SEQEND
  8
0
  0
SOLID
  8
0
 62
    15
 10
6.240080
 20
1.705440
 11
6.244040
 21
2.444640
 12
6.275280
 22
1.693120
 13
6.279240
 23
2.432320
  0
POLYLINE
  8
0
  6
CONTINUOUS
 66
     1
 40
0.000000
 41
0.000000
  0
VERTEX
  8
0
  6
CONTINUOUS
 10
6.240080
 20
1.705440
  0
VERTEX
  8
0
  6
CONTINUOUS
 10
6.244040
 20
2.444640
  0
VERTEX
  8
0
  6
CONTINUOUS
 10
6.279240
 20
2.432320
  0
VERTEX
  8
0
  6
CONTINUOUS
 10
6.275280
 20
1.693120
  0
VERTEX
  8
0
  6
CONTINUOUS
 10
6.240080
 20
1.705440
  0
SEQEND
  8
0
  0
SOLID
  8
0
 62
    15
 10
6.275280
 20
1.693120
 11
6.279240
 21
2.432320
 12
6.307840
 22
1.682120
 13
6.311360
 23
2.421320
  0
POLYLINE
  8
0
  6
CONTINUOUS
 66
     1
 40
0.000000
 41
0.000000
  0
VERTEX
  8
0
  6
CONTINUOUS
 10
6.275280
 20
1.693120
  0
VERTEX
  8
0
  6
CONTINUOUS
 10
6.279240
 20
2.432320
  0
VERTEX
  8
0
  6
CONTINUOUS
 10
6.311360
 20
2.421320
  0
VERTEX
  8
0
  6
CONTINUOUS
 10
6.307840
 20
1.682120
  0
VERTEX
  8
0
  6
CONTINUOUS
 10
6.275280
 20
1.693120
  0
SEQEND
  8
0
  0
SOLID
  8
0
 62
    15
 10
6.307840
 20
1.682120
 11
6.311360
 21
2.421320
 12
6.369880
 22
1.664960
 13
6.373400
 23
2.403720
  0
POLYLINE
  8
0
  6
CONTINUOUS
 66
     1
 40
0.000000
 41
0.000000
  0
VERTEX
  8
0
  6
CONTINUOUS
 10
6.307840
 20
1.682120
  0
VERTEX
  8
0
  6
CONTINUOUS
 10
6.311360
 20
2.421320
  0
VERTEX
  8
0
  6
CONTINUOUS
 10
6.373400
 20
2.403720
  0
VERTEX
  8
0
  6
CONTINUOUS
 10
6.369880
 20
1.664960
  0
VERTEX
  8
0
  6
CONTINUOUS
 10
6.307840
 20
1.682120
  0
SEQEND
  8
0
  0
SOLID
  8
0
 62
    15
 10
6.369880
 20
1.664960
 11
6.373400
 21
2.403720
 12
6.402880
 22
1.658360
 13
6.406400
 23
2.397120
  0
POLYLINE
  8
0
  6
CONTINUOUS
 66
     1
 40
0.000000
 41
0.000000
  0
VERTEX
  8
0
  6
CONTINUOUS
 10
6.369880
 20
1.664960
  0
VERTEX
  8
0
  6
CONTINUOUS
 10
6.373400
 20
2.403720
  0
VERTEX
  8
0
  6
CONTINUOUS
 10
6.406400
 20
2.397120
  0
VERTEX
  8
0
  6
CONTINUOUS
 10
6.402880
 20
1.658360
  0
VERTEX
  8
0
  6
CONTINUOUS
 10
6.369880
 20
1.664960
  0
SEQEND
  8
0
  0
SOLID
  8
0
 62
    15
 10
6.402880
 20
1.658360
 11
6.406400
 21
2.397120
 12
6.439400
 22
1.652640
 13
6.442920
 23
2.391400
  0
POLYLINE
  8
0
  6
CONTINUOUS
 66
     1
 40
0.000000
 41
0.000000
  0
VERTEX
  8
0
  6
CONTINUOUS
 10
6.402880
 20
1.658360
  0
VERTEX
  8
0
  6
CONTINUOUS
 10
6.406400
 20
2.397120
  0
VERTEX
  8
0
  6
CONTINUOUS
 10
6.442920
 20
2.391400
  0
VERTEX
  8
0
  6
CONTINUOUS
 10
6.439400
 20
1.652640
  0
VERTEX
  8
0
  6
CONTINUOUS
 10
6.402880
 20
1.658360
  0
SEQEND
  8
0
  0
SOLID
  8
0
 62
    15
 10
6.439400
 20
1.652640
 11
6.442920
 21
2.391400
 12
6.480760
 22
1.647800
 13
6.484280
 23
2.387000
  0
POLYLINE
  8
0
  6
CONTINUOUS
 66
     1
 40
0.000000
 41
0.000000
  0
VERTEX
  8
0
  6
CONTINUOUS
 10
6.439400
 20
1.652640
  0
VERTEX
  8
0
  6
CONTINUOUS
 10
6.442920
 20
2.391400
  0
VERTEX
  8
0
  6
CONTINUOUS
 10
6.484280
 20
2.387000
  0
VERTEX
  8
0
  6
CONTINUOUS
 10
6.480760
 20
1.647800
  0
VERTEX
  8
0
  6
CONTINUOUS
 10
6.439400
 20
1.652640
  0
SEQEND
  8
0
  0
SOLID
  8
0
 62
    15
 10
6.480760
 20
1.647800
 11
6.484280
 21
2.387000
 12
6.529160
 22
1.644280
 13
6.532680
 23
2.383040
  0
POLYLINE
  8
0
  6
CONTINUOUS
 66
     1
 40
0.000000
 41
0.000000
  0
VERTEX
  8
0
  6
CONTINUOUS
 10
6.480760
 20
1.647800
  0
VERTEX
  8
0
  6
CONTINUOUS
 10
6.484280
 20
2.387000
  0
VERTEX
  8
0
  6
CONTINUOUS
 10
6.532680
 20
2.383040
  0
VERTEX
  8
0
  6
CONTINUOUS
 10
6.529160
 20
1.644280
  0
VERTEX
  8
0
  6
CONTINUOUS
 10
6.480760
 20
1.647800
  0
SEQEND
  8
0
  0
SOLID
  8
0
 62
    15
 10
6.529160
 20
1.644280
 11
6.532680
 21
2.383040
 12
6.573600
 22
1.611280
 13
6.577120
 23
2.350480
  0
POLYLINE
  8
0
  6
CONTINUOUS
 66
     1
 40
0.000000
 41
0.000000
  0
VERTEX
  8
0
  6
CONTINUOUS
 10
6.529160
 20
1.644280
  0
VERTEX
  8
0
  6
CONTINUOUS
 10
6.532680
 20
2.383040
  0
VERTEX
  8
0
  6
CONTINUOUS
 10
6.577120
 20
2.350480
  0
VERTEX
  8
0
  6
CONTINUOUS
 10
6.573600
 20
1.611280
  0
VERTEX
  8
0
  6
CONTINUOUS
 10
6.529160
 20
1.644280
  0
SEQEND
  8
0
  0
SOLID
  8
0
 62
    15
 10
6.573600
 20
1.611280
 11
6.577120
 21
2.350480
 12
6.625960
 22
1.577840
 13
6.629480
 23
2.316600
  0
POLYLINE
  8
0
  6
CONTINUOUS
 66
     1
 40
0.000000
 41
0.000000
  0
VERTEX
  8
0
  6
CONTINUOUS
 10
6.573600
 20
1.611280
  0
VERTEX
  8
0
  6
CONTINUOUS
 10
6.577120
 20
2.350480
  0
VERTEX
  8
0
  6
CONTINUOUS
 10
6.629480
 20
2.316600
  0
VERTEX
  8
0
  6
CONTINUOUS
 10
6.625960
 20
1.577840
  0
VERTEX
  8
0
  6
CONTINUOUS
 10
6.573600
 20
1.611280
  0
SEQEND
  8
0
  0
SOLID
  8
0
 62
    15
 10
6.625960
 20
1.577840
 11
6.629480
 21
2.316600
 12
6.656320
 22
1.562880
 13
6.659840
 23
2.301640
  0
POLYLINE
  8
0
  6
CONTINUOUS
 66
     1
 40
0.000000
 41
0.000000
  0
VERTEX
  8
0
  6
CONTINUOUS
 10
6.625960
 20
1.577840
  0
VERTEX
  8
0
  6
CONTINUOUS
 10
6.629480
 20
2.316600
  0
VERTEX
  8
0
  6
CONTINUOUS
 10
6.659840
 20
2.301640
  0
VERTEX
  8
0
  6
CONTINUOUS
 10
6.656320
 20
1.562880
  0
VERTEX
  8
0
  6
CONTINUOUS
 10
6.625960
 20
1.577840
  0
SEQEND
  8
0
  0
SOLID
  8
0
 62
    15
 10
6.656320
 20
1.562880
 11
6.659840
 21
2.301640
 12
6.689320
 22
1.549680
 13
6.693280
 23
2.288880
  0
POLYLINE
  8
0
  6
CONTINUOUS
 66
     1
 40
0.000000
 41
0.000000
  0
VERTEX
  8
0
  6
CONTINUOUS
 10
6.656320
 20
1.562880
  0
VERTEX
  8
0
  6
CONTINUOUS
 10
6.659840
 20
2.301640
  0
VERTEX
  8
0
  6
CONTINUOUS
 10
6.693280
 20
2.288880
  0
VERTEX
  8
0
  6
CONTINUOUS
 10
6.689320
 20
1.549680
  0
VERTEX
  8
0
  6
CONTINUOUS
 10
6.656320
 20
1.562880
  0
SEQEND
  8
0
  0
SOLID
  8
0
 62
    15
 10
6.689320
 20
1.549680
 11
6.693280
 21
2.288880
 12
6.726280
 22
1.540440
 13
6.729800
 23
2.279200
  0
POLYLINE
  8
0
  6
CONTINUOUS
 66
     1
 40
0.000000
 41
0.000000
  0
VERTEX
  8
0
  6
CONTINUOUS
 10
6.689320
 20
1.549680
  0
VERTEX
  8
0
  6
CONTINUOUS
 10
6.693280
 20
2.288880
  0
VERTEX
  8
0
  6
CONTINUOUS
 10
6.729800
 20
2.279200
  0
VERTEX
  8
0
  6
CONTINUOUS
 10
6.726280
 20
1.540440
  0
VERTEX
  8
0
  6
CONTINUOUS
 10
6.689320
 20
1.549680
  0
SEQEND
  8
0
  0
SOLID
  8
0
 62
    15
 10
6.770280
 20
1.425160
 11
6.773800
 21
2.163920
 12
6.823520
 22
1.419000
 13
6.827040
 23
2.157760
  0
POLYLINE
  8
0
  6
CONTINUOUS
 66
     1
 40
0.000000
 41
0.000000
  0
VERTEX
  8
0
  6
CONTINUOUS
 10
6.770280
 20
1.425160
  0
VERTEX
  8
0
  6
CONTINUOUS
 10
6.773800
 20
2.163920
  0
VERTEX
  8
0
  6
CONTINUOUS
 10
6.827040
 20
2.157760
  0
VERTEX
  8
0
  6
CONTINUOUS
 10
6.823520
 20
1.419000
  0
VERTEX
  8
0
  6
CONTINUOUS
 10
6.770280
 20
1.425160
  0
SEQEND
  8
0
  0
SOLID
  8
0
 62
    15
 10
6.766760
 20
1.534720
 11
6.770280
 21
2.273480
 12
6.770280
 22
1.425160
 13
6.773800
 23
2.163920
  0
POLYLINE
  8
0
  6
CONTINUOUS
 66
     1
 40
0.000000
 41
0.000000
  0
VERTEX
  8
0
  6
CONTINUOUS
 10
6.766760
 20
1.534720
  0
VERTEX
  8
0
  6
CONTINUOUS
 10
6.770280
 20
2.273480
  0
VERTEX
  8
0
  6
CONTINUOUS
 10
6.773800
 20
2.163920
  0
VERTEX
  8
0
  6
CONTINUOUS
 10
6.770280
 20
1.425160
  0
VERTEX
  8
0
  6
CONTINUOUS
 10
6.766760
 20
1.534720
  0
SEQEND
  8
0
  0
SOLID
  8
0
 62
    15
 10
6.726280
 20
1.540440
 11
6.729800
 21
2.279200
 12
6.766760
 22
1.534720
 13
6.770280
 23
2.273480
  0
POLYLINE
  8
0
  6
CONTINUOUS
 66
     1
 40
0.000000
 41
0.000000
  0
VERTEX
  8
0
  6
CONTINUOUS
 10
6.726280
 20
1.540440
  0
VERTEX
  8
0
  6
CONTINUOUS
 10
6.729800
 20
2.279200
  0
VERTEX
  8
0
  6
CONTINUOUS
 10
6.770280
 20
2.273480
  0
VERTEX
  8
0
  6
CONTINUOUS
 10
6.766760
 20
1.534720
  0
VERTEX
  8
0
  6
CONTINUOUS
 10
6.726280
 20
1.540440
  0
SEQEND
  8
0
  0
SOLID
  8
0
 62
    15
 10
6.823520
 20
1.419000
 11
6.827040
 21
2.157760
 12
6.873240
 22
1.401840
 13
6.876760
 23
2.140600
  0
POLYLINE
  8
0
  6
CONTINUOUS
 66
     1
 40
0.000000
 41
0.000000
  0
VERTEX
  8
0
  6
CONTINUOUS
 10
6.823520
 20
1.419000
  0
VERTEX
  8
0
  6
CONTINUOUS
 10
6.827040
 20
2.157760
  0
VERTEX
  8
0
  6
CONTINUOUS
 10
6.876760
 20
2.140600
  0
VERTEX
  8
0
  6
CONTINUOUS
 10
6.873240
 20
1.401840
  0
VERTEX
  8
0
  6
CONTINUOUS
 10
6.823520
 20
1.419000
  0
SEQEND
  8
0
  0
SOLID
  8
0
 62
    15
 10
6.873240
 20
1.401840
 11
6.876760
 21
2.140600
 12
6.918120
 22
1.375440
 13
6.921640
 23
2.114640
  0
POLYLINE
  8
0
  6
CONTINUOUS
 66
     1
 40
0.000000
 41
0.000000
  0
VERTEX
  8
0
  6
CONTINUOUS
 10
6.873240
 20
1.401840
  0
VERTEX
  8
0
  6
CONTINUOUS
 10
6.876760
 20
2.140600
  0
VERTEX
  8
0
  6
CONTINUOUS
 10
6.921640
 20
2.114640
  0
VERTEX
  8
0
  6
CONTINUOUS
 10
6.918120
 20
1.375440
  0
VERTEX
  8
0
  6
CONTINUOUS
 10
6.873240
 20
1.401840
  0
SEQEND
  8
0
  0
SOLID
  8
0
 62
    15
 10
6.918120
 20
1.375440
 11
6.921640
 21
2.114640
 12
6.956840
 22
1.342000
 13
6.960800
 23
2.081200
  0
POLYLINE
  8
0
  6
CONTINUOUS
 66
     1
 40
0.000000
 41
0.000000
  0
VERTEX
  8
0
  6
CONTINUOUS
 10
6.918120
 20
1.375440
  0
VERTEX
  8
0
  6
CONTINUOUS
 10
6.921640
 20
2.114640
  0
VERTEX
  8
0
  6
CONTINUOUS
 10
6.960800
 20
2.081200
  0
VERTEX
  8
0
  6
CONTINUOUS
 10
6.956840
 20
1.342000
  0
VERTEX
  8
0
  6
CONTINUOUS
 10
6.918120
 20
1.375440
  0
SEQEND
  8
0
  0
SOLID
  8
0
 62
    15
 10
6.956840
 20
1.342000
 11
6.960800
 21
2.081200
 12
6.988960
 22
1.303280
 13
6.992480
 23
2.042480
  0
POLYLINE
  8
0
  6
CONTINUOUS
 66
     1
 40
0.000000
 41
0.000000
  0
VERTEX
  8
0
  6
CONTINUOUS
 10
6.956840
 20
1.342000
  0
VERTEX
  8
0
  6
CONTINUOUS
 10
6.960800
 20
2.081200
  0
VERTEX
  8
0
  6
CONTINUOUS
 10
6.992480
 20
2.042480
  0
VERTEX
  8
0
  6
CONTINUOUS
 10
6.988960
 20
1.303280
  0
VERTEX
  8
0
  6
CONTINUOUS
 10
6.956840
 20
1.342000
  0
SEQEND
  8
0
  0
SOLID
  8
0
 62
    15
 10
6.988960
 20
1.303280
 11
6.992480
 21
2.042480
 12
7.012720
 22
1.261040
 13
7.016240
 23
1.999800
  0
POLYLINE
  8
0
  6
CONTINUOUS
 66
     1
 40
0.000000
 41
0.000000
  0
VERTEX
  8
0
  6
CONTINUOUS
 10
6.988960
 20
1.303280
  0
VERTEX
  8
0
  6
CONTINUOUS
 10
6.992480
 20
2.042480
  0
VERTEX
  8
0
  6
CONTINUOUS
 10
7.016240
 20
1.999800
  0
VERTEX
  8
0
  6
CONTINUOUS
 10
7.012720
 20
1.261040
  0
VERTEX
  8
0
  6
CONTINUOUS
 10
6.988960
 20
1.303280
  0
SEQEND
  8
0
  0
SOLID
  8
0
 62
    15
 10
7.027240
 20
1.217040
 11
7.030760
 21
1.955800
 12
7.031640
 22
1.173040
 13
7.035160
 23
1.911800
  0
POLYLINE
  8
0
  6
CONTINUOUS
 66
     1
 40
0.000000
 41
0.000000
  0
VERTEX
  8
0
  6
CONTINUOUS
 10
7.027240
 20
1.217040
  0
VERTEX
  8
0
  6
CONTINUOUS
 10
7.030760
 20
1.955800
  0
VERTEX
  8
0
  6
CONTINUOUS
 10
7.035160
 20
1.911800
  0
VERTEX
  8
0
  6
CONTINUOUS
 10
7.031640
 20
1.173040
  0
VERTEX
  8
0
  6
CONTINUOUS
 10
7.027240
 20
1.217040
  0
SEQEND
  8
0
  0
SOLID
  8
0
 62
    15
 10
7.012720
 20
1.261040
 11
7.016240
 21
1.999800
 12
7.027240
 22
1.217040
 13
7.030760
 23
1.955800
  0
POLYLINE
  8
0
  6
CONTINUOUS
 66
     1
 40
0.000000
 41
0.000000
  0
VERTEX
  8
0
  6
CONTINUOUS
 10
7.012720
 20
1.261040
  0
VERTEX
  8
0
  6
CONTINUOUS
 10
7.016240
 20
1.999800
  0
VERTEX
  8
0
  6
CONTINUOUS
 10
7.030760
 20
1.955800
  0
VERTEX
  8
0
  6
CONTINUOUS
 10
7.027240
 20
1.217040
  0
VERTEX
  8
0
  6
CONTINUOUS
 10
7.012720
 20
1.261040
  0
SEQEND
  8
0
  0
SOLID
  8
0
 62
    15
 10
3.036000
 20
1.875280
 11
3.039520
 21
2.614040
 12
3.037760
 22
1.875280
 13
3.041280
 23
2.614040
  0
POLYLINE
  8
0
  6
CONTINUOUS
 66
     1
 40
0.000000
 41
0.000000
  0
VERTEX
  8
0
  6
CONTINUOUS
 10
3.036000
 20
1.875280
  0
VERTEX
  8
0
  6
CONTINUOUS
 10
3.039520
 20
2.614040
  0
VERTEX
  8
0
  6
CONTINUOUS
 10
3.041280
 20
2.614040
  0
VERTEX
  8
0
  6
CONTINUOUS
 10
3.037760
 20
1.875280
  0
VERTEX
  8
0
  6
CONTINUOUS
 10
3.036000
 20
1.875280
  0
SEQEND
  8
0
  0
POLYLINE
  8
0
  6
CONTINUOUS
 66
     1
 40
0.000000
 41
0.000000
  0
VERTEX
  8
0
  6
CONTINUOUS
 10
3.037760
 20
1.875280
  0
VERTEX
  8
0
  6
CONTINUOUS
 10
3.568840
 20
1.863840
  0
VERTEX
  8
0
  6
CONTINUOUS
 10
3.595680
 20
1.827320
  0
VERTEX
  8
0
  6
CONTINUOUS
 10
3.625600
 20
1.791680
  0
VERTEX
  8
0
  6
CONTINUOUS
 10
3.659040
 20
1.762200
  0
VERTEX
  8
0
  6
CONTINUOUS
 10
3.696880
 20
1.741520
  0
VERTEX
  8
0
  6
CONTINUOUS
 10
3.717120
 20
1.736240
  0
VERTEX
  8
0
  6
CONTINUOUS
 10
3.738680
 20
1.734920
  0
VERTEX
  8
0
  6
CONTINUOUS
 10
3.761560
 20
1.737560
  0
VERTEX
  8
0
  6
CONTINUOUS
 10
3.785760
 20
1.745480
  0
VERTEX
  8
0
  6
CONTINUOUS
 10
3.811280
 20
1.758680
  0
VERTEX
  8
0
  6
CONTINUOUS
 10
3.838560
 20
1.777600
  0
VERTEX
  8
0
  6
CONTINUOUS
 10
3.866720
 20
1.803120
  0
VERTEX
  8
0
  6
CONTINUOUS
 10
3.896640
 20
1.835680
  0
VERTEX
  8
0
  6
CONTINUOUS
 10
3.964840
 20
1.787280
  0
VERTEX
  8
0
  6
CONTINUOUS
 10
3.983320
 20
1.807520
  0
VERTEX
  8
0
  6
CONTINUOUS
 10
4.002240
 20
1.824240
  0
VERTEX
  8
0
  6
CONTINUOUS
 10
4.042720
 20
1.848440
  0
VERTEX
  8
0
  6
CONTINUOUS
 10
4.083640
 20
1.861200
  0
VERTEX
  8
0
  6
CONTINUOUS
 10
4.124120
 20
1.864720
  0
VERTEX
  8
0
  6
CONTINUOUS
 10
4.161960
 20
1.860320
  0
VERTEX
  8
0
  6
CONTINUOUS
 10
4.196280
 20
1.848880
  0
VERTEX
  8
0
  6
CONTINUOUS
 10
4.225320
 20
1.832600
  0
VERTEX
  8
0
  6
CONTINUOUS
 10
4.247320
 20
1.812800
  0
VERTEX
  8
0
  6
CONTINUOUS
 10
4.296600
 20
1.851520
  0
VERTEX
  8
0
  6
CONTINUOUS
 10
4.353360
 20
1.794320
  0
VERTEX
  8
0
  6
CONTINUOUS
 10
4.406600
 20
1.746800
  0
VERTEX
  8
0
  6
CONTINUOUS
 10
4.458080
 20
1.708520
  0
VERTEX
  8
0
  6
CONTINUOUS
 10
4.507360
 20
1.679040
  0
VERTEX
  8
0
  6
CONTINUOUS
 10
4.555320
 20
1.657040
  0
VERTEX
  8
0
  6
CONTINUOUS
 10
4.602400
 20
1.642960
  0
VERTEX
  8
0
  6
CONTINUOUS
 10
4.649920
 20
1.635480
  0
VERTEX
  8
0
  6
CONTINUOUS
 10
4.697440
 20
1.634160
  0
VERTEX
  8
0
  6
CONTINUOUS
 10
4.746280
 20
1.639000
  0
VERTEX
  8
0
  6
CONTINUOUS
 10
4.796440
 20
1.648680
  0
VERTEX
  8
0
  6
CONTINUOUS
 10
4.849240
 20
1.662760
  0
VERTEX
  8
0
  6
CONTINUOUS
 10
4.904680
 20
1.680800
  0
VERTEX
  8
0
  6
CONTINUOUS
 10
5.026120
 20
1.727000
  0
VERTEX
  8
0
  6
CONTINUOUS
 10
5.166480
 20
1.782000
  0
VERTEX
  8
0
  6
CONTINUOUS
 10
5.241720
 20
1.807520
  0
VERTEX
  8
0
  6
CONTINUOUS
 10
5.316520
 20
1.826880
  0
VERTEX
  8
0
  6
CONTINUOUS
 10
5.391320
 20
1.840520
  0
VERTEX
  8
0
  6
CONTINUOUS
 10
5.465680
 20
1.849320
  0
VERTEX
  8
0
  6
CONTINUOUS
 10
5.538720
 20
1.852840
  0
VERTEX
  8
0
  6
CONTINUOUS
 10
5.611320
 20
1.851960
  0
VERTEX
  8
0
  6
CONTINUOUS
 10
5.682600
 20
1.847120
  0
VERTEX
  8
0
  6
CONTINUOUS
 10
5.752560
 20
1.839200
  0
VERTEX
  8
0
  6
CONTINUOUS
 10
5.887200
 20
1.814560
  0
VERTEX
  8
0
  6
CONTINUOUS
 10
6.014800
 20
1.781560
  0
VERTEX
  8
0
  6
CONTINUOUS
 10
6.132720
 20
1.744160
  0
VERTEX
  8
0
  6
CONTINUOUS
 10
6.307840
 20
1.682120
  0
VERTEX
  8
0
  6
CONTINUOUS
 10
6.369880
 20
1.664960
  0
VERTEX
  8
0
  6
CONTINUOUS
 10
6.439400
 20
1.652640
  0
VERTEX
  8
0
  6
CONTINUOUS
 10
6.480760
 20
1.647800
  0
VERTEX
  8
0
  6
CONTINUOUS
 10
6.529160
 20
1.644280
  0
VERTEX
  8
0
  6
CONTINUOUS
 10
6.573600
 20
1.611280
  0
VERTEX
  8
0
  6
CONTINUOUS
 10
6.625960
 20
1.577840
  0
VERTEX
  8
0
  6
CONTINUOUS
 10
6.656320
 20
1.562880
  0
VERTEX
  8
0
  6
CONTINUOUS
 10
6.689320
 20
1.549680
  0
VERTEX
  8
0
  6
CONTINUOUS
 10
6.726280
 20
1.540440
  0
VERTEX
  8
0
  6
CONTINUOUS
 10
6.766760
 20
1.534720
  0
VERTEX
  8
0
  6
CONTINUOUS
 10
6.770280
 20
1.425160
  0
VERTEX
  8
0
  6
CONTINUOUS
 10
6.823520
 20
1.419000
  0
VERTEX
  8
0
  6
CONTINUOUS
 10
6.873240
 20
1.401840
  0
VERTEX
  8
0
  6
CONTINUOUS
 10
6.918120
 20
1.375440
  0
VERTEX
  8
0
  6
CONTINUOUS
 10
6.956840
 20
1.342000
  0
VERTEX
  8
0
  6
CONTINUOUS
 10
6.988960
 20
1.303280
  0
VERTEX
  8
0
  6
CONTINUOUS
 10
7.012720
 20
1.261040
  0
VERTEX
  8
0
  6
CONTINUOUS
 10
7.027240
 20
1.217040
  0
VERTEX
  8
0
  6
CONTINUOUS
 10
7.031640
 20
1.173040
  0
VERTEX
  8
0
  6
CONTINUOUS
 10
3.036000
 20
1.173040
  0
VERTEX
  8
0
  6
CONTINUOUS
 10
3.036000
 20
1.875280
  0
VERTEX
  8
0
  6
CONTINUOUS
 10
3.037760
 20
1.875280
  0
SEQEND
  8
0
  0
TEXT
  8
0
 10
4.429040
 20
0.959200
 40
0.138101
  1
BA  853
 41
1.000000
  7
SN0
 71
     0
 72
     5
 11
5.018533
 21
0.959200
  0
TEXT
  8
0
 10
4.324320
 20
0.767800
 40
0.138101
  1
11/16" x 4"
 41
1.000000
  7
SN0
 71
     0
 72
     5
 11
5.123151
 21
0.767800
  0
POLYLINE
  8
0
  6
CONTINUOUS
 66
     1
 40
0.014080
 41
0.014080
  0
VERTEX
  8
0
  6
CONTINUOUS
 10
3.067680
 20
3.941520
  0
VERTEX
  8
0
  6
CONTINUOUS
 10
3.599200
 20
3.930080
  0
VERTEX
  8
0
  6
CONTINUOUS
 10
3.640560
 20
3.875520
  0
VERTEX
  8
0
  6
CONTINUOUS
 10
3.672240
 20
3.842520
  0
VERTEX
  8
0
  6
CONTINUOUS
 10
3.698200
 20
3.822280
  0
VERTEX
  8
0
  6
CONTINUOUS
 10
3.717120
 20
3.811720
  0
VERTEX
  8
0
  6
CONTINUOUS
 10
3.736920
 20
3.804680
  0
VERTEX
  8
0
  6
CONTINUOUS
 10
3.758040
 20
3.801160
  0
VERTEX
  8
0
  6
CONTINUOUS
 10
3.780480
 20
3.802040
  0
VERTEX
  8
0
  6
CONTINUOUS
 10
3.791920
 20
3.803800
  0
VERTEX
  8
0
  6
CONTINUOUS
 10
3.816120
 20
3.811720
  0
VERTEX
  8
0
  6
CONTINUOUS
 10
3.841640
 20
3.824920
  0
VERTEX
  8
0
  6
CONTINUOUS
 10
3.868480
 20
3.843840
  0
VERTEX
  8
0
  6
CONTINUOUS
 10
3.897080
 20
3.869360
  0
VERTEX
  8
0
  6
CONTINUOUS
 10
3.927000
 20
3.901920
  0
VERTEX
  8
0
  6
CONTINUOUS
 10
3.994760
 20
3.853960
  0
VERTEX
  8
0
  6
CONTINUOUS
 10
4.022920
 20
3.882560
  0
VERTEX
  8
0
  6
CONTINUOUS
 10
4.052400
 20
3.904120
  0
VERTEX
  8
0
  6
CONTINUOUS
 10
4.082760
 20
3.919080
  0
VERTEX
  8
0
  6
CONTINUOUS
 10
4.113560
 20
3.927880
  0
VERTEX
  8
0
  6
CONTINUOUS
 10
4.133800
 20
3.930520
  0
VERTEX
  8
0
  6
CONTINUOUS
 10
4.154040
 20
3.930960
  0
VERTEX
  8
0
  6
CONTINUOUS
 10
4.173400
 20
3.929640
  0
VERTEX
  8
0
  6
CONTINUOUS
 10
4.191880
 20
3.926560
  0
VERTEX
  8
0
  6
CONTINUOUS
 10
4.209920
 20
3.921720
  0
VERTEX
  8
0
  6
CONTINUOUS
 10
4.241600
 20
3.907640
  0
VERTEX
  8
0
  6
CONTINUOUS
 10
4.267120
 20
3.889600
  0
VERTEX
  8
0
  6
CONTINUOUS
 10
4.277240
 20
3.879040
  0
VERTEX
  8
0
  6
CONTINUOUS
 10
4.326520
 20
3.917760
  0
VERTEX
  8
0
  6
CONTINUOUS
 10
4.383280
 20
3.860560
  0
VERTEX
  8
0
  6
CONTINUOUS
 10
4.436960
 20
3.813040
  0
VERTEX
  8
0
  6
CONTINUOUS
 10
4.488000
 20
3.774760
  0
VERTEX
  8
0
  6
CONTINUOUS
 10
4.512640
 20
3.758920
  0
VERTEX
  8
0
  6
CONTINUOUS
 10
4.561480
 20
3.733400
  0
VERTEX
  8
0
  6
CONTINUOUS
 10
4.609000
 20
3.715360
  0
VERTEX
  8
0
  6
CONTINUOUS
 10
4.632760
 20
3.709200
  0
VERTEX
  8
0
  6
CONTINUOUS
 10
4.679840
 20
3.701720
  0
VERTEX
  8
0
  6
CONTINUOUS
 10
4.703600
 20
3.700400
  0
VERTEX
  8
0
  6
CONTINUOUS
 10
4.751560
 20
3.702160
  0
VERTEX
  8
0
  6
CONTINUOUS
 10
4.801280
 20
3.709640
  0
VERTEX
  8
0
  6
CONTINUOUS
 10
4.852760
 20
3.721520
  0
VERTEX
  8
0
  6
CONTINUOUS
 10
4.906440
 20
3.737800
  0
VERTEX
  8
0
  6
CONTINUOUS
 10
4.993560
 20
3.769040
  0
VERTEX
  8
0
  6
CONTINUOUS
 10
5.196400
 20
3.848240
  0
VERTEX
  8
0
  6
CONTINUOUS
 10
5.271640
 20
3.873760
  0
VERTEX
  8
0
  6
CONTINUOUS
 10
5.346880
 20
3.893120
  0
VERTEX
  8
0
  6
CONTINUOUS
 10
5.384280
 20
3.901040
  0
VERTEX
  8
0
  6
CONTINUOUS
 10
5.458640
 20
3.912040
  0
VERTEX
  8
0
  6
CONTINUOUS
 10
5.532560
 20
3.917760
  0
VERTEX
  8
0
  6
CONTINUOUS
 10
5.605160
 20
3.919080
  0
VERTEX
  8
0
  6
CONTINUOUS
 10
5.677320
 20
3.916440
  0
VERTEX
  8
0
  6
CONTINUOUS
 10
5.747720
 20
3.909840
  0
VERTEX
  8
0
  6
CONTINUOUS
 10
5.816800
 20
3.900160
  0
VERTEX
  8
0
  6
CONTINUOUS
 10
5.884120
 20
3.887840
  0
VERTEX
  8
0
  6
CONTINUOUS
 10
5.950120
 20
3.873320
  0
VERTEX
  8
0
  6
CONTINUOUS
 10
6.044720
 20
3.847800
  0
VERTEX
  8
0
  6
CONTINUOUS
 10
6.162640
 20
3.810400
  0
VERTEX
  8
0
  6
CONTINUOUS
 10
6.337760
 20
3.748360
  0
VERTEX
  8
0
  6
CONTINUOUS
 10
6.400240
 20
3.731200
  0
VERTEX
  8
0
  6
CONTINUOUS
 10
6.469760
 20
3.718880
  0
VERTEX
  8
0
  6
CONTINUOUS
 10
6.534000
 20
3.712280
  0
VERTEX
  8
0
  6
CONTINUOUS
 10
6.559080
 20
3.710520
  0
VERTEX
  8
0
  6
CONTINUOUS
 10
6.628600
 20
3.660360
  0
VERTEX
  8
0
  6
CONTINUOUS
 10
6.670840
 20
3.636160
  0
VERTEX
  8
0
  6
CONTINUOUS
 10
6.702520
 20
3.622080
  0
VERTEX
  8
0
  6
CONTINUOUS
 10
6.737280
 20
3.611080
  0
VERTEX
  8
0
  6
CONTINUOUS
 10
6.776000
 20
3.603160
  0
VERTEX
  8
0
  6
CONTINUOUS
 10
6.796680
 20
3.600960
  0
VERTEX
  8
0
  6
CONTINUOUS
 10
6.800200
 20
3.491400
  0
VERTEX
  8
0
  6
CONTINUOUS
 10
6.827040
 20
3.489640
  0
VERTEX
  8
0
  6
CONTINUOUS
 10
6.853440
 20
3.485240
  0
VERTEX
  8
0
  6
CONTINUOUS
 10
6.878960
 20
3.478200
  0
VERTEX
  8
0
  6
CONTINUOUS
 10
6.915040
 20
3.462360
  0
VERTEX
  8
0
  6
CONTINUOUS
 10
6.948040
 20
3.442120
  0
VERTEX
  8
0
  6
CONTINUOUS
 10
6.968280
 20
3.426280
  0
VERTEX
  8
0
  6
CONTINUOUS
 10
6.987200
 20
3.408680
  0
VERTEX
  8
0
  6
CONTINUOUS
 10
7.003920
 20
3.389760
  0
VERTEX
  8
0
  6
CONTINUOUS
 10
7.032080
 20
3.348840
  0
VERTEX
  8
0
  6
CONTINUOUS
 10
7.042640
 20
3.327280
  0
VERTEX
  8
0
  6
CONTINUOUS
 10
7.051440
 20
3.305280
  0
VERTEX
  8
0
  6
CONTINUOUS
 10
7.059360
 20
3.272280
  0
VERTEX
  8
0
  6
CONTINUOUS
 10
7.061560
 20
3.250280
  0
VERTEX
  8
0
  6
CONTINUOUS
 10
7.061560
 20
3.239280
  0
VERTEX
  8
0
  6
CONTINUOUS
 10
3.065920
 20
3.239280
  0
VERTEX
  8
0
  6
CONTINUOUS
 10
3.065920
 20
3.941520
  0
VERTEX
  8
0
  6
CONTINUOUS
 10
3.067680
 20
3.941520
  0
SEQEND
  8
0
  0
ENDSEC
  0
EOF
