  0
SECTION
  2
HEADER
  9
$ACADVER
  1
AC1006
  9
$EXTMIN
 10
1.061720
 20
0.645480
  9
$EXTMAX
 10
7.132400
 20
3.678840
  9
$LTSCALE
 40
0.044000
  9
$PDMODE
 70
    35
  9
$PDSIZE
 40
0.035200
  0
ENDSEC
  0
SECTION
  2
TABLES
  0
TABLE
  2
LTYPE
 70
     9
  0
LTYPE
  2
CONTINUOUS
 70
    64
  3
Solid line
 72
    65
 73
     0
 40
0.000000
  0
LTYPE
  2
DASHED
 70
    64
  3
__ __ __ __ __ __ __ __ __ __ __ __ __ __ __
 72
    65
 73
     2
 40
0.000330
 49
0.000220
 49
-0.000110
  0
LTYPE
  2
HIDDEN
 70
    64
  3
 _ _ _ _ _ _ _ _ _ _ _ _ _ _ _ _ _ _ _ _ _ _
 72
    65
 73
     2
 40
0.000165
 49
0.000110
 49
-0.000055
  0
LTYPE
  2
CENTER
 70
    64
  3
____ _ ____ _ ____ _ ____ _ ____ _ ____ _ ____
 72
    65
 73
     4
 40
0.000880
 49
0.000550
 49
-0.000110
 49
0.000110
 49
-0.000110
  0
LTYPE
  2
PHANTOM
 70
    64
  3
_____ _ _ _____ _ _ _____ _ _ _____ _ _ ____
 72
    65
 73
     6
 40
0.001100
 49
0.000550
 49
-0.000110
 49
0.000110
 49
-0.000110
 49
0.000110
 49
-0.000110
  0
LTYPE
  2
DOT
 70
    64
  3
...............................................
 72
    65
 73
     2
 40
0.000110
 49
0.000000
 49
-0.000110
  0
LTYPE
  2
DASHDOT
 70
    64
  3
__ . __ . __ . __ . __ . __ . __ . __ . __ . __
 72
    65
 73
     4
 40
0.000440
 49
0.000220
 49
-0.000110
 49
0.000000
 49
-0.000110
  0
LTYPE
  2
BORDER
 70
    64
  3
__ __ . __ __ . __ __ . __ __ . __ __ . __ __
 72
    65
 73
     6
 40
0.000770
 49
0.000220
 49
-0.000110
 49
0.000220
 49
-0.000110
 49
0.000000
 49
-0.000110
  0
LTYPE
  2
DIVIDE
 70
    64
  3
__ . . __ . . __ . . __ . . __ . . __ . . __
 72
    65
 73
     6
 40
0.000550
 49
0.000220
 49
-0.000110
 49
0.000000
 49
-0.000110
 49
0.000000
 49
-0.000110
  0
LTYPE
  2
DOTDOT
 70
    64
  3
 . .  . .  . .  . .  . .  . . 
 72
    65
 73
     5
 40
0.000242
 49
-0.000110
 49
0.000000
 49
-0.000110
 49
0.000000
 49
-0.000110
  0
ENDTAB
  0
TABLE
  2
STYLE
 70
     2
  0
STYLE
 70
     0
  2
SN0
 40
0.000000
 41
0.000440
 50
0.000000
 71
     0
 42
0.000000
  3
ROMAND
  0
STYLE
 70
    68
  2
SV0
 40
0.000000
 41
0.000440
 50
0.000000
 71
     0
 42
0.000000
  3
ROMAND
  0
ENDTAB
  0
TABLE
  2
LAYER
 70
     3
  0
LAYER
  2
FOREGROUND
 70
    64
 62
     7
  6
CONTINUOUS
  0
LAYER
  2
BACKGROUND
 70
    65
 62
    -7
  6
CONTINUOUS
  0
LAYER
  2
0
 70
    64
 62
     7
  6
CONTINUOUS
  0
ENDTAB
  0
ENDSEC
  0
SECTION
  2
ENTITIES
  0
POLYLINE
  8
FOREGROUND
  6
CONTINUOUS
 66
     1
 40
0.000000
 41
0.000000
  0
VERTEX
  8
FOREGROUND
  6
CONTINUOUS
 10
0.000000
 20
4.324320
  0
VERTEX
  8
FOREGROUND
  6
CONTINUOUS
 10
8.499920
 20
4.324320
  0
VERTEX
  8
FOREGROUND
  6
CONTINUOUS
 10
8.499920
 20
-6.675680
  0
VERTEX
  8
FOREGROUND
  6
CONTINUOUS
 10
0.000000
 20
-6.675680
  0
VERTEX
  8
FOREGROUND
  6
CONTINUOUS
 10
0.000000
 20
4.324320
  0
SEQEND
  8
0
  0
POLYLINE
  8
FOREGROUND
  6
CONTINUOUS
 66
     1
 40
0.000000
 41
0.000000
  0
VERTEX
  8
FOREGROUND
  6
CONTINUOUS
 10
0.000000
 20
4.324320
  0
VERTEX
  8
FOREGROUND
  6
CONTINUOUS
 10
8.499920
 20
4.324320
  0
VERTEX
  8
FOREGROUND
  6
CONTINUOUS
 10
8.499920
 20
-6.675680
  0
VERTEX
  8
FOREGROUND
  6
CONTINUOUS
 10
0.000000
 20
-6.675680
  0
VERTEX
  8
FOREGROUND
  6
CONTINUOUS
 10
0.000000
 20
4.324320
  0
SEQEND
  8
0
  0
SOLID
  8
0
 62
    15
 10
3.378760
 20
2.750880
 11
4.027320
 21
3.117840
 12
3.382280
 22
2.664640
 13
4.030840
 23
3.031600
  0
POLYLINE
  8
0
  6
CONTINUOUS
 66
     1
 40
0.000000
 41
0.000000
  0
VERTEX
  8
0
  6
CONTINUOUS
 10
3.378760
 20
2.750880
  0
VERTEX
  8
0
  6
CONTINUOUS
 10
4.027320
 20
3.117840
  0
VERTEX
  8
0
  6
CONTINUOUS
 10
4.030840
 20
3.031600
  0
VERTEX
  8
0
  6
CONTINUOUS
 10
3.382280
 20
2.664640
  0
VERTEX
  8
0
  6
CONTINUOUS
 10
3.378760
 20
2.750880
  0
SEQEND
  8
0
  0
SOLID
  8
0
 62
    15
 10
1.598080
 20
1.318240
 11
2.246640
 21
1.685200
 12
1.628880
 22
1.334960
 13
2.277440
 23
1.701920
  0
POLYLINE
  8
0
  6
CONTINUOUS
 66
     1
 40
0.000000
 41
0.000000
  0
VERTEX
  8
0
  6
CONTINUOUS
 10
1.598080
 20
1.318240
  0
VERTEX
  8
0
  6
CONTINUOUS
 10
2.246640
 20
1.685200
  0
VERTEX
  8
0
  6
CONTINUOUS
 10
2.277440
 20
1.701920
  0
VERTEX
  8
0
  6
CONTINUOUS
 10
1.628880
 20
1.334960
  0
VERTEX
  8
0
  6
CONTINUOUS
 10
1.598080
 20
1.318240
  0
SEQEND
  8
0
  0
SOLID
  8
0
 62
    15
 10
1.628880
 20
1.334960
 11
2.277440
 21
1.701920
 12
1.667600
 22
1.339800
 13
2.316160
 23
1.706760
  0
POLYLINE
  8
0
  6
CONTINUOUS
 66
     1
 40
0.000000
 41
0.000000
  0
VERTEX
  8
0
  6
CONTINUOUS
 10
1.628880
 20
1.334960
  0
VERTEX
  8
0
  6
CONTINUOUS
 10
2.277440
 20
1.701920
  0
VERTEX
  8
0
  6
CONTINUOUS
 10
2.316160
 20
1.706760
  0
VERTEX
  8
0
  6
CONTINUOUS
 10
1.667600
 20
1.339800
  0
VERTEX
  8
0
  6
CONTINUOUS
 10
1.628880
 20
1.334960
  0
SEQEND
  8
0
  0
SOLID
  8
0
 62
    15
 10
1.421640
 20
3.162280
 11
2.070200
 21
3.529240
 12
1.570800
 22
3.220800
 13
2.219360
 23
3.587760
  0
POLYLINE
  8
0
  6
CONTINUOUS
 66
     1
 40
0.000000
 41
0.000000
  0
VERTEX
  8
0
  6
CONTINUOUS
 10
1.421640
 20
3.162280
  0
VERTEX
  8
0
  6
CONTINUOUS
 10
2.070200
 20
3.529240
  0
VERTEX
  8
0
  6
CONTINUOUS
 10
2.219360
 20
3.587760
  0
VERTEX
  8
0
  6
CONTINUOUS
 10
1.570800
 20
3.220800
  0
VERTEX
  8
0
  6
CONTINUOUS
 10
1.421640
 20
3.162280
  0
SEQEND
  8
0
  0
SOLID
  8
0
 62
    15
 10
1.570800
 20
3.220800
 11
2.219360
 21
3.587760
 12
1.749440
 22
3.265240
 13
2.398000
 23
3.632200
  0
POLYLINE
  8
0
  6
CONTINUOUS
 66
     1
 40
0.000000
 41
0.000000
  0
VERTEX
  8
0
  6
CONTINUOUS
 10
1.570800
 20
3.220800
  0
VERTEX
  8
0
  6
CONTINUOUS
 10
2.219360
 20
3.587760
  0
VERTEX
  8
0
  6
CONTINUOUS
 10
2.398000
 20
3.632200
  0
VERTEX
  8
0
  6
CONTINUOUS
 10
1.749440
 20
3.265240
  0
VERTEX
  8
0
  6
CONTINUOUS
 10
1.570800
 20
3.220800
  0
SEQEND
  8
0
  0
SOLID
  8
0
 62
    15
 10
1.749440
 20
3.265240
 11
2.398000
 21
3.632200
 12
1.958880
 22
3.292080
 13
2.607440
 23
3.659040
  0
POLYLINE
  8
0
  6
CONTINUOUS
 66
     1
 40
0.000000
 41
0.000000
  0
VERTEX
  8
0
  6
CONTINUOUS
 10
1.749440
 20
3.265240
  0
VERTEX
  8
0
  6
CONTINUOUS
 10
2.398000
 20
3.632200
  0
VERTEX
  8
0
  6
CONTINUOUS
 10
2.607440
 20
3.659040
  0
VERTEX
  8
0
  6
CONTINUOUS
 10
1.958880
 20
3.292080
  0
VERTEX
  8
0
  6
CONTINUOUS
 10
1.749440
 20
3.265240
  0
SEQEND
  8
0
  0
SOLID
  8
0
 62
    15
 10
1.958880
 20
3.292080
 11
2.607440
 21
3.659040
 12
2.200880
 22
3.298680
 13
2.849440
 23
3.666080
  0
POLYLINE
  8
0
  6
CONTINUOUS
 66
     1
 40
0.000000
 41
0.000000
  0
VERTEX
  8
0
  6
CONTINUOUS
 10
1.958880
 20
3.292080
  0
VERTEX
  8
0
  6
CONTINUOUS
 10
2.607440
 20
3.659040
  0
VERTEX
  8
0
  6
CONTINUOUS
 10
2.849440
 20
3.666080
  0
VERTEX
  8
0
  6
CONTINUOUS
 10
2.200880
 20
3.298680
  0
VERTEX
  8
0
  6
CONTINUOUS
 10
1.958880
 20
3.292080
  0
SEQEND
  8
0
  0
SOLID
  8
0
 62
    15
 10
2.200880
 20
3.298680
 11
2.849440
 21
3.666080
 12
2.244000
 22
3.298240
 13
2.892560
 23
3.665200
  0
POLYLINE
  8
0
  6
CONTINUOUS
 66
     1
 40
0.000000
 41
0.000000
  0
VERTEX
  8
0
  6
CONTINUOUS
 10
2.200880
 20
3.298680
  0
VERTEX
  8
0
  6
CONTINUOUS
 10
2.849440
 20
3.666080
  0
VERTEX
  8
0
  6
CONTINUOUS
 10
2.892560
 20
3.665200
  0
VERTEX
  8
0
  6
CONTINUOUS
 10
2.244000
 20
3.298240
  0
VERTEX
  8
0
  6
CONTINUOUS
 10
2.200880
 20
3.298680
  0
SEQEND
  8
0
  0
SOLID
  8
0
 62
    15
 10
2.244000
 20
3.298240
 11
2.892560
 21
3.665200
 12
2.485560
 22
3.291640
 13
3.134120
 23
3.658600
  0
POLYLINE
  8
0
  6
CONTINUOUS
 66
     1
 40
0.000000
 41
0.000000
  0
VERTEX
  8
0
  6
CONTINUOUS
 10
2.244000
 20
3.298240
  0
VERTEX
  8
0
  6
CONTINUOUS
 10
2.892560
 20
3.665200
  0
VERTEX
  8
0
  6
CONTINUOUS
 10
3.134120
 20
3.658600
  0
VERTEX
  8
0
  6
CONTINUOUS
 10
2.485560
 20
3.291640
  0
VERTEX
  8
0
  6
CONTINUOUS
 10
2.244000
 20
3.298240
  0
SEQEND
  8
0
  0
SOLID
  8
0
 62
    15
 10
2.485560
 20
3.291640
 11
3.134120
 21
3.658600
 12
2.695000
 22
3.264360
 13
3.343560
 23
3.631320
  0
POLYLINE
  8
0
  6
CONTINUOUS
 66
     1
 40
0.000000
 41
0.000000
  0
VERTEX
  8
0
  6
CONTINUOUS
 10
2.485560
 20
3.291640
  0
VERTEX
  8
0
  6
CONTINUOUS
 10
3.134120
 20
3.658600
  0
VERTEX
  8
0
  6
CONTINUOUS
 10
3.343560
 20
3.631320
  0
VERTEX
  8
0
  6
CONTINUOUS
 10
2.695000
 20
3.264360
  0
VERTEX
  8
0
  6
CONTINUOUS
 10
2.485560
 20
3.291640
  0
SEQEND
  8
0
  0
SOLID
  8
0
 62
    15
 10
2.695000
 20
3.264360
 11
3.343560
 21
3.631320
 12
2.873640
 22
3.220360
 13
3.522200
 23
3.587320
  0
POLYLINE
  8
0
  6
CONTINUOUS
 66
     1
 40
0.000000
 41
0.000000
  0
VERTEX
  8
0
  6
CONTINUOUS
 10
2.695000
 20
3.264360
  0
VERTEX
  8
0
  6
CONTINUOUS
 10
3.343560
 20
3.631320
  0
VERTEX
  8
0
  6
CONTINUOUS
 10
3.522200
 20
3.587320
  0
VERTEX
  8
0
  6
CONTINUOUS
 10
2.873640
 20
3.220360
  0
VERTEX
  8
0
  6
CONTINUOUS
 10
2.695000
 20
3.264360
  0
SEQEND
  8
0
  0
SOLID
  8
0
 62
    15
 10
2.873640
 20
3.220360
 11
3.522200
 21
3.587320
 12
3.022800
 22
3.161840
 13
3.671360
 23
3.528800
  0
POLYLINE
  8
0
  6
CONTINUOUS
 66
     1
 40
0.000000
 41
0.000000
  0
VERTEX
  8
0
  6
CONTINUOUS
 10
2.873640
 20
3.220360
  0
VERTEX
  8
0
  6
CONTINUOUS
 10
3.522200
 20
3.587320
  0
VERTEX
  8
0
  6
CONTINUOUS
 10
3.671360
 20
3.528800
  0
VERTEX
  8
0
  6
CONTINUOUS
 10
3.022800
 20
3.161840
  0
VERTEX
  8
0
  6
CONTINUOUS
 10
2.873640
 20
3.220360
  0
SEQEND
  8
0
  0
SOLID
  8
0
 62
    15
 10
3.022800
 20
3.161840
 11
3.671360
 21
3.528800
 12
3.144240
 22
3.091880
 13
3.792800
 23
3.458840
  0
POLYLINE
  8
0
  6
CONTINUOUS
 66
     1
 40
0.000000
 41
0.000000
  0
VERTEX
  8
0
  6
CONTINUOUS
 10
3.022800
 20
3.161840
  0
VERTEX
  8
0
  6
CONTINUOUS
 10
3.671360
 20
3.528800
  0
VERTEX
  8
0
  6
CONTINUOUS
 10
3.792800
 20
3.458840
  0
VERTEX
  8
0
  6
CONTINUOUS
 10
3.144240
 20
3.091880
  0
VERTEX
  8
0
  6
CONTINUOUS
 10
3.022800
 20
3.161840
  0
SEQEND
  8
0
  0
SOLID
  8
0
 62
    15
 10
3.144240
 20
3.091880
 11
3.792800
 21
3.458840
 12
3.238840
 22
3.012680
 13
3.887400
 23
3.380080
  0
POLYLINE
  8
0
  6
CONTINUOUS
 66
     1
 40
0.000000
 41
0.000000
  0
VERTEX
  8
0
  6
CONTINUOUS
 10
3.144240
 20
3.091880
  0
VERTEX
  8
0
  6
CONTINUOUS
 10
3.792800
 20
3.458840
  0
VERTEX
  8
0
  6
CONTINUOUS
 10
3.887400
 20
3.380080
  0
VERTEX
  8
0
  6
CONTINUOUS
 10
3.238840
 20
3.012680
  0
VERTEX
  8
0
  6
CONTINUOUS
 10
3.144240
 20
3.091880
  0
SEQEND
  8
0
  0
SOLID
  8
0
 62
    15
 10
3.238840
 20
3.012680
 11
3.887400
 21
3.380080
 12
3.308800
 22
2.927760
 13
3.957360
 23
3.295160
  0
POLYLINE
  8
0
  6
CONTINUOUS
 66
     1
 40
0.000000
 41
0.000000
  0
VERTEX
  8
0
  6
CONTINUOUS
 10
3.238840
 20
3.012680
  0
VERTEX
  8
0
  6
CONTINUOUS
 10
3.887400
 20
3.380080
  0
VERTEX
  8
0
  6
CONTINUOUS
 10
3.957360
 20
3.295160
  0
VERTEX
  8
0
  6
CONTINUOUS
 10
3.308800
 20
2.927760
  0
VERTEX
  8
0
  6
CONTINUOUS
 10
3.238840
 20
3.012680
  0
SEQEND
  8
0
  0
SOLID
  8
0
 62
    15
 10
3.308800
 20
2.927760
 11
3.957360
 21
3.295160
 12
3.354560
 22
2.839760
 13
4.003560
 23
3.206720
  0
POLYLINE
  8
0
  6
CONTINUOUS
 66
     1
 40
0.000000
 41
0.000000
  0
VERTEX
  8
0
  6
CONTINUOUS
 10
3.308800
 20
2.927760
  0
VERTEX
  8
0
  6
CONTINUOUS
 10
3.957360
 20
3.295160
  0
VERTEX
  8
0
  6
CONTINUOUS
 10
4.003560
 20
3.206720
  0
VERTEX
  8
0
  6
CONTINUOUS
 10
3.354560
 20
2.839760
  0
VERTEX
  8
0
  6
CONTINUOUS
 10
3.308800
 20
2.927760
  0
SEQEND
  8
0
  0
SOLID
  8
0
 62
    15
 10
3.354560
 20
2.839760
 11
4.003560
 21
3.206720
 12
3.378760
 22
2.750880
 13
4.027320
 23
3.117840
  0
POLYLINE
  8
0
  6
CONTINUOUS
 66
     1
 40
0.000000
 41
0.000000
  0
VERTEX
  8
0
  6
CONTINUOUS
 10
3.354560
 20
2.839760
  0
VERTEX
  8
0
  6
CONTINUOUS
 10
4.003560
 20
3.206720
  0
VERTEX
  8
0
  6
CONTINUOUS
 10
4.027320
 20
3.117840
  0
VERTEX
  8
0
  6
CONTINUOUS
 10
3.378760
 20
2.750880
  0
VERTEX
  8
0
  6
CONTINUOUS
 10
3.354560
 20
2.839760
  0
SEQEND
  8
0
  0
SOLID
  8
0
 62
    15
 10
1.833040
 20
1.278640
 11
2.481600
 21
1.645600
 12
1.833040
 22
1.161160
 13
2.481600
 23
1.528120
  0
POLYLINE
  8
0
  6
CONTINUOUS
 66
     1
 40
0.000000
 41
0.000000
  0
VERTEX
  8
0
  6
CONTINUOUS
 10
1.833040
 20
1.278640
  0
VERTEX
  8
0
  6
CONTINUOUS
 10
2.481600
 20
1.645600
  0
VERTEX
  8
0
  6
CONTINUOUS
 10
2.481600
 20
1.528120
  0
VERTEX
  8
0
  6
CONTINUOUS
 10
1.833040
 20
1.161160
  0
VERTEX
  8
0
  6
CONTINUOUS
 10
1.833040
 20
1.278640
  0
SEQEND
  8
0
  0
SOLID
  8
0
 62
    15
 10
3.382280
 20
2.664640
 11
4.030840
 21
3.031600
 12
3.366000
 22
2.583240
 13
4.014560
 23
2.950200
  0
POLYLINE
  8
0
  6
CONTINUOUS
 66
     1
 40
0.000000
 41
0.000000
  0
VERTEX
  8
0
  6
CONTINUOUS
 10
3.382280
 20
2.664640
  0
VERTEX
  8
0
  6
CONTINUOUS
 10
4.030840
 20
3.031600
  0
VERTEX
  8
0
  6
CONTINUOUS
 10
4.014560
 20
2.950200
  0
VERTEX
  8
0
  6
CONTINUOUS
 10
3.366000
 20
2.583240
  0
VERTEX
  8
0
  6
CONTINUOUS
 10
3.382280
 20
2.664640
  0
SEQEND
  8
0
  0
SOLID
  8
0
 62
    15
 10
2.966040
 20
2.189000
 11
3.614600
 21
2.555960
 12
2.918080
 22
2.148520
 13
3.566640
 23
2.515480
  0
POLYLINE
  8
0
  6
CONTINUOUS
 66
     1
 40
0.000000
 41
0.000000
  0
VERTEX
  8
0
  6
CONTINUOUS
 10
2.966040
 20
2.189000
  0
VERTEX
  8
0
  6
CONTINUOUS
 10
3.614600
 20
2.555960
  0
VERTEX
  8
0
  6
CONTINUOUS
 10
3.566640
 20
2.515480
  0
VERTEX
  8
0
  6
CONTINUOUS
 10
2.918080
 20
2.148520
  0
VERTEX
  8
0
  6
CONTINUOUS
 10
2.966040
 20
2.189000
  0
SEQEND
  8
0
  0
SOLID
  8
0
 62
    15
 10
2.918080
 20
2.148520
 11
3.566640
 21
2.515480
 12
2.895640
 22
2.095280
 13
3.544200
 23
2.462680
  0
POLYLINE
  8
0
  6
CONTINUOUS
 66
     1
 40
0.000000
 41
0.000000
  0
VERTEX
  8
0
  6
CONTINUOUS
 10
2.918080
 20
2.148520
  0
VERTEX
  8
0
  6
CONTINUOUS
 10
3.566640
 20
2.515480
  0
VERTEX
  8
0
  6
CONTINUOUS
 10
3.544200
 20
2.462680
  0
VERTEX
  8
0
  6
CONTINUOUS
 10
2.895640
 20
2.095280
  0
VERTEX
  8
0
  6
CONTINUOUS
 10
2.918080
 20
2.148520
  0
SEQEND
  8
0
  0
SOLID
  8
0
 62
    15
 10
3.048760
 20
2.350480
 11
3.697320
 21
2.717440
 12
3.048760
 22
2.205280
 13
3.697320
 23
2.572240
  0
POLYLINE
  8
0
  6
CONTINUOUS
 66
     1
 40
0.000000
 41
0.000000
  0
VERTEX
  8
0
  6
CONTINUOUS
 10
3.048760
 20
2.350480
  0
VERTEX
  8
0
  6
CONTINUOUS
 10
3.697320
 20
2.717440
  0
VERTEX
  8
0
  6
CONTINUOUS
 10
3.697320
 20
2.572240
  0
VERTEX
  8
0
  6
CONTINUOUS
 10
3.048760
 20
2.205280
  0
VERTEX
  8
0
  6
CONTINUOUS
 10
3.048760
 20
2.350480
  0
SEQEND
  8
0
  0
SOLID
  8
0
 62
    15
 10
3.366000
 20
2.583240
 11
4.014560
 21
2.950200
 12
3.332560
 22
2.509760
 13
3.981120
 23
2.876720
  0
POLYLINE
  8
0
  6
CONTINUOUS
 66
     1
 40
0.000000
 41
0.000000
  0
VERTEX
  8
0
  6
CONTINUOUS
 10
3.366000
 20
2.583240
  0
VERTEX
  8
0
  6
CONTINUOUS
 10
4.014560
 20
2.950200
  0
VERTEX
  8
0
  6
CONTINUOUS
 10
3.981120
 20
2.876720
  0
VERTEX
  8
0
  6
CONTINUOUS
 10
3.332560
 20
2.509760
  0
VERTEX
  8
0
  6
CONTINUOUS
 10
3.366000
 20
2.583240
  0
SEQEND
  8
0
  0
SOLID
  8
0
 62
    15
 10
3.332560
 20
2.509760
 11
3.981120
 21
2.876720
 12
3.282400
 22
2.447280
 13
3.930960
 23
2.814240
  0
POLYLINE
  8
0
  6
CONTINUOUS
 66
     1
 40
0.000000
 41
0.000000
  0
VERTEX
  8
0
  6
CONTINUOUS
 10
3.332560
 20
2.509760
  0
VERTEX
  8
0
  6
CONTINUOUS
 10
3.981120
 20
2.876720
  0
VERTEX
  8
0
  6
CONTINUOUS
 10
3.930960
 20
2.814240
  0
VERTEX
  8
0
  6
CONTINUOUS
 10
3.282400
 20
2.447280
  0
VERTEX
  8
0
  6
CONTINUOUS
 10
3.332560
 20
2.509760
  0
SEQEND
  8
0
  0
SOLID
  8
0
 62
    15
 10
3.282400
 20
2.447280
 11
3.930960
 21
2.814240
 12
3.217280
 22
2.398000
 13
3.866280
 23
2.764960
  0
POLYLINE
  8
0
  6
CONTINUOUS
 66
     1
 40
0.000000
 41
0.000000
  0
VERTEX
  8
0
  6
CONTINUOUS
 10
3.282400
 20
2.447280
  0
VERTEX
  8
0
  6
CONTINUOUS
 10
3.930960
 20
2.814240
  0
VERTEX
  8
0
  6
CONTINUOUS
 10
3.866280
 20
2.764960
  0
VERTEX
  8
0
  6
CONTINUOUS
 10
3.217280
 20
2.398000
  0
VERTEX
  8
0
  6
CONTINUOUS
 10
3.282400
 20
2.447280
  0
SEQEND
  8
0
  0
SOLID
  8
0
 62
    15
 10
2.895640
 20
2.095280
 11
3.544200
 21
2.462680
 12
2.889920
 22
2.042480
 13
3.538480
 23
2.409440
  0
POLYLINE
  8
0
  6
CONTINUOUS
 66
     1
 40
0.000000
 41
0.000000
  0
VERTEX
  8
0
  6
CONTINUOUS
 10
2.895640
 20
2.095280
  0
VERTEX
  8
0
  6
CONTINUOUS
 10
3.544200
 20
2.462680
  0
VERTEX
  8
0
  6
CONTINUOUS
 10
3.538480
 20
2.409440
  0
VERTEX
  8
0
  6
CONTINUOUS
 10
2.889920
 20
2.042480
  0
VERTEX
  8
0
  6
CONTINUOUS
 10
2.895640
 20
2.095280
  0
SEQEND
  8
0
  0
SOLID
  8
0
 62
    15
 10
2.777720
 20
1.397880
 11
3.426280
 21
1.764840
 12
2.777280
 22
1.339360
 13
3.425840
 23
1.706320
  0
POLYLINE
  8
0
  6
CONTINUOUS
 66
     1
 40
0.000000
 41
0.000000
  0
VERTEX
  8
0
  6
CONTINUOUS
 10
2.777720
 20
1.397880
  0
VERTEX
  8
0
  6
CONTINUOUS
 10
3.426280
 20
1.764840
  0
VERTEX
  8
0
  6
CONTINUOUS
 10
3.425840
 20
1.706320
  0
VERTEX
  8
0
  6
CONTINUOUS
 10
2.777280
 20
1.339360
  0
VERTEX
  8
0
  6
CONTINUOUS
 10
2.777720
 20
1.397880
  0
SEQEND
  8
0
  0
SOLID
  8
0
 62
    15
 10
2.777280
 20
1.339360
 11
3.425840
 21
1.706320
 12
2.816000
 22
1.334080
 13
3.464560
 23
1.701480
  0
POLYLINE
  8
0
  6
CONTINUOUS
 66
     1
 40
0.000000
 41
0.000000
  0
VERTEX
  8
0
  6
CONTINUOUS
 10
2.777280
 20
1.339360
  0
VERTEX
  8
0
  6
CONTINUOUS
 10
3.425840
 20
1.706320
  0
VERTEX
  8
0
  6
CONTINUOUS
 10
3.464560
 20
1.701480
  0
VERTEX
  8
0
  6
CONTINUOUS
 10
2.816000
 20
1.334080
  0
VERTEX
  8
0
  6
CONTINUOUS
 10
2.777280
 20
1.339360
  0
SEQEND
  8
0
  0
SOLID
  8
0
 62
    15
 10
2.889920
 20
2.042480
 11
3.538480
 21
2.409440
 12
2.889920
 22
1.397880
 13
3.538480
 23
1.764840
  0
POLYLINE
  8
0
  6
CONTINUOUS
 66
     1
 40
0.000000
 41
0.000000
  0
VERTEX
  8
0
  6
CONTINUOUS
 10
2.889920
 20
2.042480
  0
VERTEX
  8
0
  6
CONTINUOUS
 10
3.538480
 20
2.409440
  0
VERTEX
  8
0
  6
CONTINUOUS
 10
3.538480
 20
1.764840
  0
VERTEX
  8
0
  6
CONTINUOUS
 10
2.889920
 20
1.397880
  0
VERTEX
  8
0
  6
CONTINUOUS
 10
2.889920
 20
2.042480
  0
SEQEND
  8
0
  0
SOLID
  8
0
 62
    15
 10
2.816000
 20
1.334080
 11
3.464560
 21
1.701480
 12
2.846800
 22
1.317800
 13
3.495360
 23
1.684760
  0
POLYLINE
  8
0
  6
CONTINUOUS
 66
     1
 40
0.000000
 41
0.000000
  0
VERTEX
  8
0
  6
CONTINUOUS
 10
2.816000
 20
1.334080
  0
VERTEX
  8
0
  6
CONTINUOUS
 10
3.464560
 20
1.701480
  0
VERTEX
  8
0
  6
CONTINUOUS
 10
3.495360
 20
1.684760
  0
VERTEX
  8
0
  6
CONTINUOUS
 10
2.846800
 20
1.317800
  0
VERTEX
  8
0
  6
CONTINUOUS
 10
2.816000
 20
1.334080
  0
SEQEND
  8
0
  0
SOLID
  8
0
 62
    15
 10
2.846800
 20
1.317800
 11
3.495360
 21
1.684760
 12
2.868800
 22
1.292720
 13
3.517360
 23
1.659680
  0
POLYLINE
  8
0
  6
CONTINUOUS
 66
     1
 40
0.000000
 41
0.000000
  0
VERTEX
  8
0
  6
CONTINUOUS
 10
2.846800
 20
1.317800
  0
VERTEX
  8
0
  6
CONTINUOUS
 10
3.495360
 20
1.684760
  0
VERTEX
  8
0
  6
CONTINUOUS
 10
3.517360
 20
1.659680
  0
VERTEX
  8
0
  6
CONTINUOUS
 10
2.868800
 20
1.292720
  0
VERTEX
  8
0
  6
CONTINUOUS
 10
2.846800
 20
1.317800
  0
SEQEND
  8
0
  0
SOLID
  8
0
 62
    15
 10
2.868800
 20
1.292720
 11
3.517360
 21
1.659680
 12
2.880680
 22
1.262800
 13
3.529240
 23
1.629760
  0
POLYLINE
  8
0
  6
CONTINUOUS
 66
     1
 40
0.000000
 41
0.000000
  0
VERTEX
  8
0
  6
CONTINUOUS
 10
2.868800
 20
1.292720
  0
VERTEX
  8
0
  6
CONTINUOUS
 10
3.517360
 20
1.659680
  0
VERTEX
  8
0
  6
CONTINUOUS
 10
3.529240
 20
1.629760
  0
VERTEX
  8
0
  6
CONTINUOUS
 10
2.880680
 20
1.262800
  0
VERTEX
  8
0
  6
CONTINUOUS
 10
2.868800
 20
1.292720
  0
SEQEND
  8
0
  0
SOLID
  8
0
 62
    15
 10
2.880680
 20
1.262800
 11
3.529240
 21
1.629760
 12
2.880240
 22
1.231560
 13
3.528800
 23
1.598520
  0
POLYLINE
  8
0
  6
CONTINUOUS
 66
     1
 40
0.000000
 41
0.000000
  0
VERTEX
  8
0
  6
CONTINUOUS
 10
2.880680
 20
1.262800
  0
VERTEX
  8
0
  6
CONTINUOUS
 10
3.529240
 20
1.629760
  0
VERTEX
  8
0
  6
CONTINUOUS
 10
3.528800
 20
1.598520
  0
VERTEX
  8
0
  6
CONTINUOUS
 10
2.880240
 20
1.231560
  0
VERTEX
  8
0
  6
CONTINUOUS
 10
2.880680
 20
1.262800
  0
SEQEND
  8
0
  0
SOLID
  8
0
 62
    15
 10
2.880240
 20
1.231560
 11
3.528800
 21
1.598520
 12
2.867480
 22
1.201640
 13
3.516040
 23
1.568600
  0
POLYLINE
  8
0
  6
CONTINUOUS
 66
     1
 40
0.000000
 41
0.000000
  0
VERTEX
  8
0
  6
CONTINUOUS
 10
2.880240
 20
1.231560
  0
VERTEX
  8
0
  6
CONTINUOUS
 10
3.528800
 20
1.598520
  0
VERTEX
  8
0
  6
CONTINUOUS
 10
3.516040
 20
1.568600
  0
VERTEX
  8
0
  6
CONTINUOUS
 10
2.867480
 20
1.201640
  0
VERTEX
  8
0
  6
CONTINUOUS
 10
2.880240
 20
1.231560
  0
SEQEND
  8
0
  0
SOLID
  8
0
 62
    15
 10
2.867480
 20
1.201640
 11
3.516040
 21
1.568600
 12
2.839760
 22
1.177000
 13
3.488320
 23
1.543960
  0
POLYLINE
  8
0
  6
CONTINUOUS
 66
     1
 40
0.000000
 41
0.000000
  0
VERTEX
  8
0
  6
CONTINUOUS
 10
2.867480
 20
1.201640
  0
VERTEX
  8
0
  6
CONTINUOUS
 10
3.516040
 20
1.568600
  0
VERTEX
  8
0
  6
CONTINUOUS
 10
3.488320
 20
1.543960
  0
VERTEX
  8
0
  6
CONTINUOUS
 10
2.839760
 20
1.177000
  0
VERTEX
  8
0
  6
CONTINUOUS
 10
2.867480
 20
1.201640
  0
SEQEND
  8
0
  0
POLYLINE
  8
0
  6
CONTINUOUS
 66
     1
 40
0.000000
 41
0.000000
  0
VERTEX
  8
0
  6
CONTINUOUS
 10
1.833040
 20
1.278640
  0
VERTEX
  8
0
  6
CONTINUOUS
 10
1.833040
 20
1.161160
  0
VERTEX
  8
0
  6
CONTINUOUS
 10
1.648240
 20
1.161160
  0
VERTEX
  8
0
  6
CONTINUOUS
 10
1.605120
 20
1.177440
  0
VERTEX
  8
0
  6
CONTINUOUS
 10
1.577400
 20
1.202080
  0
VERTEX
  8
0
  6
CONTINUOUS
 10
1.564200
 20
1.232000
  0
VERTEX
  8
0
  6
CONTINUOUS
 10
1.564200
 20
1.263240
  0
VERTEX
  8
0
  6
CONTINUOUS
 10
1.576080
 20
1.293160
  0
VERTEX
  8
0
  6
CONTINUOUS
 10
1.598080
 20
1.318240
  0
VERTEX
  8
0
  6
CONTINUOUS
 10
1.628880
 20
1.334960
  0
VERTEX
  8
0
  6
CONTINUOUS
 10
1.667600
 20
1.339800
  0
VERTEX
  8
0
  6
CONTINUOUS
 10
1.667160
 20
1.398320
  0
VERTEX
  8
0
  6
CONTINUOUS
 10
1.554960
 20
1.398320
  0
VERTEX
  8
0
  6
CONTINUOUS
 10
1.554960
 20
2.042920
  0
VERTEX
  8
0
  6
CONTINUOUS
 10
1.549240
 20
2.096160
  0
VERTEX
  8
0
  6
CONTINUOUS
 10
1.526800
 20
2.148960
  0
VERTEX
  8
0
  6
CONTINUOUS
 10
1.478840
 20
2.189440
  0
VERTEX
  8
0
  6
CONTINUOUS
 10
1.442320
 20
2.201760
  0
VERTEX
  8
0
  6
CONTINUOUS
 10
1.396120
 20
2.205720
  0
VERTEX
  8
0
  6
CONTINUOUS
 10
1.396120
 20
2.350920
  0
VERTEX
  8
0
  6
CONTINUOUS
 10
1.305480
 20
2.365440
  0
VERTEX
  8
0
  6
CONTINUOUS
 10
1.227160
 20
2.398440
  0
VERTEX
  8
0
  6
CONTINUOUS
 10
1.162040
 20
2.447720
  0
VERTEX
  8
0
  6
CONTINUOUS
 10
1.112320
 20
2.510200
  0
VERTEX
  8
0
  6
CONTINUOUS
 10
1.078440
 20
2.583680
  0
VERTEX
  8
0
  6
CONTINUOUS
 10
1.062600
 20
2.665080
  0
VERTEX
  8
0
  6
CONTINUOUS
 10
1.065680
 20
2.751320
  0
VERTEX
  8
0
  6
CONTINUOUS
 10
1.089880
 20
2.840200
  0
VERTEX
  8
0
  6
CONTINUOUS
 10
1.136080
 20
2.928640
  0
VERTEX
  8
0
  6
CONTINUOUS
 10
1.205600
 20
3.013560
  0
VERTEX
  8
0
  6
CONTINUOUS
 10
1.300640
 20
3.092320
  0
VERTEX
  8
0
  6
CONTINUOUS
 10
1.421640
 20
3.162280
  0
VERTEX
  8
0
  6
CONTINUOUS
 10
1.570800
 20
3.220800
  0
VERTEX
  8
0
  6
CONTINUOUS
 10
1.749440
 20
3.265240
  0
VERTEX
  8
0
  6
CONTINUOUS
 10
1.958880
 20
3.292080
  0
VERTEX
  8
0
  6
CONTINUOUS
 10
2.200880
 20
3.298680
  0
VERTEX
  8
0
  6
CONTINUOUS
 10
2.485560
 20
3.291640
  0
VERTEX
  8
0
  6
CONTINUOUS
 10
2.695000
 20
3.264360
  0
VERTEX
  8
0
  6
CONTINUOUS
 10
2.873640
 20
3.220360
  0
VERTEX
  8
0
  6
CONTINUOUS
 10
3.022800
 20
3.161840
  0
VERTEX
  8
0
  6
CONTINUOUS
 10
3.144240
 20
3.091880
  0
VERTEX
  8
0
  6
CONTINUOUS
 10
3.238840
 20
3.012680
  0
VERTEX
  8
0
  6
CONTINUOUS
 10
3.308800
 20
2.927760
  0
VERTEX
  8
0
  6
CONTINUOUS
 10
3.354560
 20
2.839760
  0
VERTEX
  8
0
  6
CONTINUOUS
 10
3.378760
 20
2.750880
  0
VERTEX
  8
0
  6
CONTINUOUS
 10
3.382280
 20
2.664640
  0
VERTEX
  8
0
  6
CONTINUOUS
 10
3.366000
 20
2.583240
  0
VERTEX
  8
0
  6
CONTINUOUS
 10
3.332560
 20
2.509760
  0
VERTEX
  8
0
  6
CONTINUOUS
 10
3.282400
 20
2.447280
  0
VERTEX
  8
0
  6
CONTINUOUS
 10
3.217280
 20
2.398000
  0
VERTEX
  8
0
  6
CONTINUOUS
 10
3.138960
 20
2.364560
  0
VERTEX
  8
0
  6
CONTINUOUS
 10
3.048760
 20
2.350480
  0
VERTEX
  8
0
  6
CONTINUOUS
 10
3.048760
 20
2.205280
  0
VERTEX
  8
0
  6
CONTINUOUS
 10
3.002560
 20
2.200880
  0
VERTEX
  8
0
  6
CONTINUOUS
 10
2.966040
 20
2.189000
  0
VERTEX
  8
0
  6
CONTINUOUS
 10
2.918080
 20
2.148520
  0
VERTEX
  8
0
  6
CONTINUOUS
 10
2.895640
 20
2.095280
  0
VERTEX
  8
0
  6
CONTINUOUS
 10
2.889920
 20
2.042480
  0
VERTEX
  8
0
  6
CONTINUOUS
 10
2.889920
 20
1.397880
  0
VERTEX
  8
0
  6
CONTINUOUS
 10
2.777720
 20
1.397880
  0
VERTEX
  8
0
  6
CONTINUOUS
 10
2.777280
 20
1.339360
  0
VERTEX
  8
0
  6
CONTINUOUS
 10
2.816000
 20
1.334080
  0
VERTEX
  8
0
  6
CONTINUOUS
 10
2.846800
 20
1.317800
  0
VERTEX
  8
0
  6
CONTINUOUS
 10
2.868800
 20
1.292720
  0
VERTEX
  8
0
  6
CONTINUOUS
 10
2.880680
 20
1.262800
  0
VERTEX
  8
0
  6
CONTINUOUS
 10
2.880240
 20
1.231560
  0
VERTEX
  8
0
  6
CONTINUOUS
 10
2.867480
 20
1.201640
  0
VERTEX
  8
0
  6
CONTINUOUS
 10
2.839760
 20
1.177000
  0
VERTEX
  8
0
  6
CONTINUOUS
 10
2.796640
 20
1.160720
  0
VERTEX
  8
0
  6
CONTINUOUS
 10
2.611840
 20
1.160720
  0
VERTEX
  8
0
  6
CONTINUOUS
 10
2.611840
 20
1.278200
  0
VERTEX
  8
0
  6
CONTINUOUS
 10
1.833040
 20
1.278640
  0
SEQEND
  8
0
  0
TEXT
  8
0
 10
2.250600
 20
0.879560
 40
0.138012
  1
BA  852
 41
1.000000
  7
SN0
 71
     0
 72
     5
 11
2.840974
 21
0.879560
  0
TEXT
  8
0
 10
1.974720
 20
0.688160
 40
0.138012
  1
2-3/16" x 2-1/8"
 41
1.000000
  7
SN0
 71
     0
 72
     5
 11
3.114794
 21
0.688160
  0
POLYLINE
  8
0
  6
CONTINUOUS
 66
     1
 40
0.014080
 41
0.014080
  0
VERTEX
  8
0
  6
CONTINUOUS
 10
5.575240
 20
1.650880
  0
VERTEX
  8
0
  6
CONTINUOUS
 10
5.575240
 20
1.532960
  0
VERTEX
  8
0
  6
CONTINUOUS
 10
5.390440
 20
1.532960
  0
VERTEX
  8
0
  6
CONTINUOUS
 10
5.366680
 20
1.540000
  0
VERTEX
  8
0
  6
CONTINUOUS
 10
5.347320
 20
1.549240
  0
VERTEX
  8
0
  6
CONTINUOUS
 10
5.324880
 20
1.567280
  0
VERTEX
  8
0
  6
CONTINUOUS
 10
5.311240
 20
1.588840
  0
VERTEX
  8
0
  6
CONTINUOUS
 10
5.305080
 20
1.611720
  0
VERTEX
  8
0
  6
CONTINUOUS
 10
5.305080
 20
1.627560
  0
VERTEX
  8
0
  6
CONTINUOUS
 10
5.310800
 20
1.650880
  0
VERTEX
  8
0
  6
CONTINUOUS
 10
5.317840
 20
1.665400
  0
VERTEX
  8
0
  6
CONTINUOUS
 10
5.333680
 20
1.684760
  0
VERTEX
  8
0
  6
CONTINUOUS
 10
5.354360
 20
1.699720
  0
VERTEX
  8
0
  6
CONTINUOUS
 10
5.380320
 20
1.709400
  0
VERTEX
  8
0
  6
CONTINUOUS
 10
5.399680
 20
1.712040
  0
VERTEX
  8
0
  6
CONTINUOUS
 10
5.409800
 20
1.712040
  0
VERTEX
  8
0
  6
CONTINUOUS
 10
5.409360
 20
1.770560
  0
VERTEX
  8
0
  6
CONTINUOUS
 10
5.297160
 20
1.770560
  0
VERTEX
  8
0
  6
CONTINUOUS
 10
5.296720
 20
2.427920
  0
VERTEX
  8
0
  6
CONTINUOUS
 10
5.294080
 20
2.454320
  0
VERTEX
  8
0
  6
CONTINUOUS
 10
5.287920
 20
2.481600
  0
VERTEX
  8
0
  6
CONTINUOUS
 10
5.276920
 20
2.508440
  0
VERTEX
  8
0
  6
CONTINUOUS
 10
5.259760
 20
2.532640
  0
VERTEX
  8
0
  6
CONTINUOUS
 10
5.248760
 20
2.543640
  0
VERTEX
  8
0
  6
CONTINUOUS
 10
5.228520
 20
2.557720
  0
VERTEX
  8
0
  6
CONTINUOUS
 10
5.203880
 20
2.568720
  0
VERTEX
  8
0
  6
CONTINUOUS
 10
5.173960
 20
2.575320
  0
VERTEX
  8
0
  6
CONTINUOUS
 10
5.138320
 20
2.577960
  0
VERTEX
  8
0
  6
CONTINUOUS
 10
5.138320
 20
2.723160
  0
VERTEX
  8
0
  6
CONTINUOUS
 10
5.091680
 20
2.727560
  0
VERTEX
  8
0
  6
CONTINUOUS
 10
5.048120
 20
2.737240
  0
VERTEX
  8
0
  6
CONTINUOUS
 10
5.027000
 20
2.743840
  0
VERTEX
  8
0
  6
CONTINUOUS
 10
4.987840
 20
2.760560
  0
VERTEX
  8
0
  6
CONTINUOUS
 10
4.952200
 20
2.781240
  0
VERTEX
  8
0
  6
CONTINUOUS
 10
4.919640
 20
2.805880
  0
VERTEX
  8
0
  6
CONTINUOUS
 10
4.890600
 20
2.834480
  0
VERTEX
  8
0
  6
CONTINUOUS
 10
4.865520
 20
2.865720
  0
VERTEX
  8
0
  6
CONTINUOUS
 10
4.844840
 20
2.900040
  0
VERTEX
  8
0
  6
CONTINUOUS
 10
4.827680
 20
2.937000
  0
VERTEX
  8
0
  6
CONTINUOUS
 10
4.815360
 20
2.975720
  0
VERTEX
  8
0
  6
CONTINUOUS
 10
4.810520
 20
2.995960
  0
VERTEX
  8
0
  6
CONTINUOUS
 10
4.805240
 20
3.037320
  0
VERTEX
  8
0
  6
CONTINUOUS
 10
4.803920
 20
3.058440
  0
VERTEX
  8
0
  6
CONTINUOUS
 10
4.805680
 20
3.101560
  0
VERTEX
  8
0
  6
CONTINUOUS
 10
4.812280
 20
3.145560
  0
VERTEX
  8
0
  6
CONTINUOUS
 10
4.824160
 20
3.190000
  0
VERTEX
  8
0
  6
CONTINUOUS
 10
4.841760
 20
3.234440
  0
VERTEX
  8
0
  6
CONTINUOUS
 10
4.864640
 20
3.278880
  0
VERTEX
  8
0
  6
CONTINUOUS
 10
4.893680
 20
3.322440
  0
VERTEX
  8
0
  6
CONTINUOUS
 10
4.928440
 20
3.364680
  0
VERTEX
  8
0
  6
CONTINUOUS
 10
4.969360
 20
3.406040
  0
VERTEX
  8
0
  6
CONTINUOUS
 10
5.016880
 20
3.445640
  0
VERTEX
  8
0
  6
CONTINUOUS
 10
5.070560
 20
3.483040
  0
VERTEX
  8
0
  6
CONTINUOUS
 10
5.131280
 20
3.517800
  0
VERTEX
  8
0
  6
CONTINUOUS
 10
5.199040
 20
3.550360
  0
VERTEX
  8
0
  6
CONTINUOUS
 10
5.273400
 20
3.579400
  0
VERTEX
  8
0
  6
CONTINUOUS
 10
5.313440
 20
3.593040
  0
VERTEX
  8
0
  6
CONTINUOUS
 10
5.398800
 20
3.616800
  0
VERTEX
  8
0
  6
CONTINUOUS
 10
5.492080
 20
3.637040
  0
VERTEX
  8
0
  6
CONTINUOUS
 10
5.592840
 20
3.652880
  0
VERTEX
  8
0
  6
CONTINUOUS
 10
5.646080
 20
3.659040
  0
VERTEX
  8
0
  6
CONTINUOUS
 10
5.758720
 20
3.667840
  0
VERTEX
  8
0
  6
CONTINUOUS
 10
5.879720
 20
3.671360
  0
VERTEX
  8
0
  6
CONTINUOUS
 10
6.080800
 20
3.670480
  0
VERTEX
  8
0
  6
CONTINUOUS
 10
6.170560
 20
3.667400
  0
VERTEX
  8
0
  6
CONTINUOUS
 10
6.283200
 20
3.658600
  0
VERTEX
  8
0
  6
CONTINUOUS
 10
6.336440
 20
3.652440
  0
VERTEX
  8
0
  6
CONTINUOUS
 10
6.437200
 20
3.636600
  0
VERTEX
  8
0
  6
CONTINUOUS
 10
6.530480
 20
3.616360
  0
VERTEX
  8
0
  6
CONTINUOUS
 10
6.615840
 20
3.592600
  0
VERTEX
  8
0
  6
CONTINUOUS
 10
6.694160
 20
3.564880
  0
VERTEX
  8
0
  6
CONTINUOUS
 10
6.765000
 20
3.534080
  0
VERTEX
  8
0
  6
CONTINUOUS
 10
6.829240
 20
3.500200
  0
VERTEX
  8
0
  6
CONTINUOUS
 10
6.886440
 20
3.464120
  0
VERTEX
  8
0
  6
CONTINUOUS
 10
6.937040
 20
3.425400
  0
VERTEX
  8
0
  6
CONTINUOUS
 10
6.981040
 20
3.384920
  0
VERTEX
  8
0
  6
CONTINUOUS
 10
7.018880
 20
3.343120
  0
VERTEX
  8
0
  6
CONTINUOUS
 10
7.035600
 20
3.322000
  0
VERTEX
  8
0
  6
CONTINUOUS
 10
7.064640
 20
3.278440
  0
VERTEX
  8
0
  6
CONTINUOUS
 10
7.087520
 20
3.234000
  0
VERTEX
  8
0
  6
CONTINUOUS
 10
7.105120
 20
3.189560
  0
VERTEX
  8
0
  6
CONTINUOUS
 10
7.117000
 20
3.145120
  0
VERTEX
  8
0
  6
CONTINUOUS
 10
7.123600
 20
3.101120
  0
VERTEX
  8
0
  6
CONTINUOUS
 10
7.125360
 20
3.058000
  0
VERTEX
  8
0
  6
CONTINUOUS
 10
7.121840
 20
3.015760
  0
VERTEX
  8
0
  6
CONTINUOUS
 10
7.118760
 20
2.995520
  0
VERTEX
  8
0
  6
CONTINUOUS
 10
7.108200
 20
2.955480
  0
VERTEX
  8
0
  6
CONTINUOUS
 10
7.093680
 20
2.917640
  0
VERTEX
  8
0
  6
CONTINUOUS
 10
7.074760
 20
2.882000
  0
VERTEX
  8
0
  6
CONTINUOUS
 10
7.051440
 20
2.849440
  0
VERTEX
  8
0
  6
CONTINUOUS
 10
7.024600
 20
2.819520
  0
VERTEX
  8
0
  6
CONTINUOUS
 10
6.993800
 20
2.792680
  0
VERTEX
  8
0
  6
CONTINUOUS
 10
6.959480
 20
2.769800
  0
VERTEX
  8
0
  6
CONTINUOUS
 10
6.922080
 20
2.751320
  0
VERTEX
  8
0
  6
CONTINUOUS
 10
6.902280
 20
2.743400
  0
VERTEX
  8
0
  6
CONTINUOUS
 10
6.859600
 20
2.731520
  0
VERTEX
  8
0
  6
CONTINUOUS
 10
6.837600
 20
2.727120
  0
VERTEX
  8
0
  6
CONTINUOUS
 10
6.790960
 20
2.722720
  0
VERTEX
  8
0
  6
CONTINUOUS
 10
6.790960
 20
2.577520
  0
VERTEX
  8
0
  6
CONTINUOUS
 10
6.755320
 20
2.574880
  0
VERTEX
  8
0
  6
CONTINUOUS
 10
6.725400
 20
2.568280
  0
VERTEX
  8
0
  6
CONTINUOUS
 10
6.700760
 20
2.557280
  0
VERTEX
  8
0
  6
CONTINUOUS
 10
6.680520
 20
2.543200
  0
VERTEX
  8
0
  6
CONTINUOUS
 10
6.669520
 20
2.532200
  0
VERTEX
  8
0
  6
CONTINUOUS
 10
6.652360
 20
2.508000
  0
VERTEX
  8
0
  6
CONTINUOUS
 10
6.641360
 20
2.481160
  0
VERTEX
  8
0
  6
CONTINUOUS
 10
6.635200
 20
2.453880
  0
VERTEX
  8
0
  6
CONTINUOUS
 10
6.632120
 20
2.414720
  0
VERTEX
  8
0
  6
CONTINUOUS
 10
6.632120
 20
1.769680
  0
VERTEX
  8
0
  6
CONTINUOUS
 10
6.519920
 20
1.769680
  0
VERTEX
  8
0
  6
CONTINUOUS
 10
6.519480
 20
1.711600
  0
VERTEX
  8
0
  6
CONTINUOUS
 10
6.539720
 20
1.710720
  0
VERTEX
  8
0
  6
CONTINUOUS
 10
6.566560
 20
1.703240
  0
VERTEX
  8
0
  6
CONTINUOUS
 10
6.589000
 20
1.690040
  0
VERTEX
  8
0
  6
CONTINUOUS
 10
6.606600
 20
1.671560
  0
VERTEX
  8
0
  6
CONTINUOUS
 10
6.614960
 20
1.657920
  0
VERTEX
  8
0
  6
CONTINUOUS
 10
6.621120
 20
1.642960
  0
VERTEX
  8
0
  6
CONTINUOUS
 10
6.624200
 20
1.627120
  0
VERTEX
  8
0
  6
CONTINUOUS
 10
6.624200
 20
1.611280
  0
VERTEX
  8
0
  6
CONTINUOUS
 10
6.618040
 20
1.588400
  0
VERTEX
  8
0
  6
CONTINUOUS
 10
6.604400
 20
1.566840
  0
VERTEX
  8
0
  6
CONTINUOUS
 10
6.581960
 20
1.548800
  0
VERTEX
  8
0
  6
CONTINUOUS
 10
6.562600
 20
1.539560
  0
VERTEX
  8
0
  6
CONTINUOUS
 10
6.538840
 20
1.532520
  0
VERTEX
  8
0
  6
CONTINUOUS
 10
6.354040
 20
1.532520
  0
VERTEX
  8
0
  6
CONTINUOUS
 10
6.354040
 20
1.650440
  0
VERTEX
  8
0
  6
CONTINUOUS
 10
5.575240
 20
1.650880
  0
SEQEND
  8
0
  0
ENDSEC
  0
EOF
