  0
SECTION
  2
HEADER
  9
$ACADVER
  1
AC1006
  9
$EXTMIN
 10
4.110920
 20
0.558360
  9
$EXTMAX
 10
7.615520
 20
5.919760
  9
$LTSCALE
 40
0.044000
  9
$PDMODE
 70
    35
  9
$PDSIZE
 40
0.035200
  0
ENDSEC
  0
SECTION
  2
TABLES
  0
TABLE
  2
LTYPE
 70
     9
  0
LTYPE
  2
CONTINUOUS
 70
    64
  3
Solid line
 72
    65
 73
     0
 40
0.000000
  0
LTYPE
  2
DASHED
 70
    64
  3
__ __ __ __ __ __ __ __ __ __ __ __ __ __ __
 72
    65
 73
     2
 40
0.000330
 49
0.000220
 49
-0.000110
  0
LTYPE
  2
HIDDEN
 70
    64
  3
 _ _ _ _ _ _ _ _ _ _ _ _ _ _ _ _ _ _ _ _ _ _
 72
    65
 73
     2
 40
0.000165
 49
0.000110
 49
-0.000055
  0
LTYPE
  2
CENTER
 70
    64
  3
____ _ ____ _ ____ _ ____ _ ____ _ ____ _ ____
 72
    65
 73
     4
 40
0.000880
 49
0.000550
 49
-0.000110
 49
0.000110
 49
-0.000110
  0
LTYPE
  2
PHANTOM
 70
    64
  3
_____ _ _ _____ _ _ _____ _ _ _____ _ _ ____
 72
    65
 73
     6
 40
0.001100
 49
0.000550
 49
-0.000110
 49
0.000110
 49
-0.000110
 49
0.000110
 49
-0.000110
  0
LTYPE
  2
DOT
 70
    64
  3
...............................................
 72
    65
 73
     2
 40
0.000110
 49
0.000000
 49
-0.000110
  0
LTYPE
  2
DASHDOT
 70
    64
  3
__ . __ . __ . __ . __ . __ . __ . __ . __ . __
 72
    65
 73
     4
 40
0.000440
 49
0.000220
 49
-0.000110
 49
0.000000
 49
-0.000110
  0
LTYPE
  2
BORDER
 70
    64
  3
__ __ . __ __ . __ __ . __ __ . __ __ . __ __
 72
    65
 73
     6
 40
0.000770
 49
0.000220
 49
-0.000110
 49
0.000220
 49
-0.000110
 49
0.000000
 49
-0.000110
  0
LTYPE
  2
DIVIDE
 70
    64
  3
__ . . __ . . __ . . __ . . __ . . __ . . __
 72
    65
 73
     6
 40
0.000550
 49
0.000220
 49
-0.000110
 49
0.000000
 49
-0.000110
 49
0.000000
 49
-0.000110
  0
LTYPE
  2
DOTDOT
 70
    64
  3
 . .  . .  . .  . .  . .  . . 
 72
    65
 73
     5
 40
0.000242
 49
-0.000110
 49
0.000000
 49
-0.000110
 49
0.000000
 49
-0.000110
  0
ENDTAB
  0
TABLE
  2
STYLE
 70
     2
  0
STYLE
 70
     0
  2
SN0
 40
0.000000
 41
0.000440
 50
0.000000
 71
     0
 42
0.000000
  3
ROMAND
  0
STYLE
 70
    68
  2
SV0
 40
0.000000
 41
0.000440
 50
0.000000
 71
     0
 42
0.000000
  3
ROMAND
  0
ENDTAB
  0
TABLE
  2
LAYER
 70
     3
  0
LAYER
  2
FOREGROUND
 70
    64
 62
     7
  6
CONTINUOUS
  0
LAYER
  2
BACKGROUND
 70
    65
 62
    -7
  6
CONTINUOUS
  0
LAYER
  2
0
 70
    64
 62
     7
  6
CONTINUOUS
  0
ENDTAB
  0
ENDSEC
  0
SECTION
  2
ENTITIES
  0
POLYLINE
  8
FOREGROUND
  6
CONTINUOUS
 66
     1
 40
0.000000
 41
0.000000
  0
VERTEX
  8
FOREGROUND
  6
CONTINUOUS
 10
0.000000
 20
6.478120
  0
VERTEX
  8
FOREGROUND
  6
CONTINUOUS
 10
8.499920
 20
6.478120
  0
VERTEX
  8
FOREGROUND
  6
CONTINUOUS
 10
8.499920
 20
-4.521880
  0
VERTEX
  8
FOREGROUND
  6
CONTINUOUS
 10
0.000000
 20
-4.521880
  0
VERTEX
  8
FOREGROUND
  6
CONTINUOUS
 10
0.000000
 20
6.478120
  0
SEQEND
  8
0
  0
POLYLINE
  8
FOREGROUND
  6
CONTINUOUS
 66
     1
 40
0.000000
 41
0.000000
  0
VERTEX
  8
FOREGROUND
  6
CONTINUOUS
 10
0.000000
 20
6.478120
  0
VERTEX
  8
FOREGROUND
  6
CONTINUOUS
 10
8.499920
 20
6.478120
  0
VERTEX
  8
FOREGROUND
  6
CONTINUOUS
 10
8.499920
 20
-4.521880
  0
VERTEX
  8
FOREGROUND
  6
CONTINUOUS
 10
0.000000
 20
-4.521880
  0
VERTEX
  8
FOREGROUND
  6
CONTINUOUS
 10
0.000000
 20
6.478120
  0
SEQEND
  8
0
  0
POLYLINE
  8
0
  6
CONTINUOUS
 66
     1
 40
0.014080
 41
0.014080
  0
VERTEX
  8
0
  6
CONTINUOUS
 10
7.125360
 20
5.410240
  0
VERTEX
  8
0
  6
CONTINUOUS
 10
7.035160
 20
5.438400
  0
VERTEX
  8
0
  6
CONTINUOUS
 10
6.945840
 20
5.466120
  0
VERTEX
  8
0
  6
CONTINUOUS
 10
6.857400
 20
5.492960
  0
VERTEX
  8
0
  6
CONTINUOUS
 10
6.769840
 20
5.518920
  0
VERTEX
  8
0
  6
CONTINUOUS
 10
6.682720
 20
5.544440
  0
VERTEX
  8
0
  6
CONTINUOUS
 10
6.596480
 20
5.568640
  0
VERTEX
  8
0
  6
CONTINUOUS
 10
6.510680
 20
5.592400
  0
VERTEX
  8
0
  6
CONTINUOUS
 10
6.424880
 20
5.615280
  0
VERTEX
  8
0
  6
CONTINUOUS
 10
6.339520
 20
5.637720
  0
VERTEX
  8
0
  6
CONTINUOUS
 10
6.253720
 20
5.658840
  0
VERTEX
  8
0
  6
CONTINUOUS
 10
6.168360
 20
5.679520
  0
VERTEX
  8
0
  6
CONTINUOUS
 10
6.082560
 20
5.699320
  0
VERTEX
  8
0
  6
CONTINUOUS
 10
5.996320
 20
5.718240
  0
VERTEX
  8
0
  6
CONTINUOUS
 10
5.909640
 20
5.736280
  0
VERTEX
  8
0
  6
CONTINUOUS
 10
5.822520
 20
5.753440
  0
VERTEX
  8
0
  6
CONTINUOUS
 10
5.734520
 20
5.769720
  0
VERTEX
  8
0
  6
CONTINUOUS
 10
5.645640
 20
5.785560
  0
VERTEX
  8
0
  6
CONTINUOUS
 10
5.555440
 20
5.800080
  0
VERTEX
  8
0
  6
CONTINUOUS
 10
5.464360
 20
5.814160
  0
VERTEX
  8
0
  6
CONTINUOUS
 10
5.372400
 20
5.826920
  0
VERTEX
  8
0
  6
CONTINUOUS
 10
5.278680
 20
5.839240
  0
VERTEX
  8
0
  6
CONTINUOUS
 10
5.183200
 20
5.850240
  0
VERTEX
  8
0
  6
CONTINUOUS
 10
5.086400
 20
5.860360
  0
VERTEX
  8
0
  6
CONTINUOUS
 10
4.987840
 20
5.870040
  0
VERTEX
  8
0
  6
CONTINUOUS
 10
4.887080
 20
5.878400
  0
VERTEX
  8
0
  6
CONTINUOUS
 10
4.784560
 20
5.885880
  0
VERTEX
  8
0
  6
CONTINUOUS
 10
4.732200
 20
5.889400
  0
VERTEX
  8
0
  6
CONTINUOUS
 10
4.679840
 20
5.892480
  0
VERTEX
  8
0
  6
CONTINUOUS
 10
4.626160
 20
5.895560
  0
VERTEX
  8
0
  6
CONTINUOUS
 10
4.572480
 20
5.898200
  0
VERTEX
  8
0
  6
CONTINUOUS
 10
4.517920
 20
5.900840
  0
VERTEX
  8
0
  6
CONTINUOUS
 10
4.462920
 20
5.903040
  0
VERTEX
  8
0
  6
CONTINUOUS
 10
4.407040
 20
5.905240
  0
VERTEX
  8
0
  6
CONTINUOUS
 10
4.350720
 20
5.907000
  0
VERTEX
  8
0
  6
CONTINUOUS
 10
4.293960
 20
5.908760
  0
VERTEX
  8
0
  6
CONTINUOUS
 10
4.235880
 20
5.910080
  0
VERTEX
  8
0
  6
CONTINUOUS
 10
4.177360
 20
5.910960
  0
VERTEX
  8
0
  6
CONTINUOUS
 10
4.118400
 20
5.911840
  0
VERTEX
  8
0
  6
CONTINUOUS
 10
4.118400
 20
4.665320
  0
VERTEX
  8
0
  6
CONTINUOUS
 10
7.124480
 20
4.665320
  0
VERTEX
  8
0
  6
CONTINUOUS
 10
7.125360
 20
5.410240
  0
SEQEND
  8
0
  0
SOLID
  8
0
 62
    15
 10
6.905800
 20
3.023680
 11
7.553480
 21
3.389320
 12
6.882480
 22
2.834480
 13
7.530160
 23
3.200560
  0
POLYLINE
  8
0
  6
CONTINUOUS
 66
     1
 40
0.000000
 41
0.000000
  0
VERTEX
  8
0
  6
CONTINUOUS
 10
6.905800
 20
3.023680
  0
VERTEX
  8
0
  6
CONTINUOUS
 10
7.553480
 20
3.389320
  0
VERTEX
  8
0
  6
CONTINUOUS
 10
7.530160
 20
3.200560
  0
VERTEX
  8
0
  6
CONTINUOUS
 10
6.882480
 20
2.834480
  0
VERTEX
  8
0
  6
CONTINUOUS
 10
6.905800
 20
3.023680
  0
SEQEND
  8
0
  0
SOLID
  8
0
 62
    15
 10
6.967840
 20
4.088480
 11
7.615520
 21
4.454120
 12
6.963000
 22
3.856160
 13
7.610240
 23
4.221800
  0
POLYLINE
  8
0
  6
CONTINUOUS
 66
     1
 40
0.000000
 41
0.000000
  0
VERTEX
  8
0
  6
CONTINUOUS
 10
6.967840
 20
4.088480
  0
VERTEX
  8
0
  6
CONTINUOUS
 10
7.615520
 20
4.454120
  0
VERTEX
  8
0
  6
CONTINUOUS
 10
7.610240
 20
4.221800
  0
VERTEX
  8
0
  6
CONTINUOUS
 10
6.963000
 20
3.856160
  0
VERTEX
  8
0
  6
CONTINUOUS
 10
6.967840
 20
4.088480
  0
SEQEND
  8
0
  0
SOLID
  8
0
 62
    15
 10
6.963000
 20
3.856160
 11
7.610240
 21
4.221800
 12
6.954200
 22
3.634400
 13
7.601880
 23
4.000040
  0
POLYLINE
  8
0
  6
CONTINUOUS
 66
     1
 40
0.000000
 41
0.000000
  0
VERTEX
  8
0
  6
CONTINUOUS
 10
6.963000
 20
3.856160
  0
VERTEX
  8
0
  6
CONTINUOUS
 10
7.610240
 20
4.221800
  0
VERTEX
  8
0
  6
CONTINUOUS
 10
7.601880
 20
4.000040
  0
VERTEX
  8
0
  6
CONTINUOUS
 10
6.954200
 20
3.634400
  0
VERTEX
  8
0
  6
CONTINUOUS
 10
6.963000
 20
3.856160
  0
SEQEND
  8
0
  0
SOLID
  8
0
 62
    15
 10
6.954200
 20
3.634400
 11
7.601880
 21
4.000040
 12
6.941880
 22
3.422320
 13
7.589560
 23
3.788400
  0
POLYLINE
  8
0
  6
CONTINUOUS
 66
     1
 40
0.000000
 41
0.000000
  0
VERTEX
  8
0
  6
CONTINUOUS
 10
6.954200
 20
3.634400
  0
VERTEX
  8
0
  6
CONTINUOUS
 10
7.601880
 20
4.000040
  0
VERTEX
  8
0
  6
CONTINUOUS
 10
7.589560
 20
3.788400
  0
VERTEX
  8
0
  6
CONTINUOUS
 10
6.941880
 20
3.422320
  0
VERTEX
  8
0
  6
CONTINUOUS
 10
6.954200
 20
3.634400
  0
SEQEND
  8
0
  0
SOLID
  8
0
 62
    15
 10
6.941880
 20
3.422320
 11
7.589560
 21
3.788400
 12
6.925600
 22
3.219040
 13
7.573280
 23
3.585120
  0
POLYLINE
  8
0
  6
CONTINUOUS
 66
     1
 40
0.000000
 41
0.000000
  0
VERTEX
  8
0
  6
CONTINUOUS
 10
6.941880
 20
3.422320
  0
VERTEX
  8
0
  6
CONTINUOUS
 10
7.589560
 20
3.788400
  0
VERTEX
  8
0
  6
CONTINUOUS
 10
7.573280
 20
3.585120
  0
VERTEX
  8
0
  6
CONTINUOUS
 10
6.925600
 20
3.219040
  0
VERTEX
  8
0
  6
CONTINUOUS
 10
6.941880
 20
3.422320
  0
SEQEND
  8
0
  0
SOLID
  8
0
 62
    15
 10
6.925600
 20
3.219040
 11
7.573280
 21
3.585120
 12
6.905800
 22
3.023680
 13
7.553480
 23
3.389320
  0
POLYLINE
  8
0
  6
CONTINUOUS
 66
     1
 40
0.000000
 41
0.000000
  0
VERTEX
  8
0
  6
CONTINUOUS
 10
6.925600
 20
3.219040
  0
VERTEX
  8
0
  6
CONTINUOUS
 10
7.573280
 20
3.585120
  0
VERTEX
  8
0
  6
CONTINUOUS
 10
7.553480
 20
3.389320
  0
VERTEX
  8
0
  6
CONTINUOUS
 10
6.905800
 20
3.023680
  0
VERTEX
  8
0
  6
CONTINUOUS
 10
6.925600
 20
3.219040
  0
SEQEND
  8
0
  0
SOLID
  8
0
 62
    15
 10
5.721320
 20
4.088480
 11
6.369000
 21
4.454120
 12
6.967840
 22
4.088480
 13
7.615520
 23
4.454120
  0
POLYLINE
  8
0
  6
CONTINUOUS
 66
     1
 40
0.000000
 41
0.000000
  0
VERTEX
  8
0
  6
CONTINUOUS
 10
5.721320
 20
4.088480
  0
VERTEX
  8
0
  6
CONTINUOUS
 10
6.369000
 20
4.454120
  0
VERTEX
  8
0
  6
CONTINUOUS
 10
7.615520
 20
4.454120
  0
VERTEX
  8
0
  6
CONTINUOUS
 10
6.967840
 20
4.088480
  0
VERTEX
  8
0
  6
CONTINUOUS
 10
5.721320
 20
4.088480
  0
SEQEND
  8
0
  0
SOLID
  8
0
 62
    15
 10
6.882480
 20
2.834480
 11
7.530160
 21
3.200560
 12
6.825720
 22
2.472360
 13
7.473400
 23
2.838440
  0
POLYLINE
  8
0
  6
CONTINUOUS
 66
     1
 40
0.000000
 41
0.000000
  0
VERTEX
  8
0
  6
CONTINUOUS
 10
6.882480
 20
2.834480
  0
VERTEX
  8
0
  6
CONTINUOUS
 10
7.530160
 20
3.200560
  0
VERTEX
  8
0
  6
CONTINUOUS
 10
7.473400
 20
2.838440
  0
VERTEX
  8
0
  6
CONTINUOUS
 10
6.825720
 20
2.472360
  0
VERTEX
  8
0
  6
CONTINUOUS
 10
6.882480
 20
2.834480
  0
SEQEND
  8
0
  0
SOLID
  8
0
 62
    15
 10
6.825720
 20
2.472360
 11
7.473400
 21
2.838440
 12
6.754880
 22
2.124320
 13
7.402560
 23
2.490400
  0
POLYLINE
  8
0
  6
CONTINUOUS
 66
     1
 40
0.000000
 41
0.000000
  0
VERTEX
  8
0
  6
CONTINUOUS
 10
6.825720
 20
2.472360
  0
VERTEX
  8
0
  6
CONTINUOUS
 10
7.473400
 20
2.838440
  0
VERTEX
  8
0
  6
CONTINUOUS
 10
7.402560
 20
2.490400
  0
VERTEX
  8
0
  6
CONTINUOUS
 10
6.754880
 20
2.124320
  0
VERTEX
  8
0
  6
CONTINUOUS
 10
6.825720
 20
2.472360
  0
SEQEND
  8
0
  0
SOLID
  8
0
 62
    15
 10
6.754880
 20
2.124320
 11
7.402560
 21
2.490400
 12
6.671280
 22
1.782000
 13
7.318520
 23
2.148080
  0
POLYLINE
  8
0
  6
CONTINUOUS
 66
     1
 40
0.000000
 41
0.000000
  0
VERTEX
  8
0
  6
CONTINUOUS
 10
6.754880
 20
2.124320
  0
VERTEX
  8
0
  6
CONTINUOUS
 10
7.402560
 20
2.490400
  0
VERTEX
  8
0
  6
CONTINUOUS
 10
7.318520
 20
2.148080
  0
VERTEX
  8
0
  6
CONTINUOUS
 10
6.671280
 20
1.782000
  0
VERTEX
  8
0
  6
CONTINUOUS
 10
6.754880
 20
2.124320
  0
SEQEND
  8
0
  0
SOLID
  8
0
 62
    15
 10
6.671280
 20
1.782000
 11
7.318520
 21
2.148080
 12
6.574480
 22
1.437040
 13
7.222160
 23
1.803120
  0
POLYLINE
  8
0
  6
CONTINUOUS
 66
     1
 40
0.000000
 41
0.000000
  0
VERTEX
  8
0
  6
CONTINUOUS
 10
6.671280
 20
1.782000
  0
VERTEX
  8
0
  6
CONTINUOUS
 10
7.318520
 20
2.148080
  0
VERTEX
  8
0
  6
CONTINUOUS
 10
7.222160
 20
1.803120
  0
VERTEX
  8
0
  6
CONTINUOUS
 10
6.574480
 20
1.437040
  0
VERTEX
  8
0
  6
CONTINUOUS
 10
6.671280
 20
1.782000
  0
SEQEND
  8
0
  0
SOLID
  8
0
 62
    15
 10
6.574480
 20
1.437040
 11
7.222160
 21
1.803120
 12
6.465800
 22
1.081520
 13
7.113480
 23
1.447160
  0
POLYLINE
  8
0
  6
CONTINUOUS
 66
     1
 40
0.000000
 41
0.000000
  0
VERTEX
  8
0
  6
CONTINUOUS
 10
6.574480
 20
1.437040
  0
VERTEX
  8
0
  6
CONTINUOUS
 10
7.222160
 20
1.803120
  0
VERTEX
  8
0
  6
CONTINUOUS
 10
7.113480
 20
1.447160
  0
VERTEX
  8
0
  6
CONTINUOUS
 10
6.465800
 20
1.081520
  0
VERTEX
  8
0
  6
CONTINUOUS
 10
6.574480
 20
1.437040
  0
SEQEND
  8
0
  0
POLYLINE
  8
0
  6
CONTINUOUS
 66
     1
 40
0.000000
 41
0.000000
  0
VERTEX
  8
0
  6
CONTINUOUS
 10
5.721320
 20
1.082400
  0
VERTEX
  8
0
  6
CONTINUOUS
 10
5.721320
 20
4.088480
  0
VERTEX
  8
0
  6
CONTINUOUS
 10
6.967840
 20
4.088480
  0
VERTEX
  8
0
  6
CONTINUOUS
 10
6.963000
 20
3.856160
  0
VERTEX
  8
0
  6
CONTINUOUS
 10
6.954200
 20
3.634400
  0
VERTEX
  8
0
  6
CONTINUOUS
 10
6.941880
 20
3.422320
  0
VERTEX
  8
0
  6
CONTINUOUS
 10
6.925600
 20
3.219040
  0
VERTEX
  8
0
  6
CONTINUOUS
 10
6.905800
 20
3.023680
  0
VERTEX
  8
0
  6
CONTINUOUS
 10
6.882480
 20
2.834480
  0
VERTEX
  8
0
  6
CONTINUOUS
 10
6.825720
 20
2.472360
  0
VERTEX
  8
0
  6
CONTINUOUS
 10
6.754880
 20
2.124320
  0
VERTEX
  8
0
  6
CONTINUOUS
 10
6.671280
 20
1.782000
  0
VERTEX
  8
0
  6
CONTINUOUS
 10
6.574480
 20
1.437040
  0
VERTEX
  8
0
  6
CONTINUOUS
 10
6.465800
 20
1.081520
  0
VERTEX
  8
0
  6
CONTINUOUS
 10
5.721320
 20
1.082400
  0
SEQEND
  8
0
  0
TEXT
  8
0
 10
6.373400
 20
0.793760
 40
0.138106
  1
BA  851
 41
1.000000
  7
SN0
 71
     0
 72
     5
 11
6.963958
 21
0.793760
  0
TEXT
  8
0
 10
6.286720
 20
0.601920
 40
0.138106
  1
1-1/4" x 3"
 41
1.000000
  7
SN0
 71
     0
 72
     5
 11
7.049915
 21
0.601920
  0
ENDSEC
  0
EOF
