  0
SECTION
  2
HEADER
  9
$ACADVER
  1
AC1006
  9
$EXTMIN
 10
1.295800
 20
0.450120
  9
$EXTMAX
 10
7.817480
 20
2.563880
  9
$LTSCALE
 40
0.044000
  9
$PDMODE
 70
    35
  9
$PDSIZE
 40
0.035200
  0
ENDSEC
  0
SECTION
  2
TABLES
  0
TABLE
  2
LTYPE
 70
     9
  0
LTYPE
  2
CONTINUOUS
 70
    64
  3
Solid line
 72
    65
 73
     0
 40
0.000000
  0
LTYPE
  2
DASHED
 70
    64
  3
__ __ __ __ __ __ __ __ __ __ __ __ __ __ __
 72
    65
 73
     2
 40
0.000330
 49
0.000220
 49
-0.000110
  0
LTYPE
  2
HIDDEN
 70
    64
  3
 _ _ _ _ _ _ _ _ _ _ _ _ _ _ _ _ _ _ _ _ _ _
 72
    65
 73
     2
 40
0.000165
 49
0.000110
 49
-0.000055
  0
LTYPE
  2
CENTER
 70
    64
  3
____ _ ____ _ ____ _ ____ _ ____ _ ____ _ ____
 72
    65
 73
     4
 40
0.000880
 49
0.000550
 49
-0.000110
 49
0.000110
 49
-0.000110
  0
LTYPE
  2
PHANTOM
 70
    64
  3
_____ _ _ _____ _ _ _____ _ _ _____ _ _ ____
 72
    65
 73
     6
 40
0.001100
 49
0.000550
 49
-0.000110
 49
0.000110
 49
-0.000110
 49
0.000110
 49
-0.000110
  0
LTYPE
  2
DOT
 70
    64
  3
...............................................
 72
    65
 73
     2
 40
0.000110
 49
0.000000
 49
-0.000110
  0
LTYPE
  2
DASHDOT
 70
    64
  3
__ . __ . __ . __ . __ . __ . __ . __ . __ . __
 72
    65
 73
     4
 40
0.000440
 49
0.000220
 49
-0.000110
 49
0.000000
 49
-0.000110
  0
LTYPE
  2
BORDER
 70
    64
  3
__ __ . __ __ . __ __ . __ __ . __ __ . __ __
 72
    65
 73
     6
 40
0.000770
 49
0.000220
 49
-0.000110
 49
0.000220
 49
-0.000110
 49
0.000000
 49
-0.000110
  0
LTYPE
  2
DIVIDE
 70
    64
  3
__ . . __ . . __ . . __ . . __ . . __ . . __
 72
    65
 73
     6
 40
0.000550
 49
0.000220
 49
-0.000110
 49
0.000000
 49
-0.000110
 49
0.000000
 49
-0.000110
  0
LTYPE
  2
DOTDOT
 70
    64
  3
 . .  . .  . .  . .  . .  . . 
 72
    65
 73
     5
 40
0.000242
 49
-0.000110
 49
0.000000
 49
-0.000110
 49
0.000000
 49
-0.000110
  0
ENDTAB
  0
TABLE
  2
STYLE
 70
     2
  0
STYLE
 70
     0
  2
SN0
 40
0.000000
 41
0.000440
 50
0.000000
 71
     0
 42
0.000000
  3
ROMAND
  0
STYLE
 70
    68
  2
SV0
 40
0.000000
 41
0.000440
 50
0.000000
 71
     0
 42
0.000000
  3
ROMAND
  0
ENDTAB
  0
TABLE
  2
LAYER
 70
     3
  0
LAYER
  2
FOREGROUND
 70
    64
 62
     7
  6
CONTINUOUS
  0
LAYER
  2
BACKGROUND
 70
    65
 62
    -7
  6
CONTINUOUS
  0
LAYER
  2
0
 70
    64
 62
     7
  6
CONTINUOUS
  0
ENDTAB
  0
ENDSEC
  0
SECTION
  2
ENTITIES
  0
POLYLINE
  8
FOREGROUND
  6
CONTINUOUS
 66
     1
 40
0.000000
 41
0.000000
  0
VERTEX
  8
FOREGROUND
  6
CONTINUOUS
 10
0.000000
 20
3.014000
  0
VERTEX
  8
FOREGROUND
  6
CONTINUOUS
 10
8.499920
 20
3.014000
  0
VERTEX
  8
FOREGROUND
  6
CONTINUOUS
 10
8.499920
 20
-7.986000
  0
VERTEX
  8
FOREGROUND
  6
CONTINUOUS
 10
0.000000
 20
-7.986000
  0
VERTEX
  8
FOREGROUND
  6
CONTINUOUS
 10
0.000000
 20
3.014000
  0
SEQEND
  8
0
  0
POLYLINE
  8
FOREGROUND
  6
CONTINUOUS
 66
     1
 40
0.000000
 41
0.000000
  0
VERTEX
  8
FOREGROUND
  6
CONTINUOUS
 10
0.000000
 20
3.014000
  0
VERTEX
  8
FOREGROUND
  6
CONTINUOUS
 10
8.499920
 20
3.014000
  0
VERTEX
  8
FOREGROUND
  6
CONTINUOUS
 10
8.499920
 20
-7.986000
  0
VERTEX
  8
FOREGROUND
  6
CONTINUOUS
 10
0.000000
 20
-7.986000
  0
VERTEX
  8
FOREGROUND
  6
CONTINUOUS
 10
0.000000
 20
3.014000
  0
SEQEND
  8
0
  0
SOLID
  8
0
 62
    15
 10
3.377880
 20
2.120360
 11
4.023360
 21
2.495240
 12
3.377880
 22
2.005520
 13
4.023360
 23
2.379960
  0
POLYLINE
  8
0
  6
CONTINUOUS
 66
     1
 40
0.000000
 41
0.000000
  0
VERTEX
  8
0
  6
CONTINUOUS
 10
3.377880
 20
2.120360
  0
VERTEX
  8
0
  6
CONTINUOUS
 10
4.023360
 20
2.495240
  0
VERTEX
  8
0
  6
CONTINUOUS
 10
4.023360
 20
2.379960
  0
VERTEX
  8
0
  6
CONTINUOUS
 10
3.377880
 20
2.005520
  0
VERTEX
  8
0
  6
CONTINUOUS
 10
3.377880
 20
2.120360
  0
SEQEND
  8
0
  0
SOLID
  8
0
 62
    15
 10
1.296680
 20
1.239920
 11
1.942600
 21
1.614360
 12
1.371920
 22
1.239920
 13
2.017840
 23
1.614360
  0
POLYLINE
  8
0
  6
CONTINUOUS
 66
     1
 40
0.000000
 41
0.000000
  0
VERTEX
  8
0
  6
CONTINUOUS
 10
1.296680
 20
1.239920
  0
VERTEX
  8
0
  6
CONTINUOUS
 10
1.942600
 20
1.614360
  0
VERTEX
  8
0
  6
CONTINUOUS
 10
2.017840
 20
1.614360
  0
VERTEX
  8
0
  6
CONTINUOUS
 10
1.371920
 20
1.239920
  0
VERTEX
  8
0
  6
CONTINUOUS
 10
1.296680
 20
1.239920
  0
SEQEND
  8
0
  0
SOLID
  8
0
 62
    15
 10
1.796080
 20
2.005520
 11
2.442000
 21
2.379960
 12
1.950960
 22
2.005520
 13
2.596440
 23
2.379960
  0
POLYLINE
  8
0
  6
CONTINUOUS
 66
     1
 40
0.000000
 41
0.000000
  0
VERTEX
  8
0
  6
CONTINUOUS
 10
1.796080
 20
2.005520
  0
VERTEX
  8
0
  6
CONTINUOUS
 10
2.442000
 20
2.379960
  0
VERTEX
  8
0
  6
CONTINUOUS
 10
2.596440
 20
2.379960
  0
VERTEX
  8
0
  6
CONTINUOUS
 10
1.950960
 20
2.005520
  0
VERTEX
  8
0
  6
CONTINUOUS
 10
1.796080
 20
2.005520
  0
SEQEND
  8
0
  0
SOLID
  8
0
 62
    15
 10
1.950960
 20
2.120360
 11
2.596440
 21
2.495240
 12
2.644400
 22
2.188560
 13
3.290320
 23
2.563440
  0
POLYLINE
  8
0
  6
CONTINUOUS
 66
     1
 40
0.000000
 41
0.000000
  0
VERTEX
  8
0
  6
CONTINUOUS
 10
1.950960
 20
2.120360
  0
VERTEX
  8
0
  6
CONTINUOUS
 10
2.596440
 20
2.495240
  0
VERTEX
  8
0
  6
CONTINUOUS
 10
3.290320
 20
2.563440
  0
VERTEX
  8
0
  6
CONTINUOUS
 10
2.644400
 20
2.188560
  0
VERTEX
  8
0
  6
CONTINUOUS
 10
1.950960
 20
2.120360
  0
SEQEND
  8
0
  0
SOLID
  8
0
 62
    15
 10
2.644400
 20
2.188560
 11
3.290320
 21
2.563440
 12
2.684000
 22
2.188560
 13
3.329920
 23
2.563440
  0
POLYLINE
  8
0
  6
CONTINUOUS
 66
     1
 40
0.000000
 41
0.000000
  0
VERTEX
  8
0
  6
CONTINUOUS
 10
2.644400
 20
2.188560
  0
VERTEX
  8
0
  6
CONTINUOUS
 10
3.290320
 20
2.563440
  0
VERTEX
  8
0
  6
CONTINUOUS
 10
3.329920
 20
2.563440
  0
VERTEX
  8
0
  6
CONTINUOUS
 10
2.684000
 20
2.188560
  0
VERTEX
  8
0
  6
CONTINUOUS
 10
2.644400
 20
2.188560
  0
SEQEND
  8
0
  0
SOLID
  8
0
 62
    15
 10
2.684000
 20
2.188560
 11
3.329920
 21
2.563440
 12
3.377880
 22
2.120360
 13
4.023360
 23
2.495240
  0
POLYLINE
  8
0
  6
CONTINUOUS
 66
     1
 40
0.000000
 41
0.000000
  0
VERTEX
  8
0
  6
CONTINUOUS
 10
2.684000
 20
2.188560
  0
VERTEX
  8
0
  6
CONTINUOUS
 10
3.329920
 20
2.563440
  0
VERTEX
  8
0
  6
CONTINUOUS
 10
4.023360
 20
2.495240
  0
VERTEX
  8
0
  6
CONTINUOUS
 10
3.377880
 20
2.120360
  0
VERTEX
  8
0
  6
CONTINUOUS
 10
2.684000
 20
2.188560
  0
SEQEND
  8
0
  0
SOLID
  8
0
 62
    15
 10
1.799600
 20
1.045880
 11
2.445520
 21
1.420320
 12
1.799600
 22
0.916520
 13
2.445520
 23
1.290960
  0
POLYLINE
  8
0
  6
CONTINUOUS
 66
     1
 40
0.000000
 41
0.000000
  0
VERTEX
  8
0
  6
CONTINUOUS
 10
1.799600
 20
1.045880
  0
VERTEX
  8
0
  6
CONTINUOUS
 10
2.445520
 20
1.420320
  0
VERTEX
  8
0
  6
CONTINUOUS
 10
2.445520
 20
1.290960
  0
VERTEX
  8
0
  6
CONTINUOUS
 10
1.799600
 20
0.916520
  0
VERTEX
  8
0
  6
CONTINUOUS
 10
1.799600
 20
1.045880
  0
SEQEND
  8
0
  0
SOLID
  8
0
 62
    15
 10
3.377880
 20
2.005520
 11
4.023360
 21
2.379960
 12
3.532320
 22
2.005520
 13
4.178240
 23
2.379960
  0
POLYLINE
  8
0
  6
CONTINUOUS
 66
     1
 40
0.000000
 41
0.000000
  0
VERTEX
  8
0
  6
CONTINUOUS
 10
3.377880
 20
2.005520
  0
VERTEX
  8
0
  6
CONTINUOUS
 10
4.023360
 20
2.379960
  0
VERTEX
  8
0
  6
CONTINUOUS
 10
4.178240
 20
2.379960
  0
VERTEX
  8
0
  6
CONTINUOUS
 10
3.532320
 20
2.005520
  0
VERTEX
  8
0
  6
CONTINUOUS
 10
3.377880
 20
2.005520
  0
SEQEND
  8
0
  0
SOLID
  8
0
 62
    15
 10
3.284160
 20
1.045880
 11
3.930080
 21
1.420320
 12
3.284160
 22
0.916520
 13
3.930080
 23
1.290960
  0
POLYLINE
  8
0
  6
CONTINUOUS
 66
     1
 40
0.000000
 41
0.000000
  0
VERTEX
  8
0
  6
CONTINUOUS
 10
3.284160
 20
1.045880
  0
VERTEX
  8
0
  6
CONTINUOUS
 10
3.930080
 20
1.420320
  0
VERTEX
  8
0
  6
CONTINUOUS
 10
3.930080
 20
1.290960
  0
VERTEX
  8
0
  6
CONTINUOUS
 10
3.284160
 20
0.916520
  0
VERTEX
  8
0
  6
CONTINUOUS
 10
3.284160
 20
1.045880
  0
SEQEND
  8
0
  0
SOLID
  8
0
 62
    15
 10
3.956480
 20
1.239920
 11
4.602400
 21
1.614360
 12
4.031720
 22
1.239920
 13
4.677640
 23
1.614360
  0
POLYLINE
  8
0
  6
CONTINUOUS
 66
     1
 40
0.000000
 41
0.000000
  0
VERTEX
  8
0
  6
CONTINUOUS
 10
3.956480
 20
1.239920
  0
VERTEX
  8
0
  6
CONTINUOUS
 10
4.602400
 20
1.614360
  0
VERTEX
  8
0
  6
CONTINUOUS
 10
4.677640
 20
1.614360
  0
VERTEX
  8
0
  6
CONTINUOUS
 10
4.031720
 20
1.239920
  0
VERTEX
  8
0
  6
CONTINUOUS
 10
3.956480
 20
1.239920
  0
SEQEND
  8
0
  0
SOLID
  8
0
 62
    15
 10
3.967040
 20
1.052920
 11
4.612960
 21
1.427360
 12
3.967040
 22
0.916520
 13
4.612960
 23
1.290960
  0
POLYLINE
  8
0
  6
CONTINUOUS
 66
     1
 40
0.000000
 41
0.000000
  0
VERTEX
  8
0
  6
CONTINUOUS
 10
3.967040
 20
1.052920
  0
VERTEX
  8
0
  6
CONTINUOUS
 10
4.612960
 20
1.427360
  0
VERTEX
  8
0
  6
CONTINUOUS
 10
4.612960
 20
1.290960
  0
VERTEX
  8
0
  6
CONTINUOUS
 10
3.967040
 20
0.916520
  0
VERTEX
  8
0
  6
CONTINUOUS
 10
3.967040
 20
1.052920
  0
SEQEND
  8
0
  0
SOLID
  8
0
 62
    15
 10
4.031720
 20
1.239920
 11
4.677640
 21
1.614360
 12
4.031720
 22
1.052920
 13
4.677640
 23
1.427360
  0
POLYLINE
  8
0
  6
CONTINUOUS
 66
     1
 40
0.000000
 41
0.000000
  0
VERTEX
  8
0
  6
CONTINUOUS
 10
4.031720
 20
1.239920
  0
VERTEX
  8
0
  6
CONTINUOUS
 10
4.677640
 20
1.614360
  0
VERTEX
  8
0
  6
CONTINUOUS
 10
4.677640
 20
1.427360
  0
VERTEX
  8
0
  6
CONTINUOUS
 10
4.031720
 20
1.052920
  0
VERTEX
  8
0
  6
CONTINUOUS
 10
4.031720
 20
1.239920
  0
SEQEND
  8
0
  0
SOLID
  8
0
 62
    15
 10
3.532320
 20
2.005520
 11
4.178240
 21
2.379960
 12
3.956480
 22
1.239920
 13
4.602400
 23
1.614360
  0
POLYLINE
  8
0
  6
CONTINUOUS
 66
     1
 40
0.000000
 41
0.000000
  0
VERTEX
  8
0
  6
CONTINUOUS
 10
3.532320
 20
2.005520
  0
VERTEX
  8
0
  6
CONTINUOUS
 10
4.178240
 20
2.379960
  0
VERTEX
  8
0
  6
CONTINUOUS
 10
4.602400
 20
1.614360
  0
VERTEX
  8
0
  6
CONTINUOUS
 10
3.956480
 20
1.239920
  0
VERTEX
  8
0
  6
CONTINUOUS
 10
3.532320
 20
2.005520
  0
SEQEND
  8
0
  0
POLYLINE
  8
0
  6
CONTINUOUS
 66
     1
 40
0.000000
 41
0.000000
  0
VERTEX
  8
0
  6
CONTINUOUS
 10
2.044240
 20
0.916520
  0
VERTEX
  8
0
  6
CONTINUOUS
 10
2.044240
 20
1.045880
  0
VERTEX
  8
0
  6
CONTINUOUS
 10
1.799600
 20
1.045880
  0
VERTEX
  8
0
  6
CONTINUOUS
 10
1.799600
 20
0.916520
  0
VERTEX
  8
0
  6
CONTINUOUS
 10
1.361360
 20
0.916520
  0
VERTEX
  8
0
  6
CONTINUOUS
 10
1.361360
 20
1.052920
  0
VERTEX
  8
0
  6
CONTINUOUS
 10
1.296680
 20
1.052920
  0
VERTEX
  8
0
  6
CONTINUOUS
 10
1.296680
 20
1.239920
  0
VERTEX
  8
0
  6
CONTINUOUS
 10
1.371920
 20
1.239920
  0
VERTEX
  8
0
  6
CONTINUOUS
 10
1.796080
 20
2.005520
  0
VERTEX
  8
0
  6
CONTINUOUS
 10
1.950960
 20
2.005520
  0
VERTEX
  8
0
  6
CONTINUOUS
 10
1.950960
 20
2.120360
  0
VERTEX
  8
0
  6
CONTINUOUS
 10
2.644400
 20
2.188560
  0
VERTEX
  8
0
  6
CONTINUOUS
 10
2.684000
 20
2.188560
  0
VERTEX
  8
0
  6
CONTINUOUS
 10
3.377880
 20
2.120360
  0
VERTEX
  8
0
  6
CONTINUOUS
 10
3.377880
 20
2.005520
  0
VERTEX
  8
0
  6
CONTINUOUS
 10
3.532320
 20
2.005520
  0
VERTEX
  8
0
  6
CONTINUOUS
 10
3.956480
 20
1.239920
  0
VERTEX
  8
0
  6
CONTINUOUS
 10
4.031720
 20
1.239920
  0
VERTEX
  8
0
  6
CONTINUOUS
 10
4.031720
 20
1.052920
  0
VERTEX
  8
0
  6
CONTINUOUS
 10
3.967040
 20
1.052920
  0
VERTEX
  8
0
  6
CONTINUOUS
 10
3.967040
 20
0.916520
  0
VERTEX
  8
0
  6
CONTINUOUS
 10
3.528800
 20
0.916520
  0
VERTEX
  8
0
  6
CONTINUOUS
 10
3.528800
 20
1.045880
  0
VERTEX
  8
0
  6
CONTINUOUS
 10
3.284160
 20
1.045880
  0
VERTEX
  8
0
  6
CONTINUOUS
 10
3.284160
 20
0.916520
  0
VERTEX
  8
0
  6
CONTINUOUS
 10
2.044240
 20
0.916520
  0
SEQEND
  8
0
  0
TEXT
  8
0
 10
2.691480
 20
0.685520
 40
0.138102
  1
BA  848
 41
1.000000
  7
SN0
 71
     0
 72
     5
 11
3.281692
 21
0.685520
  0
TEXT
  8
0
 10
2.416040
 20
0.494120
 40
0.138102
  1
1-5/16" x 2-3/4"
 41
1.000000
  7
SN0
 71
     0
 72
     5
 11
3.556682
 21
0.494120
  0
POLYLINE
  8
0
  6
CONTINUOUS
 66
     1
 40
0.014080
 41
0.014080
  0
VERTEX
  8
0
  6
CONTINUOUS
 10
5.822520
 20
1.086800
  0
VERTEX
  8
0
  6
CONTINUOUS
 10
5.822520
 20
1.216160
  0
VERTEX
  8
0
  6
CONTINUOUS
 10
5.578320
 20
1.216160
  0
VERTEX
  8
0
  6
CONTINUOUS
 10
5.578320
 20
1.086800
  0
VERTEX
  8
0
  6
CONTINUOUS
 10
5.139640
 20
1.086800
  0
VERTEX
  8
0
  6
CONTINUOUS
 10
5.139640
 20
1.223200
  0
VERTEX
  8
0
  6
CONTINUOUS
 10
5.074960
 20
1.223200
  0
VERTEX
  8
0
  6
CONTINUOUS
 10
5.074960
 20
1.410200
  0
VERTEX
  8
0
  6
CONTINUOUS
 10
5.150640
 20
1.410200
  0
VERTEX
  8
0
  6
CONTINUOUS
 10
5.574800
 20
2.175800
  0
VERTEX
  8
0
  6
CONTINUOUS
 10
5.729240
 20
2.175800
  0
VERTEX
  8
0
  6
CONTINUOUS
 10
5.729240
 20
2.290640
  0
VERTEX
  8
0
  6
CONTINUOUS
 10
6.423120
 20
2.359280
  0
VERTEX
  8
0
  6
CONTINUOUS
 10
6.462280
 20
2.359280
  0
VERTEX
  8
0
  6
CONTINUOUS
 10
7.156160
 20
2.290640
  0
VERTEX
  8
0
  6
CONTINUOUS
 10
7.156160
 20
2.175800
  0
VERTEX
  8
0
  6
CONTINUOUS
 10
7.310600
 20
2.175800
  0
VERTEX
  8
0
  6
CONTINUOUS
 10
7.734760
 20
1.410200
  0
VERTEX
  8
0
  6
CONTINUOUS
 10
7.810440
 20
1.410200
  0
VERTEX
  8
0
  6
CONTINUOUS
 10
7.810440
 20
1.223200
  0
VERTEX
  8
0
  6
CONTINUOUS
 10
7.745760
 20
1.223200
  0
VERTEX
  8
0
  6
CONTINUOUS
 10
7.745760
 20
1.086800
  0
VERTEX
  8
0
  6
CONTINUOUS
 10
7.307080
 20
1.086800
  0
VERTEX
  8
0
  6
CONTINUOUS
 10
7.307080
 20
1.216160
  0
VERTEX
  8
0
  6
CONTINUOUS
 10
7.062880
 20
1.216160
  0
VERTEX
  8
0
  6
CONTINUOUS
 10
7.062880
 20
1.086800
  0
VERTEX
  8
0
  6
CONTINUOUS
 10
5.822520
 20
1.086800
  0
SEQEND
  8
0
  0
TEXT
  8
0
 10
6.304320
 20
1.594560
 40
0.138102
  1
848
 41
1.000000
  7
SN0
 71
     0
 72
     5
 11
6.581491
 21
1.594560
  0
TEXT
  8
0
 10
5.871360
 20
1.402720
 40
0.138102
  1
1-5/16" x 2-3/4"
 41
1.000000
  7
SN0
 71
     0
 72
     5
 11
7.012002
 21
1.402720
  0
ENDSEC
  0
EOF
