  0
SECTION
  2
HEADER
  9
$ACADVER
  1
AC1006
  9
$EXTMIN
 10
3.020160
 20
0.510840
  9
$EXTMAX
 10
7.107760
 20
2.755280
  9
$LTSCALE
 40
0.044000
  9
$PDMODE
 70
    35
  9
$PDSIZE
 40
0.035200
  0
ENDSEC
  0
SECTION
  2
TABLES
  0
TABLE
  2
LTYPE
 70
     9
  0
LTYPE
  2
CONTINUOUS
 70
    64
  3
Solid line
 72
    65
 73
     0
 40
0.000000
  0
LTYPE
  2
DASHED
 70
    64
  3
__ __ __ __ __ __ __ __ __ __ __ __ __ __ __
 72
    65
 73
     2
 40
0.000330
 49
0.000220
 49
-0.000110
  0
LTYPE
  2
HIDDEN
 70
    64
  3
 _ _ _ _ _ _ _ _ _ _ _ _ _ _ _ _ _ _ _ _ _ _
 72
    65
 73
     2
 40
0.000165
 49
0.000110
 49
-0.000055
  0
LTYPE
  2
CENTER
 70
    64
  3
____ _ ____ _ ____ _ ____ _ ____ _ ____ _ ____
 72
    65
 73
     4
 40
0.000880
 49
0.000550
 49
-0.000110
 49
0.000110
 49
-0.000110
  0
LTYPE
  2
PHANTOM
 70
    64
  3
_____ _ _ _____ _ _ _____ _ _ _____ _ _ ____
 72
    65
 73
     6
 40
0.001100
 49
0.000550
 49
-0.000110
 49
0.000110
 49
-0.000110
 49
0.000110
 49
-0.000110
  0
LTYPE
  2
DOT
 70
    64
  3
...............................................
 72
    65
 73
     2
 40
0.000110
 49
0.000000
 49
-0.000110
  0
LTYPE
  2
DASHDOT
 70
    64
  3
__ . __ . __ . __ . __ . __ . __ . __ . __ . __
 72
    65
 73
     4
 40
0.000440
 49
0.000220
 49
-0.000110
 49
0.000000
 49
-0.000110
  0
LTYPE
  2
BORDER
 70
    64
  3
__ __ . __ __ . __ __ . __ __ . __ __ . __ __
 72
    65
 73
     6
 40
0.000770
 49
0.000220
 49
-0.000110
 49
0.000220
 49
-0.000110
 49
0.000000
 49
-0.000110
  0
LTYPE
  2
DIVIDE
 70
    64
  3
__ . . __ . . __ . . __ . . __ . . __ . . __
 72
    65
 73
     6
 40
0.000550
 49
0.000220
 49
-0.000110
 49
0.000000
 49
-0.000110
 49
0.000000
 49
-0.000110
  0
LTYPE
  2
DOTDOT
 70
    64
  3
 . .  . .  . .  . .  . .  . . 
 72
    65
 73
     5
 40
0.000242
 49
-0.000110
 49
0.000000
 49
-0.000110
 49
0.000000
 49
-0.000110
  0
ENDTAB
  0
TABLE
  2
STYLE
 70
     2
  0
STYLE
 70
     0
  2
SN0
 40
0.000000
 41
0.000440
 50
0.000000
 71
     0
 42
0.000000
  3
ROMAND
  0
STYLE
 70
    68
  2
SV0
 40
0.000000
 41
0.000440
 50
0.000000
 71
     0
 42
0.000000
  3
ROMAND
  0
ENDTAB
  0
TABLE
  2
LAYER
 70
     3
  0
LAYER
  2
FOREGROUND
 70
    64
 62
     7
  6
CONTINUOUS
  0
LAYER
  2
BACKGROUND
 70
    65
 62
    -7
  6
CONTINUOUS
  0
LAYER
  2
0
 70
    64
 62
     7
  6
CONTINUOUS
  0
ENDTAB
  0
ENDSEC
  0
SECTION
  2
ENTITIES
  0
POLYLINE
  8
FOREGROUND
  6
CONTINUOUS
 66
     1
 40
0.000000
 41
0.000000
  0
VERTEX
  8
FOREGROUND
  6
CONTINUOUS
 10
0.000000
 20
3.266120
  0
VERTEX
  8
FOREGROUND
  6
CONTINUOUS
 10
8.499920
 20
3.266120
  0
VERTEX
  8
FOREGROUND
  6
CONTINUOUS
 10
8.499920
 20
-7.733880
  0
VERTEX
  8
FOREGROUND
  6
CONTINUOUS
 10
0.000000
 20
-7.733880
  0
VERTEX
  8
FOREGROUND
  6
CONTINUOUS
 10
0.000000
 20
3.266120
  0
SEQEND
  8
0
  0
POLYLINE
  8
FOREGROUND
  6
CONTINUOUS
 66
     1
 40
0.000000
 41
0.000000
  0
VERTEX
  8
FOREGROUND
  6
CONTINUOUS
 10
0.000000
 20
3.266120
  0
VERTEX
  8
FOREGROUND
  6
CONTINUOUS
 10
8.499920
 20
3.266120
  0
VERTEX
  8
FOREGROUND
  6
CONTINUOUS
 10
8.499920
 20
-7.733880
  0
VERTEX
  8
FOREGROUND
  6
CONTINUOUS
 10
0.000000
 20
-7.733880
  0
VERTEX
  8
FOREGROUND
  6
CONTINUOUS
 10
0.000000
 20
3.266120
  0
SEQEND
  8
0
  0
POLYLINE
  8
0
  6
CONTINUOUS
 66
     1
 40
0.014080
 41
0.014080
  0
VERTEX
  8
0
  6
CONTINUOUS
 10
5.640800
 20
2.426160
  0
VERTEX
  8
0
  6
CONTINUOUS
 10
5.655760
 20
2.464000
  0
VERTEX
  8
0
  6
CONTINUOUS
 10
5.675560
 20
2.497000
  0
VERTEX
  8
0
  6
CONTINUOUS
 10
5.690960
 20
2.516360
  0
VERTEX
  8
0
  6
CONTINUOUS
 10
5.708560
 20
2.533520
  0
VERTEX
  8
0
  6
CONTINUOUS
 10
5.737160
 20
2.555080
  0
VERTEX
  8
0
  6
CONTINUOUS
 10
5.768840
 20
2.571800
  0
VERTEX
  8
0
  6
CONTINUOUS
 10
5.791280
 20
2.580600
  0
VERTEX
  8
0
  6
CONTINUOUS
 10
5.838800
 20
2.591600
  0
VERTEX
  8
0
  6
CONTINUOUS
 10
5.863880
 20
2.593800
  0
VERTEX
  8
0
  6
CONTINUOUS
 10
5.888960
 20
2.594240
  0
VERTEX
  8
0
  6
CONTINUOUS
 10
5.914480
 20
2.592920
  0
VERTEX
  8
0
  6
CONTINUOUS
 10
5.940440
 20
2.589400
  0
VERTEX
  8
0
  6
CONTINUOUS
 10
5.966400
 20
2.584120
  0
VERTEX
  8
0
  6
CONTINUOUS
 10
5.991920
 20
2.576640
  0
VERTEX
  8
0
  6
CONTINUOUS
 10
6.017440
 20
2.567400
  0
VERTEX
  8
0
  6
CONTINUOUS
 10
6.042080
 20
2.556400
  0
VERTEX
  8
0
  6
CONTINUOUS
 10
6.090040
 20
2.528240
  0
VERTEX
  8
0
  6
CONTINUOUS
 10
6.112480
 20
2.511960
  0
VERTEX
  8
0
  6
CONTINUOUS
 10
6.134040
 20
2.493480
  0
VERTEX
  8
0
  6
CONTINUOUS
 10
6.154720
 20
2.473240
  0
VERTEX
  8
0
  6
CONTINUOUS
 10
6.173640
 20
2.451240
  0
VERTEX
  8
0
  6
CONTINUOUS
 10
6.190800
 20
2.427480
  0
VERTEX
  8
0
  6
CONTINUOUS
 10
6.214120
 20
2.388760
  0
VERTEX
  8
0
  6
CONTINUOUS
 10
6.232600
 20
2.346080
  0
VERTEX
  8
0
  6
CONTINUOUS
 10
6.246680
 20
2.299880
  0
VERTEX
  8
0
  6
CONTINUOUS
 10
6.255040
 20
2.249720
  0
VERTEX
  8
0
  6
CONTINUOUS
 10
6.465800
 20
2.249720
  0
VERTEX
  8
0
  6
CONTINUOUS
 10
6.467560
 20
2.225080
  0
VERTEX
  8
0
  6
CONTINUOUS
 10
6.474600
 20
2.192080
  0
VERTEX
  8
0
  6
CONTINUOUS
 10
6.486480
 20
2.163040
  0
VERTEX
  8
0
  6
CONTINUOUS
 10
6.508920
 20
2.130920
  0
VERTEX
  8
0
  6
CONTINUOUS
 10
6.538400
 20
2.105400
  0
VERTEX
  8
0
  6
CONTINUOUS
 10
6.573600
 20
2.086040
  0
VERTEX
  8
0
  6
CONTINUOUS
 10
6.614080
 20
2.071520
  0
VERTEX
  8
0
  6
CONTINUOUS
 10
6.658520
 20
2.061840
  0
VERTEX
  8
0
  6
CONTINUOUS
 10
6.706480
 20
2.055680
  0
VERTEX
  8
0
  6
CONTINUOUS
 10
6.756640
 20
2.053040
  0
VERTEX
  8
0
  6
CONTINUOUS
 10
6.808560
 20
2.052600
  0
VERTEX
  8
0
  6
CONTINUOUS
 10
6.912840
 20
2.057000
  0
VERTEX
  8
0
  6
CONTINUOUS
 10
7.058480
 20
2.065800
  0
VERTEX
  8
0
  6
CONTINUOUS
 10
7.100280
 20
2.066680
  0
VERTEX
  8
0
  6
CONTINUOUS
 10
7.100280
 20
1.579600
  0
VERTEX
  8
0
  6
CONTINUOUS
 10
5.119840
 20
1.579600
  0
VERTEX
  8
0
  6
CONTINUOUS
 10
5.404960
 20
2.423520
  0
VERTEX
  8
0
  6
CONTINUOUS
 10
5.640800
 20
2.423520
  0
VERTEX
  8
0
  6
CONTINUOUS
 10
5.640800
 20
2.426160
  0
SEQEND
  8
0
  0
SOLID
  8
0
 62
    15
 10
4.157560
 20
1.670680
 11
4.155800
 21
2.410320
 12
4.368760
 22
1.670680
 13
4.367000
 23
2.410320
  0
POLYLINE
  8
0
  6
CONTINUOUS
 66
     1
 40
0.000000
 41
0.000000
  0
VERTEX
  8
0
  6
CONTINUOUS
 10
4.157560
 20
1.670680
  0
VERTEX
  8
0
  6
CONTINUOUS
 10
4.155800
 20
2.410320
  0
VERTEX
  8
0
  6
CONTINUOUS
 10
4.367000
 20
2.410320
  0
VERTEX
  8
0
  6
CONTINUOUS
 10
4.368760
 20
1.670680
  0
VERTEX
  8
0
  6
CONTINUOUS
 10
4.157560
 20
1.670680
  0
SEQEND
  8
0
  0
SOLID
  8
0
 62
    15
 10
3.564880
 20
1.896400
 11
3.563120
 21
2.636480
 12
3.593920
 22
1.937320
 13
3.592160
 23
2.676960
  0
POLYLINE
  8
0
  6
CONTINUOUS
 66
     1
 40
0.000000
 41
0.000000
  0
VERTEX
  8
0
  6
CONTINUOUS
 10
3.564880
 20
1.896400
  0
VERTEX
  8
0
  6
CONTINUOUS
 10
3.563120
 20
2.636480
  0
VERTEX
  8
0
  6
CONTINUOUS
 10
3.592160
 20
2.676960
  0
VERTEX
  8
0
  6
CONTINUOUS
 10
3.593920
 20
1.937320
  0
VERTEX
  8
0
  6
CONTINUOUS
 10
3.564880
 20
1.896400
  0
SEQEND
  8
0
  0
SOLID
  8
0
 62
    15
 10
3.593920
 20
1.937320
 11
3.592160
 21
2.676960
 12
3.630000
 22
1.969440
 13
3.628240
 23
2.709080
  0
POLYLINE
  8
0
  6
CONTINUOUS
 66
     1
 40
0.000000
 41
0.000000
  0
VERTEX
  8
0
  6
CONTINUOUS
 10
3.593920
 20
1.937320
  0
VERTEX
  8
0
  6
CONTINUOUS
 10
3.592160
 20
2.676960
  0
VERTEX
  8
0
  6
CONTINUOUS
 10
3.628240
 20
2.709080
  0
VERTEX
  8
0
  6
CONTINUOUS
 10
3.630000
 20
1.969440
  0
VERTEX
  8
0
  6
CONTINUOUS
 10
3.593920
 20
1.937320
  0
SEQEND
  8
0
  0
SOLID
  8
0
 62
    15
 10
3.630000
 20
1.969440
 11
3.628240
 21
2.709080
 12
3.671360
 22
1.992760
 13
3.669600
 23
2.732400
  0
POLYLINE
  8
0
  6
CONTINUOUS
 66
     1
 40
0.000000
 41
0.000000
  0
VERTEX
  8
0
  6
CONTINUOUS
 10
3.630000
 20
1.969440
  0
VERTEX
  8
0
  6
CONTINUOUS
 10
3.628240
 20
2.709080
  0
VERTEX
  8
0
  6
CONTINUOUS
 10
3.669600
 20
2.732400
  0
VERTEX
  8
0
  6
CONTINUOUS
 10
3.671360
 20
1.992760
  0
VERTEX
  8
0
  6
CONTINUOUS
 10
3.630000
 20
1.969440
  0
SEQEND
  8
0
  0
SOLID
  8
0
 62
    15
 10
3.671360
 20
1.992760
 11
3.669600
 21
2.732400
 12
3.717560
 22
2.007720
 13
3.715800
 23
2.747360
  0
POLYLINE
  8
0
  6
CONTINUOUS
 66
     1
 40
0.000000
 41
0.000000
  0
VERTEX
  8
0
  6
CONTINUOUS
 10
3.671360
 20
1.992760
  0
VERTEX
  8
0
  6
CONTINUOUS
 10
3.669600
 20
2.732400
  0
VERTEX
  8
0
  6
CONTINUOUS
 10
3.715800
 20
2.747360
  0
VERTEX
  8
0
  6
CONTINUOUS
 10
3.717560
 20
2.007720
  0
VERTEX
  8
0
  6
CONTINUOUS
 10
3.671360
 20
1.992760
  0
SEQEND
  8
0
  0
SOLID
  8
0
 62
    15
 10
3.717560
 20
2.007720
 11
3.715800
 21
2.747360
 12
3.766400
 22
2.014760
 13
3.764640
 23
2.754400
  0
POLYLINE
  8
0
  6
CONTINUOUS
 66
     1
 40
0.000000
 41
0.000000
  0
VERTEX
  8
0
  6
CONTINUOUS
 10
3.717560
 20
2.007720
  0
VERTEX
  8
0
  6
CONTINUOUS
 10
3.715800
 20
2.747360
  0
VERTEX
  8
0
  6
CONTINUOUS
 10
3.764640
 20
2.754400
  0
VERTEX
  8
0
  6
CONTINUOUS
 10
3.766400
 20
2.014760
  0
VERTEX
  8
0
  6
CONTINUOUS
 10
3.717560
 20
2.007720
  0
SEQEND
  8
0
  0
SOLID
  8
0
 62
    15
 10
3.766400
 20
2.014760
 11
3.764640
 21
2.754400
 12
3.817440
 22
2.013880
 13
3.815680
 23
2.753520
  0
POLYLINE
  8
0
  6
CONTINUOUS
 66
     1
 40
0.000000
 41
0.000000
  0
VERTEX
  8
0
  6
CONTINUOUS
 10
3.766400
 20
2.014760
  0
VERTEX
  8
0
  6
CONTINUOUS
 10
3.764640
 20
2.754400
  0
VERTEX
  8
0
  6
CONTINUOUS
 10
3.815680
 20
2.753520
  0
VERTEX
  8
0
  6
CONTINUOUS
 10
3.817440
 20
2.013880
  0
VERTEX
  8
0
  6
CONTINUOUS
 10
3.766400
 20
2.014760
  0
SEQEND
  8
0
  0
SOLID
  8
0
 62
    15
 10
3.817440
 20
2.013880
 11
3.815680
 21
2.753520
 12
3.868920
 22
2.005080
 13
3.867160
 23
2.744720
  0
POLYLINE
  8
0
  6
CONTINUOUS
 66
     1
 40
0.000000
 41
0.000000
  0
VERTEX
  8
0
  6
CONTINUOUS
 10
3.817440
 20
2.013880
  0
VERTEX
  8
0
  6
CONTINUOUS
 10
3.815680
 20
2.753520
  0
VERTEX
  8
0
  6
CONTINUOUS
 10
3.867160
 20
2.744720
  0
VERTEX
  8
0
  6
CONTINUOUS
 10
3.868920
 20
2.005080
  0
VERTEX
  8
0
  6
CONTINUOUS
 10
3.817440
 20
2.013880
  0
SEQEND
  8
0
  0
SOLID
  8
0
 62
    15
 10
3.868920
 20
2.005080
 11
3.867160
 21
2.744720
 12
3.919960
 22
1.988360
 13
3.918200
 23
2.728000
  0
POLYLINE
  8
0
  6
CONTINUOUS
 66
     1
 40
0.000000
 41
0.000000
  0
VERTEX
  8
0
  6
CONTINUOUS
 10
3.868920
 20
2.005080
  0
VERTEX
  8
0
  6
CONTINUOUS
 10
3.867160
 20
2.744720
  0
VERTEX
  8
0
  6
CONTINUOUS
 10
3.918200
 20
2.728000
  0
VERTEX
  8
0
  6
CONTINUOUS
 10
3.919960
 20
1.988360
  0
VERTEX
  8
0
  6
CONTINUOUS
 10
3.868920
 20
2.005080
  0
SEQEND
  8
0
  0
SOLID
  8
0
 62
    15
 10
3.919960
 20
1.988360
 11
3.918200
 21
2.728000
 12
3.969240
 22
1.964160
 13
3.967480
 23
2.703800
  0
POLYLINE
  8
0
  6
CONTINUOUS
 66
     1
 40
0.000000
 41
0.000000
  0
VERTEX
  8
0
  6
CONTINUOUS
 10
3.919960
 20
1.988360
  0
VERTEX
  8
0
  6
CONTINUOUS
 10
3.918200
 20
2.728000
  0
VERTEX
  8
0
  6
CONTINUOUS
 10
3.967480
 20
2.703800
  0
VERTEX
  8
0
  6
CONTINUOUS
 10
3.969240
 20
1.964160
  0
VERTEX
  8
0
  6
CONTINUOUS
 10
3.919960
 20
1.988360
  0
SEQEND
  8
0
  0
SOLID
  8
0
 62
    15
 10
3.969240
 20
1.964160
 11
3.967480
 21
2.703800
 12
4.015440
 22
1.932480
 13
4.013680
 23
2.672560
  0
POLYLINE
  8
0
  6
CONTINUOUS
 66
     1
 40
0.000000
 41
0.000000
  0
VERTEX
  8
0
  6
CONTINUOUS
 10
3.969240
 20
1.964160
  0
VERTEX
  8
0
  6
CONTINUOUS
 10
3.967480
 20
2.703800
  0
VERTEX
  8
0
  6
CONTINUOUS
 10
4.013680
 20
2.672560
  0
VERTEX
  8
0
  6
CONTINUOUS
 10
4.015440
 20
1.932480
  0
VERTEX
  8
0
  6
CONTINUOUS
 10
3.969240
 20
1.964160
  0
SEQEND
  8
0
  0
SOLID
  8
0
 62
    15
 10
4.015440
 20
1.932480
 11
4.013680
 21
2.672560
 12
4.057240
 22
1.894200
 13
4.055480
 23
2.633840
  0
POLYLINE
  8
0
  6
CONTINUOUS
 66
     1
 40
0.000000
 41
0.000000
  0
VERTEX
  8
0
  6
CONTINUOUS
 10
4.015440
 20
1.932480
  0
VERTEX
  8
0
  6
CONTINUOUS
 10
4.013680
 20
2.672560
  0
VERTEX
  8
0
  6
CONTINUOUS
 10
4.055480
 20
2.633840
  0
VERTEX
  8
0
  6
CONTINUOUS
 10
4.057240
 20
1.894200
  0
VERTEX
  8
0
  6
CONTINUOUS
 10
4.015440
 20
1.932480
  0
SEQEND
  8
0
  0
SOLID
  8
0
 62
    15
 10
4.057240
 20
1.894200
 11
4.055480
 21
2.633840
 12
4.093760
 22
1.848440
 13
4.092000
 23
2.588080
  0
POLYLINE
  8
0
  6
CONTINUOUS
 66
     1
 40
0.000000
 41
0.000000
  0
VERTEX
  8
0
  6
CONTINUOUS
 10
4.057240
 20
1.894200
  0
VERTEX
  8
0
  6
CONTINUOUS
 10
4.055480
 20
2.633840
  0
VERTEX
  8
0
  6
CONTINUOUS
 10
4.092000
 20
2.588080
  0
VERTEX
  8
0
  6
CONTINUOUS
 10
4.093760
 20
1.848440
  0
VERTEX
  8
0
  6
CONTINUOUS
 10
4.057240
 20
1.894200
  0
SEQEND
  8
0
  0
SOLID
  8
0
 62
    15
 10
4.093760
 20
1.848440
 11
4.092000
 21
2.588080
 12
4.123240
 22
1.795640
 13
4.121480
 23
2.535280
  0
POLYLINE
  8
0
  6
CONTINUOUS
 66
     1
 40
0.000000
 41
0.000000
  0
VERTEX
  8
0
  6
CONTINUOUS
 10
4.093760
 20
1.848440
  0
VERTEX
  8
0
  6
CONTINUOUS
 10
4.092000
 20
2.588080
  0
VERTEX
  8
0
  6
CONTINUOUS
 10
4.121480
 20
2.535280
  0
VERTEX
  8
0
  6
CONTINUOUS
 10
4.123240
 20
1.795640
  0
VERTEX
  8
0
  6
CONTINUOUS
 10
4.093760
 20
1.848440
  0
SEQEND
  8
0
  0
SOLID
  8
0
 62
    15
 10
4.123240
 20
1.795640
 11
4.121480
 21
2.535280
 12
4.145240
 22
1.736680
 13
4.143480
 23
2.476320
  0
POLYLINE
  8
0
  6
CONTINUOUS
 66
     1
 40
0.000000
 41
0.000000
  0
VERTEX
  8
0
  6
CONTINUOUS
 10
4.123240
 20
1.795640
  0
VERTEX
  8
0
  6
CONTINUOUS
 10
4.121480
 20
2.535280
  0
VERTEX
  8
0
  6
CONTINUOUS
 10
4.143480
 20
2.476320
  0
VERTEX
  8
0
  6
CONTINUOUS
 10
4.145240
 20
1.736680
  0
VERTEX
  8
0
  6
CONTINUOUS
 10
4.123240
 20
1.795640
  0
SEQEND
  8
0
  0
SOLID
  8
0
 62
    15
 10
4.145240
 20
1.736680
 11
4.143480
 21
2.476320
 12
4.157560
 22
1.670680
 13
4.155800
 23
2.410320
  0
POLYLINE
  8
0
  6
CONTINUOUS
 66
     1
 40
0.000000
 41
0.000000
  0
VERTEX
  8
0
  6
CONTINUOUS
 10
4.145240
 20
1.736680
  0
VERTEX
  8
0
  6
CONTINUOUS
 10
4.143480
 20
2.476320
  0
VERTEX
  8
0
  6
CONTINUOUS
 10
4.155800
 20
2.410320
  0
VERTEX
  8
0
  6
CONTINUOUS
 10
4.157560
 20
1.670680
  0
VERTEX
  8
0
  6
CONTINUOUS
 10
4.145240
 20
1.736680
  0
SEQEND
  8
0
  0
SOLID
  8
0
 62
    15
 10
3.307920
 20
1.844920
 11
3.306160
 21
2.584560
 12
3.543760
 22
1.844920
 13
3.541560
 23
2.584560
  0
POLYLINE
  8
0
  6
CONTINUOUS
 66
     1
 40
0.000000
 41
0.000000
  0
VERTEX
  8
0
  6
CONTINUOUS
 10
3.307920
 20
1.844920
  0
VERTEX
  8
0
  6
CONTINUOUS
 10
3.306160
 20
2.584560
  0
VERTEX
  8
0
  6
CONTINUOUS
 10
3.541560
 20
2.584560
  0
VERTEX
  8
0
  6
CONTINUOUS
 10
3.543760
 20
1.844920
  0
VERTEX
  8
0
  6
CONTINUOUS
 10
3.307920
 20
1.844920
  0
SEQEND
  8
0
  0
SOLID
  8
0
 62
    15
 10
4.368760
 20
1.670680
 11
4.367000
 21
2.410320
 12
4.374920
 22
1.623600
 13
4.373160
 23
2.363240
  0
POLYLINE
  8
0
  6
CONTINUOUS
 66
     1
 40
0.000000
 41
0.000000
  0
VERTEX
  8
0
  6
CONTINUOUS
 10
4.368760
 20
1.670680
  0
VERTEX
  8
0
  6
CONTINUOUS
 10
4.367000
 20
2.410320
  0
VERTEX
  8
0
  6
CONTINUOUS
 10
4.373160
 20
2.363240
  0
VERTEX
  8
0
  6
CONTINUOUS
 10
4.374920
 20
1.623600
  0
VERTEX
  8
0
  6
CONTINUOUS
 10
4.368760
 20
1.670680
  0
SEQEND
  8
0
  0
SOLID
  8
0
 62
    15
 10
4.374920
 20
1.623600
 11
4.373160
 21
2.363240
 12
4.389440
 22
1.584000
 13
4.387680
 23
2.323640
  0
POLYLINE
  8
0
  6
CONTINUOUS
 66
     1
 40
0.000000
 41
0.000000
  0
VERTEX
  8
0
  6
CONTINUOUS
 10
4.374920
 20
1.623600
  0
VERTEX
  8
0
  6
CONTINUOUS
 10
4.373160
 20
2.363240
  0
VERTEX
  8
0
  6
CONTINUOUS
 10
4.387680
 20
2.323640
  0
VERTEX
  8
0
  6
CONTINUOUS
 10
4.389440
 20
1.584000
  0
VERTEX
  8
0
  6
CONTINUOUS
 10
4.374920
 20
1.623600
  0
SEQEND
  8
0
  0
SOLID
  8
0
 62
    15
 10
4.389440
 20
1.584000
 11
4.387680
 21
2.323640
 12
4.411880
 22
1.551880
 13
4.410120
 23
2.291520
  0
POLYLINE
  8
0
  6
CONTINUOUS
 66
     1
 40
0.000000
 41
0.000000
  0
VERTEX
  8
0
  6
CONTINUOUS
 10
4.389440
 20
1.584000
  0
VERTEX
  8
0
  6
CONTINUOUS
 10
4.387680
 20
2.323640
  0
VERTEX
  8
0
  6
CONTINUOUS
 10
4.410120
 20
2.291520
  0
VERTEX
  8
0
  6
CONTINUOUS
 10
4.411880
 20
1.551880
  0
VERTEX
  8
0
  6
CONTINUOUS
 10
4.389440
 20
1.584000
  0
SEQEND
  8
0
  0
SOLID
  8
0
 62
    15
 10
4.411880
 20
1.551880
 11
4.410120
 21
2.291520
 12
4.441360
 22
1.526360
 13
4.439600
 23
2.266000
  0
POLYLINE
  8
0
  6
CONTINUOUS
 66
     1
 40
0.000000
 41
0.000000
  0
VERTEX
  8
0
  6
CONTINUOUS
 10
4.411880
 20
1.551880
  0
VERTEX
  8
0
  6
CONTINUOUS
 10
4.410120
 20
2.291520
  0
VERTEX
  8
0
  6
CONTINUOUS
 10
4.439600
 20
2.266000
  0
VERTEX
  8
0
  6
CONTINUOUS
 10
4.441360
 20
1.526360
  0
VERTEX
  8
0
  6
CONTINUOUS
 10
4.411880
 20
1.551880
  0
SEQEND
  8
0
  0
SOLID
  8
0
 62
    15
 10
4.441360
 20
1.526360
 11
4.439600
 21
2.266000
 12
4.476560
 22
1.507000
 13
4.474800
 23
2.246640
  0
POLYLINE
  8
0
  6
CONTINUOUS
 66
     1
 40
0.000000
 41
0.000000
  0
VERTEX
  8
0
  6
CONTINUOUS
 10
4.441360
 20
1.526360
  0
VERTEX
  8
0
  6
CONTINUOUS
 10
4.439600
 20
2.266000
  0
VERTEX
  8
0
  6
CONTINUOUS
 10
4.474800
 20
2.246640
  0
VERTEX
  8
0
  6
CONTINUOUS
 10
4.476560
 20
1.507000
  0
VERTEX
  8
0
  6
CONTINUOUS
 10
4.441360
 20
1.526360
  0
SEQEND
  8
0
  0
SOLID
  8
0
 62
    15
 10
4.476560
 20
1.507000
 11
4.474800
 21
2.246640
 12
4.517040
 22
1.492480
 13
4.515280
 23
2.232120
  0
POLYLINE
  8
0
  6
CONTINUOUS
 66
     1
 40
0.000000
 41
0.000000
  0
VERTEX
  8
0
  6
CONTINUOUS
 10
4.476560
 20
1.507000
  0
VERTEX
  8
0
  6
CONTINUOUS
 10
4.474800
 20
2.246640
  0
VERTEX
  8
0
  6
CONTINUOUS
 10
4.515280
 20
2.232120
  0
VERTEX
  8
0
  6
CONTINUOUS
 10
4.517040
 20
1.492480
  0
VERTEX
  8
0
  6
CONTINUOUS
 10
4.476560
 20
1.507000
  0
SEQEND
  8
0
  0
SOLID
  8
0
 62
    15
 10
4.517040
 20
1.492480
 11
4.515280
 21
2.232120
 12
4.561480
 22
1.482800
 13
4.559720
 23
2.222440
  0
POLYLINE
  8
0
  6
CONTINUOUS
 66
     1
 40
0.000000
 41
0.000000
  0
VERTEX
  8
0
  6
CONTINUOUS
 10
4.517040
 20
1.492480
  0
VERTEX
  8
0
  6
CONTINUOUS
 10
4.515280
 20
2.232120
  0
VERTEX
  8
0
  6
CONTINUOUS
 10
4.559720
 20
2.222440
  0
VERTEX
  8
0
  6
CONTINUOUS
 10
4.561480
 20
1.482800
  0
VERTEX
  8
0
  6
CONTINUOUS
 10
4.517040
 20
1.492480
  0
SEQEND
  8
0
  0
SOLID
  8
0
 62
    15
 10
4.561480
 20
1.482800
 11
4.559720
 21
2.222440
 12
4.609440
 22
1.476640
 13
4.607680
 23
2.216280
  0
POLYLINE
  8
0
  6
CONTINUOUS
 66
     1
 40
0.000000
 41
0.000000
  0
VERTEX
  8
0
  6
CONTINUOUS
 10
4.561480
 20
1.482800
  0
VERTEX
  8
0
  6
CONTINUOUS
 10
4.559720
 20
2.222440
  0
VERTEX
  8
0
  6
CONTINUOUS
 10
4.607680
 20
2.216280
  0
VERTEX
  8
0
  6
CONTINUOUS
 10
4.609440
 20
1.476640
  0
VERTEX
  8
0
  6
CONTINUOUS
 10
4.561480
 20
1.482800
  0
SEQEND
  8
0
  0
SOLID
  8
0
 62
    15
 10
4.609440
 20
1.476640
 11
4.607680
 21
2.216280
 12
4.711520
 22
1.473560
 13
4.709760
 23
2.213200
  0
POLYLINE
  8
0
  6
CONTINUOUS
 66
     1
 40
0.000000
 41
0.000000
  0
VERTEX
  8
0
  6
CONTINUOUS
 10
4.609440
 20
1.476640
  0
VERTEX
  8
0
  6
CONTINUOUS
 10
4.607680
 20
2.216280
  0
VERTEX
  8
0
  6
CONTINUOUS
 10
4.709760
 20
2.213200
  0
VERTEX
  8
0
  6
CONTINUOUS
 10
4.711520
 20
1.473560
  0
VERTEX
  8
0
  6
CONTINUOUS
 10
4.609440
 20
1.476640
  0
SEQEND
  8
0
  0
SOLID
  8
0
 62
    15
 10
4.711520
 20
1.473560
 11
4.709760
 21
2.213200
 12
4.815800
 22
1.477960
 13
4.814040
 23
2.217600
  0
POLYLINE
  8
0
  6
CONTINUOUS
 66
     1
 40
0.000000
 41
0.000000
  0
VERTEX
  8
0
  6
CONTINUOUS
 10
4.711520
 20
1.473560
  0
VERTEX
  8
0
  6
CONTINUOUS
 10
4.709760
 20
2.213200
  0
VERTEX
  8
0
  6
CONTINUOUS
 10
4.814040
 20
2.217600
  0
VERTEX
  8
0
  6
CONTINUOUS
 10
4.815800
 20
1.477960
  0
VERTEX
  8
0
  6
CONTINUOUS
 10
4.711520
 20
1.473560
  0
SEQEND
  8
0
  0
SOLID
  8
0
 62
    15
 10
4.815800
 20
1.477960
 11
4.814040
 21
2.217600
 12
4.915680
 22
1.484560
 13
4.913920
 23
2.224200
  0
POLYLINE
  8
0
  6
CONTINUOUS
 66
     1
 40
0.000000
 41
0.000000
  0
VERTEX
  8
0
  6
CONTINUOUS
 10
4.815800
 20
1.477960
  0
VERTEX
  8
0
  6
CONTINUOUS
 10
4.814040
 20
2.217600
  0
VERTEX
  8
0
  6
CONTINUOUS
 10
4.913920
 20
2.224200
  0
VERTEX
  8
0
  6
CONTINUOUS
 10
4.915680
 20
1.484560
  0
VERTEX
  8
0
  6
CONTINUOUS
 10
4.815800
 20
1.477960
  0
SEQEND
  8
0
  0
SOLID
  8
0
 62
    15
 10
4.915680
 20
1.484560
 11
4.913920
 21
2.224200
 12
5.003240
 22
1.487640
 13
5.001480
 23
2.227280
  0
POLYLINE
  8
0
  6
CONTINUOUS
 66
     1
 40
0.000000
 41
0.000000
  0
VERTEX
  8
0
  6
CONTINUOUS
 10
4.915680
 20
1.484560
  0
VERTEX
  8
0
  6
CONTINUOUS
 10
4.913920
 20
2.224200
  0
VERTEX
  8
0
  6
CONTINUOUS
 10
5.001480
 20
2.227280
  0
VERTEX
  8
0
  6
CONTINUOUS
 10
5.003240
 20
1.487640
  0
VERTEX
  8
0
  6
CONTINUOUS
 10
4.915680
 20
1.484560
  0
SEQEND
  8
0
  0
SOLID
  8
0
 62
    15
 10
3.022800
 20
1.000560
 11
3.021040
 21
1.740200
 12
3.307920
 22
1.844920
 13
3.306160
 23
2.584560
  0
POLYLINE
  8
0
  6
CONTINUOUS
 66
     1
 40
0.000000
 41
0.000000
  0
VERTEX
  8
0
  6
CONTINUOUS
 10
3.022800
 20
1.000560
  0
VERTEX
  8
0
  6
CONTINUOUS
 10
3.021040
 20
1.740200
  0
VERTEX
  8
0
  6
CONTINUOUS
 10
3.306160
 20
2.584560
  0
VERTEX
  8
0
  6
CONTINUOUS
 10
3.307920
 20
1.844920
  0
VERTEX
  8
0
  6
CONTINUOUS
 10
3.022800
 20
1.000560
  0
SEQEND
  8
0
  0
SOLID
  8
0
 62
    15
 10
3.543760
 20
1.844920
 11
3.541560
 21
2.584560
 12
3.543760
 22
1.847120
 13
3.541560
 23
2.586760
  0
POLYLINE
  8
0
  6
CONTINUOUS
 66
     1
 40
0.000000
 41
0.000000
  0
VERTEX
  8
0
  6
CONTINUOUS
 10
3.543760
 20
1.844920
  0
VERTEX
  8
0
  6
CONTINUOUS
 10
3.541560
 20
2.584560
  0
VERTEX
  8
0
  6
CONTINUOUS
 10
3.541560
 20
2.586760
  0
VERTEX
  8
0
  6
CONTINUOUS
 10
3.543760
 20
1.847120
  0
VERTEX
  8
0
  6
CONTINUOUS
 10
3.543760
 20
1.844920
  0
SEQEND
  8
0
  0
SOLID
  8
0
 62
    15
 10
3.543760
 20
1.847120
 11
3.541560
 21
2.586760
 12
3.564880
 22
1.896400
 13
3.563120
 23
2.636480
  0
POLYLINE
  8
0
  6
CONTINUOUS
 66
     1
 40
0.000000
 41
0.000000
  0
VERTEX
  8
0
  6
CONTINUOUS
 10
3.543760
 20
1.847120
  0
VERTEX
  8
0
  6
CONTINUOUS
 10
3.541560
 20
2.586760
  0
VERTEX
  8
0
  6
CONTINUOUS
 10
3.563120
 20
2.636480
  0
VERTEX
  8
0
  6
CONTINUOUS
 10
3.564880
 20
1.896400
  0
VERTEX
  8
0
  6
CONTINUOUS
 10
3.543760
 20
1.847120
  0
SEQEND
  8
0
  0
POLYLINE
  8
0
  6
CONTINUOUS
 66
     1
 40
0.000000
 41
0.000000
  0
VERTEX
  8
0
  6
CONTINUOUS
 10
3.543760
 20
1.847120
  0
VERTEX
  8
0
  6
CONTINUOUS
 10
3.564880
 20
1.896400
  0
VERTEX
  8
0
  6
CONTINUOUS
 10
3.593920
 20
1.937320
  0
VERTEX
  8
0
  6
CONTINUOUS
 10
3.630000
 20
1.969440
  0
VERTEX
  8
0
  6
CONTINUOUS
 10
3.671360
 20
1.992760
  0
VERTEX
  8
0
  6
CONTINUOUS
 10
3.717560
 20
2.007720
  0
VERTEX
  8
0
  6
CONTINUOUS
 10
3.766400
 20
2.014760
  0
VERTEX
  8
0
  6
CONTINUOUS
 10
3.817440
 20
2.013880
  0
VERTEX
  8
0
  6
CONTINUOUS
 10
3.868920
 20
2.005080
  0
VERTEX
  8
0
  6
CONTINUOUS
 10
3.919960
 20
1.988360
  0
VERTEX
  8
0
  6
CONTINUOUS
 10
3.969240
 20
1.964160
  0
VERTEX
  8
0
  6
CONTINUOUS
 10
4.015440
 20
1.932480
  0
VERTEX
  8
0
  6
CONTINUOUS
 10
4.057240
 20
1.894200
  0
VERTEX
  8
0
  6
CONTINUOUS
 10
4.093760
 20
1.848440
  0
VERTEX
  8
0
  6
CONTINUOUS
 10
4.123240
 20
1.795640
  0
VERTEX
  8
0
  6
CONTINUOUS
 10
4.145240
 20
1.736680
  0
VERTEX
  8
0
  6
CONTINUOUS
 10
4.157560
 20
1.670680
  0
VERTEX
  8
0
  6
CONTINUOUS
 10
4.368760
 20
1.670680
  0
VERTEX
  8
0
  6
CONTINUOUS
 10
4.374920
 20
1.623600
  0
VERTEX
  8
0
  6
CONTINUOUS
 10
4.389440
 20
1.584000
  0
VERTEX
  8
0
  6
CONTINUOUS
 10
4.411880
 20
1.551880
  0
VERTEX
  8
0
  6
CONTINUOUS
 10
4.441360
 20
1.526360
  0
VERTEX
  8
0
  6
CONTINUOUS
 10
4.476560
 20
1.507000
  0
VERTEX
  8
0
  6
CONTINUOUS
 10
4.517040
 20
1.492480
  0
VERTEX
  8
0
  6
CONTINUOUS
 10
4.561480
 20
1.482800
  0
VERTEX
  8
0
  6
CONTINUOUS
 10
4.609440
 20
1.476640
  0
VERTEX
  8
0
  6
CONTINUOUS
 10
4.711520
 20
1.473560
  0
VERTEX
  8
0
  6
CONTINUOUS
 10
4.815800
 20
1.477960
  0
VERTEX
  8
0
  6
CONTINUOUS
 10
4.915680
 20
1.484560
  0
VERTEX
  8
0
  6
CONTINUOUS
 10
5.003240
 20
1.487640
  0
VERTEX
  8
0
  6
CONTINUOUS
 10
5.003240
 20
1.000560
  0
VERTEX
  8
0
  6
CONTINUOUS
 10
3.022800
 20
1.000560
  0
VERTEX
  8
0
  6
CONTINUOUS
 10
3.307920
 20
1.844920
  0
VERTEX
  8
0
  6
CONTINUOUS
 10
3.543760
 20
1.844920
  0
VERTEX
  8
0
  6
CONTINUOUS
 10
3.543760
 20
1.847120
  0
SEQEND
  8
0
  0
TEXT
  8
0
 10
3.716240
 20
0.746240
 40
0.138081
  1
BA  847
 41
1.000000
  7
SN0
 71
     0
 72
     5
 11
4.305876
 21
0.746240
  0
TEXT
  8
0
 10
3.773000
 20
0.554840
 40
0.138081
  1
1" x 2"
 41
1.000000
  7
SN0
 71
     0
 72
     5
 11
4.249410
 21
0.554840
  0
ENDSEC
  0
EOF
