  0
SECTION
  2
HEADER
  9
$ACADVER
  1
AC1006
  9
$EXTMIN
 10
2.311320
 20
1.038840
  9
$EXTMAX
 10
6.724520
 20
9.762720
  9
$LTSCALE
 40
0.044000
  9
$PDMODE
 70
    35
  9
$PDSIZE
 40
0.035200
  0
ENDSEC
  0
SECTION
  2
TABLES
  0
TABLE
  2
LTYPE
 70
     9
  0
LTYPE
  2
CONTINUOUS
 70
    64
  3
Solid line
 72
    65
 73
     0
 40
0.000000
  0
LTYPE
  2
DASHED
 70
    64
  3
__ __ __ __ __ __ __ __ __ __ __ __ __ __ __
 72
    65
 73
     2
 40
0.000330
 49
0.000220
 49
-0.000110
  0
LTYPE
  2
HIDDEN
 70
    64
  3
 _ _ _ _ _ _ _ _ _ _ _ _ _ _ _ _ _ _ _ _ _ _
 72
    65
 73
     2
 40
0.000165
 49
0.000110
 49
-0.000055
  0
LTYPE
  2
CENTER
 70
    64
  3
____ _ ____ _ ____ _ ____ _ ____ _ ____ _ ____
 72
    65
 73
     4
 40
0.000880
 49
0.000550
 49
-0.000110
 49
0.000110
 49
-0.000110
  0
LTYPE
  2
PHANTOM
 70
    64
  3
_____ _ _ _____ _ _ _____ _ _ _____ _ _ ____
 72
    65
 73
     6
 40
0.001100
 49
0.000550
 49
-0.000110
 49
0.000110
 49
-0.000110
 49
0.000110
 49
-0.000110
  0
LTYPE
  2
DOT
 70
    64
  3
...............................................
 72
    65
 73
     2
 40
0.000110
 49
0.000000
 49
-0.000110
  0
LTYPE
  2
DASHDOT
 70
    64
  3
__ . __ . __ . __ . __ . __ . __ . __ . __ . __
 72
    65
 73
     4
 40
0.000440
 49
0.000220
 49
-0.000110
 49
0.000000
 49
-0.000110
  0
LTYPE
  2
BORDER
 70
    64
  3
__ __ . __ __ . __ __ . __ __ . __ __ . __ __
 72
    65
 73
     6
 40
0.000770
 49
0.000220
 49
-0.000110
 49
0.000220
 49
-0.000110
 49
0.000000
 49
-0.000110
  0
LTYPE
  2
DIVIDE
 70
    64
  3
__ . . __ . . __ . . __ . . __ . . __ . . __
 72
    65
 73
     6
 40
0.000550
 49
0.000220
 49
-0.000110
 49
0.000000
 49
-0.000110
 49
0.000000
 49
-0.000110
  0
LTYPE
  2
DOTDOT
 70
    64
  3
 . .  . .  . .  . .  . .  . . 
 72
    65
 73
     5
 40
0.000242
 49
-0.000110
 49
0.000000
 49
-0.000110
 49
0.000000
 49
-0.000110
  0
ENDTAB
  0
TABLE
  2
STYLE
 70
     2
  0
STYLE
 70
     0
  2
SN0
 40
0.000000
 41
0.000440
 50
0.000000
 71
     0
 42
0.000000
  3
ROMAND
  0
STYLE
 70
    68
  2
SV0
 40
0.000000
 41
0.000440
 50
0.000000
 71
     0
 42
0.000000
  3
ROMAND
  0
ENDTAB
  0
TABLE
  2
LAYER
 70
     3
  0
LAYER
  2
FOREGROUND
 70
    64
 62
     7
  6
CONTINUOUS
  0
LAYER
  2
BACKGROUND
 70
    65
 62
    -7
  6
CONTINUOUS
  0
LAYER
  2
0
 70
    64
 62
     7
  6
CONTINUOUS
  0
ENDTAB
  0
ENDSEC
  0
SECTION
  2
ENTITIES
  0
POLYLINE
  8
FOREGROUND
  6
CONTINUOUS
 66
     1
 40
0.000000
 41
0.000000
  0
VERTEX
  8
FOREGROUND
  6
CONTINUOUS
 10
0.000000
 20
10.801560
  0
VERTEX
  8
FOREGROUND
  6
CONTINUOUS
 10
8.499920
 20
10.801560
  0
VERTEX
  8
FOREGROUND
  6
CONTINUOUS
 10
8.499920
 20
-0.198440
  0
VERTEX
  8
FOREGROUND
  6
CONTINUOUS
 10
0.000000
 20
-0.198440
  0
VERTEX
  8
FOREGROUND
  6
CONTINUOUS
 10
0.000000
 20
10.801560
  0
SEQEND
  8
0
  0
POLYLINE
  8
FOREGROUND
  6
CONTINUOUS
 66
     1
 40
0.000000
 41
0.000000
  0
VERTEX
  8
FOREGROUND
  6
CONTINUOUS
 10
0.000000
 20
10.801560
  0
VERTEX
  8
FOREGROUND
  6
CONTINUOUS
 10
8.499920
 20
10.801560
  0
VERTEX
  8
FOREGROUND
  6
CONTINUOUS
 10
8.499920
 20
-0.198440
  0
VERTEX
  8
FOREGROUND
  6
CONTINUOUS
 10
0.000000
 20
-0.198440
  0
VERTEX
  8
FOREGROUND
  6
CONTINUOUS
 10
0.000000
 20
10.801560
  0
SEQEND
  8
0
  0
TEXT
  8
0
 10
3.420560
 20
5.748160
 40
0.138351
  1
BA  845A 3/4" x 3-7/8"
 41
1.000000
  7
SN0
 71
     0
 72
     5
 11
5.065884
 21
5.748160
  0
TEXT
  8
0
 10
3.420560
 20
5.556320
 40
0.138351
  1
BA  845C  1-3/8" x 15/16"
 41
1.000000
  7
SN0
 71
     0
 72
     5
 11
5.304918
 21
5.556320
  0
SOLID
  8
0
 62
    15
 10
5.126880
 20
6.580640
 11
5.121160
 21
7.327760
 12
5.143160
 22
6.556440
 13
5.137000
 23
7.303120
  0
POLYLINE
  8
0
  6
CONTINUOUS
 66
     1
 40
0.000000
 41
0.000000
  0
VERTEX
  8
0
  6
CONTINUOUS
 10
5.126880
 20
6.580640
  0
VERTEX
  8
0
  6
CONTINUOUS
 10
5.121160
 20
7.327760
  0
VERTEX
  8
0
  6
CONTINUOUS
 10
5.137000
 20
7.303120
  0
VERTEX
  8
0
  6
CONTINUOUS
 10
5.143160
 20
6.556440
  0
VERTEX
  8
0
  6
CONTINUOUS
 10
5.126880
 20
6.580640
  0
SEQEND
  8
0
  0
SOLID
  8
0
 62
    15
 10
2.888600
 20
5.991040
 11
2.882880
 21
6.738160
 12
2.888600
 22
6.733760
 13
2.882880
 23
7.480880
  0
POLYLINE
  8
0
  6
CONTINUOUS
 66
     1
 40
0.000000
 41
0.000000
  0
VERTEX
  8
0
  6
CONTINUOUS
 10
2.888600
 20
5.991040
  0
VERTEX
  8
0
  6
CONTINUOUS
 10
2.882880
 20
6.738160
  0
VERTEX
  8
0
  6
CONTINUOUS
 10
2.882880
 20
7.480880
  0
VERTEX
  8
0
  6
CONTINUOUS
 10
2.888600
 20
6.733760
  0
VERTEX
  8
0
  6
CONTINUOUS
 10
2.888600
 20
5.991040
  0
SEQEND
  8
0
  0
SOLID
  8
0
 62
    15
 10
2.888600
 20
6.733760
 11
2.882880
 21
7.480880
 12
3.374360
 22
6.733760
 13
3.368640
 23
7.480880
  0
POLYLINE
  8
0
  6
CONTINUOUS
 66
     1
 40
0.000000
 41
0.000000
  0
VERTEX
  8
0
  6
CONTINUOUS
 10
2.888600
 20
6.733760
  0
VERTEX
  8
0
  6
CONTINUOUS
 10
2.882880
 20
7.480880
  0
VERTEX
  8
0
  6
CONTINUOUS
 10
3.368640
 20
7.480880
  0
VERTEX
  8
0
  6
CONTINUOUS
 10
3.374360
 20
6.733760
  0
VERTEX
  8
0
  6
CONTINUOUS
 10
2.888600
 20
6.733760
  0
SEQEND
  8
0
  0
SOLID
  8
0
 62
    15
 10
3.374360
 20
6.733760
 11
3.368640
 21
7.480880
 12
3.376120
 22
6.758400
 13
3.369960
 23
7.505080
  0
POLYLINE
  8
0
  6
CONTINUOUS
 66
     1
 40
0.000000
 41
0.000000
  0
VERTEX
  8
0
  6
CONTINUOUS
 10
3.374360
 20
6.733760
  0
VERTEX
  8
0
  6
CONTINUOUS
 10
3.368640
 20
7.480880
  0
VERTEX
  8
0
  6
CONTINUOUS
 10
3.369960
 20
7.505080
  0
VERTEX
  8
0
  6
CONTINUOUS
 10
3.376120
 20
6.758400
  0
VERTEX
  8
0
  6
CONTINUOUS
 10
3.374360
 20
6.733760
  0
SEQEND
  8
0
  0
SOLID
  8
0
 62
    15
 10
3.381840
 20
6.779960
 11
3.375680
 21
7.527080
 12
3.403400
 22
6.815160
 13
3.397680
 23
7.562280
  0
POLYLINE
  8
0
  6
CONTINUOUS
 66
     1
 40
0.000000
 41
0.000000
  0
VERTEX
  8
0
  6
CONTINUOUS
 10
3.381840
 20
6.779960
  0
VERTEX
  8
0
  6
CONTINUOUS
 10
3.375680
 20
7.527080
  0
VERTEX
  8
0
  6
CONTINUOUS
 10
3.397680
 20
7.562280
  0
VERTEX
  8
0
  6
CONTINUOUS
 10
3.403400
 20
6.815160
  0
VERTEX
  8
0
  6
CONTINUOUS
 10
3.381840
 20
6.779960
  0
SEQEND
  8
0
  0
SOLID
  8
0
 62
    15
 10
3.403400
 20
6.815160
 11
3.397680
 21
7.562280
 12
3.435080
 22
6.838480
 13
3.428920
 23
7.585600
  0
POLYLINE
  8
0
  6
CONTINUOUS
 66
     1
 40
0.000000
 41
0.000000
  0
VERTEX
  8
0
  6
CONTINUOUS
 10
3.403400
 20
6.815160
  0
VERTEX
  8
0
  6
CONTINUOUS
 10
3.397680
 20
7.562280
  0
VERTEX
  8
0
  6
CONTINUOUS
 10
3.428920
 20
7.585600
  0
VERTEX
  8
0
  6
CONTINUOUS
 10
3.435080
 20
6.838480
  0
VERTEX
  8
0
  6
CONTINUOUS
 10
3.403400
 20
6.815160
  0
SEQEND
  8
0
  0
SOLID
  8
0
 62
    15
 10
3.435080
 20
6.838480
 11
3.428920
 21
7.585600
 12
3.471600
 22
6.848600
 13
3.465440
 23
7.595720
  0
POLYLINE
  8
0
  6
CONTINUOUS
 66
     1
 40
0.000000
 41
0.000000
  0
VERTEX
  8
0
  6
CONTINUOUS
 10
3.435080
 20
6.838480
  0
VERTEX
  8
0
  6
CONTINUOUS
 10
3.428920
 20
7.585600
  0
VERTEX
  8
0
  6
CONTINUOUS
 10
3.465440
 20
7.595720
  0
VERTEX
  8
0
  6
CONTINUOUS
 10
3.471600
 20
6.848600
  0
VERTEX
  8
0
  6
CONTINUOUS
 10
3.435080
 20
6.838480
  0
SEQEND
  8
0
  0
SOLID
  8
0
 62
    15
 10
3.471600
 20
6.848600
 11
3.465440
 21
7.595720
 12
3.508560
 22
6.843760
 13
3.502400
 23
7.590880
  0
POLYLINE
  8
0
  6
CONTINUOUS
 66
     1
 40
0.000000
 41
0.000000
  0
VERTEX
  8
0
  6
CONTINUOUS
 10
3.471600
 20
6.848600
  0
VERTEX
  8
0
  6
CONTINUOUS
 10
3.465440
 20
7.595720
  0
VERTEX
  8
0
  6
CONTINUOUS
 10
3.502400
 20
7.590880
  0
VERTEX
  8
0
  6
CONTINUOUS
 10
3.508560
 20
6.843760
  0
VERTEX
  8
0
  6
CONTINUOUS
 10
3.471600
 20
6.848600
  0
SEQEND
  8
0
  0
SOLID
  8
0
 62
    15
 10
3.508560
 20
6.843760
 11
3.502400
 21
7.590880
 12
3.525720
 22
6.835840
 13
3.519560
 23
7.582960
  0
POLYLINE
  8
0
  6
CONTINUOUS
 66
     1
 40
0.000000
 41
0.000000
  0
VERTEX
  8
0
  6
CONTINUOUS
 10
3.508560
 20
6.843760
  0
VERTEX
  8
0
  6
CONTINUOUS
 10
3.502400
 20
7.590880
  0
VERTEX
  8
0
  6
CONTINUOUS
 10
3.519560
 20
7.582960
  0
VERTEX
  8
0
  6
CONTINUOUS
 10
3.525720
 20
6.835840
  0
VERTEX
  8
0
  6
CONTINUOUS
 10
3.508560
 20
6.843760
  0
SEQEND
  8
0
  0
SOLID
  8
0
 62
    15
 10
3.525720
 20
6.835840
 11
3.519560
 21
7.582960
 12
3.541120
 22
6.823520
 13
3.535400
 23
7.570640
  0
POLYLINE
  8
0
  6
CONTINUOUS
 66
     1
 40
0.000000
 41
0.000000
  0
VERTEX
  8
0
  6
CONTINUOUS
 10
3.525720
 20
6.835840
  0
VERTEX
  8
0
  6
CONTINUOUS
 10
3.519560
 20
7.582960
  0
VERTEX
  8
0
  6
CONTINUOUS
 10
3.535400
 20
7.570640
  0
VERTEX
  8
0
  6
CONTINUOUS
 10
3.541120
 20
6.823520
  0
VERTEX
  8
0
  6
CONTINUOUS
 10
3.525720
 20
6.835840
  0
SEQEND
  8
0
  0
SOLID
  8
0
 62
    15
 10
3.541120
 20
6.823520
 11
3.535400
 21
7.570640
 12
3.554320
 22
6.807240
 13
3.548600
 23
7.553920
  0
POLYLINE
  8
0
  6
CONTINUOUS
 66
     1
 40
0.000000
 41
0.000000
  0
VERTEX
  8
0
  6
CONTINUOUS
 10
3.541120
 20
6.823520
  0
VERTEX
  8
0
  6
CONTINUOUS
 10
3.535400
 20
7.570640
  0
VERTEX
  8
0
  6
CONTINUOUS
 10
3.548600
 20
7.553920
  0
VERTEX
  8
0
  6
CONTINUOUS
 10
3.554320
 20
6.807240
  0
VERTEX
  8
0
  6
CONTINUOUS
 10
3.541120
 20
6.823520
  0
SEQEND
  8
0
  0
SOLID
  8
0
 62
    15
 10
3.554320
 20
6.807240
 11
3.548600
 21
7.553920
 12
3.564880
 22
6.786120
 13
3.559160
 23
7.533240
  0
POLYLINE
  8
0
  6
CONTINUOUS
 66
     1
 40
0.000000
 41
0.000000
  0
VERTEX
  8
0
  6
CONTINUOUS
 10
3.554320
 20
6.807240
  0
VERTEX
  8
0
  6
CONTINUOUS
 10
3.548600
 20
7.553920
  0
VERTEX
  8
0
  6
CONTINUOUS
 10
3.559160
 20
7.533240
  0
VERTEX
  8
0
  6
CONTINUOUS
 10
3.564880
 20
6.786120
  0
VERTEX
  8
0
  6
CONTINUOUS
 10
3.554320
 20
6.807240
  0
SEQEND
  8
0
  0
SOLID
  8
0
 62
    15
 10
3.564880
 20
6.786120
 11
3.559160
 21
7.533240
 12
3.571920
 22
6.760600
 13
3.566200
 23
7.507720
  0
POLYLINE
  8
0
  6
CONTINUOUS
 66
     1
 40
0.000000
 41
0.000000
  0
VERTEX
  8
0
  6
CONTINUOUS
 10
3.564880
 20
6.786120
  0
VERTEX
  8
0
  6
CONTINUOUS
 10
3.559160
 20
7.533240
  0
VERTEX
  8
0
  6
CONTINUOUS
 10
3.566200
 20
7.507720
  0
VERTEX
  8
0
  6
CONTINUOUS
 10
3.571920
 20
6.760600
  0
VERTEX
  8
0
  6
CONTINUOUS
 10
3.564880
 20
6.786120
  0
SEQEND
  8
0
  0
SOLID
  8
0
 62
    15
 10
3.571920
 20
6.760600
 11
3.566200
 21
7.507720
 12
3.575000
 22
6.730240
 13
3.569280
 23
7.477360
  0
POLYLINE
  8
0
  6
CONTINUOUS
 66
     1
 40
0.000000
 41
0.000000
  0
VERTEX
  8
0
  6
CONTINUOUS
 10
3.571920
 20
6.760600
  0
VERTEX
  8
0
  6
CONTINUOUS
 10
3.566200
 20
7.507720
  0
VERTEX
  8
0
  6
CONTINUOUS
 10
3.569280
 20
7.477360
  0
VERTEX
  8
0
  6
CONTINUOUS
 10
3.575000
 20
6.730240
  0
VERTEX
  8
0
  6
CONTINUOUS
 10
3.571920
 20
6.760600
  0
SEQEND
  8
0
  0
SOLID
  8
0
 62
    15
 10
4.946920
 20
6.669520
 11
4.941200
 21
7.416640
 12
4.997960
 22
6.666440
 13
4.992240
 23
7.413120
  0
POLYLINE
  8
0
  6
CONTINUOUS
 66
     1
 40
0.000000
 41
0.000000
  0
VERTEX
  8
0
  6
CONTINUOUS
 10
4.946920
 20
6.669520
  0
VERTEX
  8
0
  6
CONTINUOUS
 10
4.941200
 20
7.416640
  0
VERTEX
  8
0
  6
CONTINUOUS
 10
4.992240
 20
7.413120
  0
VERTEX
  8
0
  6
CONTINUOUS
 10
4.997960
 20
6.666440
  0
VERTEX
  8
0
  6
CONTINUOUS
 10
4.946920
 20
6.669520
  0
SEQEND
  8
0
  0
SOLID
  8
0
 62
    15
 10
3.575000
 20
6.730240
 11
3.569280
 21
7.477360
 12
4.946920
 22
6.730240
 13
4.941200
 23
7.477360
  0
POLYLINE
  8
0
  6
CONTINUOUS
 66
     1
 40
0.000000
 41
0.000000
  0
VERTEX
  8
0
  6
CONTINUOUS
 10
3.575000
 20
6.730240
  0
VERTEX
  8
0
  6
CONTINUOUS
 10
3.569280
 20
7.477360
  0
VERTEX
  8
0
  6
CONTINUOUS
 10
4.941200
 20
7.477360
  0
VERTEX
  8
0
  6
CONTINUOUS
 10
4.946920
 20
6.730240
  0
VERTEX
  8
0
  6
CONTINUOUS
 10
3.575000
 20
6.730240
  0
SEQEND
  8
0
  0
SOLID
  8
0
 62
    15
 10
4.997960
 20
6.666440
 11
4.992240
 21
7.413120
 12
5.037560
 22
6.657200
 13
5.031840
 23
7.404320
  0
POLYLINE
  8
0
  6
CONTINUOUS
 66
     1
 40
0.000000
 41
0.000000
  0
VERTEX
  8
0
  6
CONTINUOUS
 10
4.997960
 20
6.666440
  0
VERTEX
  8
0
  6
CONTINUOUS
 10
4.992240
 20
7.413120
  0
VERTEX
  8
0
  6
CONTINUOUS
 10
5.031840
 20
7.404320
  0
VERTEX
  8
0
  6
CONTINUOUS
 10
5.037560
 20
6.657200
  0
VERTEX
  8
0
  6
CONTINUOUS
 10
4.997960
 20
6.666440
  0
SEQEND
  8
0
  0
SOLID
  8
0
 62
    15
 10
5.037560
 20
6.657200
 11
5.031840
 21
7.404320
 12
5.068360
 22
6.643120
 13
5.062200
 23
7.390240
  0
POLYLINE
  8
0
  6
CONTINUOUS
 66
     1
 40
0.000000
 41
0.000000
  0
VERTEX
  8
0
  6
CONTINUOUS
 10
5.037560
 20
6.657200
  0
VERTEX
  8
0
  6
CONTINUOUS
 10
5.031840
 20
7.404320
  0
VERTEX
  8
0
  6
CONTINUOUS
 10
5.062200
 20
7.390240
  0
VERTEX
  8
0
  6
CONTINUOUS
 10
5.068360
 20
6.643120
  0
VERTEX
  8
0
  6
CONTINUOUS
 10
5.037560
 20
6.657200
  0
SEQEND
  8
0
  0
SOLID
  8
0
 62
    15
 10
5.068360
 20
6.643120
 11
5.062200
 21
7.390240
 12
5.091680
 22
6.625080
 13
5.085960
 23
7.372200
  0
POLYLINE
  8
0
  6
CONTINUOUS
 66
     1
 40
0.000000
 41
0.000000
  0
VERTEX
  8
0
  6
CONTINUOUS
 10
5.068360
 20
6.643120
  0
VERTEX
  8
0
  6
CONTINUOUS
 10
5.062200
 20
7.390240
  0
VERTEX
  8
0
  6
CONTINUOUS
 10
5.085960
 20
7.372200
  0
VERTEX
  8
0
  6
CONTINUOUS
 10
5.091680
 20
6.625080
  0
VERTEX
  8
0
  6
CONTINUOUS
 10
5.068360
 20
6.643120
  0
SEQEND
  8
0
  0
SOLID
  8
0
 62
    15
 10
5.091680
 20
6.625080
 11
5.085960
 21
7.372200
 12
5.126880
 22
6.580640
 13
5.121160
 23
7.327760
  0
POLYLINE
  8
0
  6
CONTINUOUS
 66
     1
 40
0.000000
 41
0.000000
  0
VERTEX
  8
0
  6
CONTINUOUS
 10
5.091680
 20
6.625080
  0
VERTEX
  8
0
  6
CONTINUOUS
 10
5.085960
 20
7.372200
  0
VERTEX
  8
0
  6
CONTINUOUS
 10
5.121160
 20
7.327760
  0
VERTEX
  8
0
  6
CONTINUOUS
 10
5.126880
 20
6.580640
  0
VERTEX
  8
0
  6
CONTINUOUS
 10
5.091680
 20
6.625080
  0
SEQEND
  8
0
  0
SOLID
  8
0
 62
    15
 10
3.376120
 20
6.758400
 11
3.369960
 21
7.505080
 12
3.381840
 22
6.779960
 13
3.375680
 23
7.527080
  0
POLYLINE
  8
0
  6
CONTINUOUS
 66
     1
 40
0.000000
 41
0.000000
  0
VERTEX
  8
0
  6
CONTINUOUS
 10
3.376120
 20
6.758400
  0
VERTEX
  8
0
  6
CONTINUOUS
 10
3.369960
 20
7.505080
  0
VERTEX
  8
0
  6
CONTINUOUS
 10
3.375680
 20
7.527080
  0
VERTEX
  8
0
  6
CONTINUOUS
 10
3.381840
 20
6.779960
  0
VERTEX
  8
0
  6
CONTINUOUS
 10
3.376120
 20
6.758400
  0
SEQEND
  8
0
  0
SOLID
  8
0
 62
    15
 10
5.143160
 20
6.556440
 11
5.137000
 21
7.303120
 12
5.160760
 22
6.531360
 13
5.155040
 23
7.278480
  0
POLYLINE
  8
0
  6
CONTINUOUS
 66
     1
 40
0.000000
 41
0.000000
  0
VERTEX
  8
0
  6
CONTINUOUS
 10
5.143160
 20
6.556440
  0
VERTEX
  8
0
  6
CONTINUOUS
 10
5.137000
 20
7.303120
  0
VERTEX
  8
0
  6
CONTINUOUS
 10
5.155040
 20
7.278480
  0
VERTEX
  8
0
  6
CONTINUOUS
 10
5.160760
 20
6.531360
  0
VERTEX
  8
0
  6
CONTINUOUS
 10
5.143160
 20
6.556440
  0
SEQEND
  8
0
  0
SOLID
  8
0
 62
    15
 10
5.160760
 20
6.531360
 11
5.155040
 21
7.278480
 12
5.181000
 22
6.509360
 13
5.174840
 23
7.256040
  0
POLYLINE
  8
0
  6
CONTINUOUS
 66
     1
 40
0.000000
 41
0.000000
  0
VERTEX
  8
0
  6
CONTINUOUS
 10
5.160760
 20
6.531360
  0
VERTEX
  8
0
  6
CONTINUOUS
 10
5.155040
 20
7.278480
  0
VERTEX
  8
0
  6
CONTINUOUS
 10
5.174840
 20
7.256040
  0
VERTEX
  8
0
  6
CONTINUOUS
 10
5.181000
 20
6.509360
  0
VERTEX
  8
0
  6
CONTINUOUS
 10
5.160760
 20
6.531360
  0
SEQEND
  8
0
  0
SOLID
  8
0
 62
    15
 10
5.181000
 20
6.509360
 11
5.174840
 21
7.256040
 12
5.202120
 22
6.490880
 13
5.195960
 23
7.238000
  0
POLYLINE
  8
0
  6
CONTINUOUS
 66
     1
 40
0.000000
 41
0.000000
  0
VERTEX
  8
0
  6
CONTINUOUS
 10
5.181000
 20
6.509360
  0
VERTEX
  8
0
  6
CONTINUOUS
 10
5.174840
 20
7.256040
  0
VERTEX
  8
0
  6
CONTINUOUS
 10
5.195960
 20
7.238000
  0
VERTEX
  8
0
  6
CONTINUOUS
 10
5.202120
 20
6.490880
  0
VERTEX
  8
0
  6
CONTINUOUS
 10
5.181000
 20
6.509360
  0
SEQEND
  8
0
  0
SOLID
  8
0
 62
    15
 10
5.202120
 20
6.490880
 11
5.195960
 21
7.238000
 12
5.247440
 22
6.465360
 13
5.241280
 23
7.212480
  0
POLYLINE
  8
0
  6
CONTINUOUS
 66
     1
 40
0.000000
 41
0.000000
  0
VERTEX
  8
0
  6
CONTINUOUS
 10
5.202120
 20
6.490880
  0
VERTEX
  8
0
  6
CONTINUOUS
 10
5.195960
 20
7.238000
  0
VERTEX
  8
0
  6
CONTINUOUS
 10
5.241280
 20
7.212480
  0
VERTEX
  8
0
  6
CONTINUOUS
 10
5.247440
 20
6.465360
  0
VERTEX
  8
0
  6
CONTINUOUS
 10
5.202120
 20
6.490880
  0
SEQEND
  8
0
  0
SOLID
  8
0
 62
    15
 10
5.247440
 20
6.465360
 11
5.241280
 21
7.212480
 12
5.296280
 22
6.451720
 13
5.290560
 23
7.198400
  0
POLYLINE
  8
0
  6
CONTINUOUS
 66
     1
 40
0.000000
 41
0.000000
  0
VERTEX
  8
0
  6
CONTINUOUS
 10
5.247440
 20
6.465360
  0
VERTEX
  8
0
  6
CONTINUOUS
 10
5.241280
 20
7.212480
  0
VERTEX
  8
0
  6
CONTINUOUS
 10
5.290560
 20
7.198400
  0
VERTEX
  8
0
  6
CONTINUOUS
 10
5.296280
 20
6.451720
  0
VERTEX
  8
0
  6
CONTINUOUS
 10
5.247440
 20
6.465360
  0
SEQEND
  8
0
  0
SOLID
  8
0
 62
    15
 10
6.450400
 20
6.261640
 11
6.444680
 21
7.008760
 12
6.502760
 22
6.261640
 13
6.496600
 23
7.008760
  0
POLYLINE
  8
0
  6
CONTINUOUS
 66
     1
 40
0.000000
 41
0.000000
  0
VERTEX
  8
0
  6
CONTINUOUS
 10
6.450400
 20
6.261640
  0
VERTEX
  8
0
  6
CONTINUOUS
 10
6.444680
 20
7.008760
  0
VERTEX
  8
0
  6
CONTINUOUS
 10
6.496600
 20
7.008760
  0
VERTEX
  8
0
  6
CONTINUOUS
 10
6.502760
 20
6.261640
  0
VERTEX
  8
0
  6
CONTINUOUS
 10
6.450400
 20
6.261640
  0
SEQEND
  8
0
  0
SOLID
  8
0
 62
    15
 10
6.446440
 20
6.369880
 11
6.440720
 21
7.116560
 12
6.450400
 22
6.261640
 13
6.444680
 23
7.008760
  0
POLYLINE
  8
0
  6
CONTINUOUS
 66
     1
 40
0.000000
 41
0.000000
  0
VERTEX
  8
0
  6
CONTINUOUS
 10
6.446440
 20
6.369880
  0
VERTEX
  8
0
  6
CONTINUOUS
 10
6.440720
 20
7.116560
  0
VERTEX
  8
0
  6
CONTINUOUS
 10
6.444680
 20
7.008760
  0
VERTEX
  8
0
  6
CONTINUOUS
 10
6.450400
 20
6.261640
  0
VERTEX
  8
0
  6
CONTINUOUS
 10
6.446440
 20
6.369880
  0
SEQEND
  8
0
  0
SOLID
  8
0
 62
    15
 10
5.349080
 20
6.369880
 11
5.343360
 21
7.116560
 12
6.446440
 22
6.369880
 13
6.440720
 23
7.116560
  0
POLYLINE
  8
0
  6
CONTINUOUS
 66
     1
 40
0.000000
 41
0.000000
  0
VERTEX
  8
0
  6
CONTINUOUS
 10
5.349080
 20
6.369880
  0
VERTEX
  8
0
  6
CONTINUOUS
 10
5.343360
 20
7.116560
  0
VERTEX
  8
0
  6
CONTINUOUS
 10
6.440720
 20
7.116560
  0
VERTEX
  8
0
  6
CONTINUOUS
 10
6.446440
 20
6.369880
  0
VERTEX
  8
0
  6
CONTINUOUS
 10
5.349080
 20
6.369880
  0
SEQEND
  8
0
  0
SOLID
  8
0
 62
    15
 10
5.296280
 20
6.451720
 11
5.290560
 21
7.198400
 12
5.349080
 22
6.446880
 13
5.343360
 23
7.194000
  0
POLYLINE
  8
0
  6
CONTINUOUS
 66
     1
 40
0.000000
 41
0.000000
  0
VERTEX
  8
0
  6
CONTINUOUS
 10
5.296280
 20
6.451720
  0
VERTEX
  8
0
  6
CONTINUOUS
 10
5.290560
 20
7.198400
  0
VERTEX
  8
0
  6
CONTINUOUS
 10
5.343360
 20
7.194000
  0
VERTEX
  8
0
  6
CONTINUOUS
 10
5.349080
 20
6.446880
  0
VERTEX
  8
0
  6
CONTINUOUS
 10
5.296280
 20
6.451720
  0
SEQEND
  8
0
  0
SOLID
  8
0
 62
    15
 10
6.502760
 20
6.261640
 11
6.496600
 21
7.008760
 12
6.505400
 22
6.283640
 13
6.499680
 23
7.030760
  0
POLYLINE
  8
0
  6
CONTINUOUS
 66
     1
 40
0.000000
 41
0.000000
  0
VERTEX
  8
0
  6
CONTINUOUS
 10
6.502760
 20
6.261640
  0
VERTEX
  8
0
  6
CONTINUOUS
 10
6.496600
 20
7.008760
  0
VERTEX
  8
0
  6
CONTINUOUS
 10
6.499680
 20
7.030760
  0
VERTEX
  8
0
  6
CONTINUOUS
 10
6.505400
 20
6.283640
  0
VERTEX
  8
0
  6
CONTINUOUS
 10
6.502760
 20
6.261640
  0
SEQEND
  8
0
  0
SOLID
  8
0
 62
    15
 10
6.505400
 20
6.283640
 11
6.499680
 21
7.030760
 12
6.512440
 22
6.303000
 13
6.506720
 23
7.050120
  0
POLYLINE
  8
0
  6
CONTINUOUS
 66
     1
 40
0.000000
 41
0.000000
  0
VERTEX
  8
0
  6
CONTINUOUS
 10
6.505400
 20
6.283640
  0
VERTEX
  8
0
  6
CONTINUOUS
 10
6.499680
 20
7.030760
  0
VERTEX
  8
0
  6
CONTINUOUS
 10
6.506720
 20
7.050120
  0
VERTEX
  8
0
  6
CONTINUOUS
 10
6.512440
 20
6.303000
  0
VERTEX
  8
0
  6
CONTINUOUS
 10
6.505400
 20
6.283640
  0
SEQEND
  8
0
  0
SOLID
  8
0
 62
    15
 10
6.512440
 20
6.303000
 11
6.506720
 21
7.050120
 12
6.536640
 22
6.333800
 13
6.530920
 23
7.080480
  0
POLYLINE
  8
0
  6
CONTINUOUS
 66
     1
 40
0.000000
 41
0.000000
  0
VERTEX
  8
0
  6
CONTINUOUS
 10
6.512440
 20
6.303000
  0
VERTEX
  8
0
  6
CONTINUOUS
 10
6.506720
 20
7.050120
  0
VERTEX
  8
0
  6
CONTINUOUS
 10
6.530920
 20
7.080480
  0
VERTEX
  8
0
  6
CONTINUOUS
 10
6.536640
 20
6.333800
  0
VERTEX
  8
0
  6
CONTINUOUS
 10
6.512440
 20
6.303000
  0
SEQEND
  8
0
  0
SOLID
  8
0
 62
    15
 10
6.536640
 20
6.333800
 11
6.530920
 21
7.080480
 12
6.570520
 22
6.353160
 13
6.564360
 23
7.100280
  0
POLYLINE
  8
0
  6
CONTINUOUS
 66
     1
 40
0.000000
 41
0.000000
  0
VERTEX
  8
0
  6
CONTINUOUS
 10
6.536640
 20
6.333800
  0
VERTEX
  8
0
  6
CONTINUOUS
 10
6.530920
 20
7.080480
  0
VERTEX
  8
0
  6
CONTINUOUS
 10
6.564360
 20
7.100280
  0
VERTEX
  8
0
  6
CONTINUOUS
 10
6.570520
 20
6.353160
  0
VERTEX
  8
0
  6
CONTINUOUS
 10
6.536640
 20
6.333800
  0
SEQEND
  8
0
  0
SOLID
  8
0
 62
    15
 10
6.570520
 20
6.353160
 11
6.564360
 21
7.100280
 12
6.609240
 22
6.361080
 13
6.603080
 23
7.108200
  0
POLYLINE
  8
0
  6
CONTINUOUS
 66
     1
 40
0.000000
 41
0.000000
  0
VERTEX
  8
0
  6
CONTINUOUS
 10
6.570520
 20
6.353160
  0
VERTEX
  8
0
  6
CONTINUOUS
 10
6.564360
 20
7.100280
  0
VERTEX
  8
0
  6
CONTINUOUS
 10
6.603080
 20
7.108200
  0
VERTEX
  8
0
  6
CONTINUOUS
 10
6.609240
 20
6.361080
  0
VERTEX
  8
0
  6
CONTINUOUS
 10
6.570520
 20
6.353160
  0
SEQEND
  8
0
  0
SOLID
  8
0
 62
    15
 10
6.609240
 20
6.361080
 11
6.603080
 21
7.108200
 12
6.647960
 22
6.356680
 13
6.641800
 23
7.103800
  0
POLYLINE
  8
0
  6
CONTINUOUS
 66
     1
 40
0.000000
 41
0.000000
  0
VERTEX
  8
0
  6
CONTINUOUS
 10
6.609240
 20
6.361080
  0
VERTEX
  8
0
  6
CONTINUOUS
 10
6.603080
 20
7.108200
  0
VERTEX
  8
0
  6
CONTINUOUS
 10
6.641800
 20
7.103800
  0
VERTEX
  8
0
  6
CONTINUOUS
 10
6.647960
 20
6.356680
  0
VERTEX
  8
0
  6
CONTINUOUS
 10
6.609240
 20
6.361080
  0
SEQEND
  8
0
  0
SOLID
  8
0
 62
    15
 10
6.647960
 20
6.356680
 11
6.641800
 21
7.103800
 12
6.682280
 22
6.339080
 13
6.676120
 23
7.086200
  0
POLYLINE
  8
0
  6
CONTINUOUS
 66
     1
 40
0.000000
 41
0.000000
  0
VERTEX
  8
0
  6
CONTINUOUS
 10
6.647960
 20
6.356680
  0
VERTEX
  8
0
  6
CONTINUOUS
 10
6.641800
 20
7.103800
  0
VERTEX
  8
0
  6
CONTINUOUS
 10
6.676120
 20
7.086200
  0
VERTEX
  8
0
  6
CONTINUOUS
 10
6.682280
 20
6.339080
  0
VERTEX
  8
0
  6
CONTINUOUS
 10
6.647960
 20
6.356680
  0
SEQEND
  8
0
  0
SOLID
  8
0
 62
    15
 10
6.682280
 20
6.339080
 11
6.676120
 21
7.086200
 12
6.696360
 22
6.325440
 13
6.690200
 23
7.072560
  0
POLYLINE
  8
0
  6
CONTINUOUS
 66
     1
 40
0.000000
 41
0.000000
  0
VERTEX
  8
0
  6
CONTINUOUS
 10
6.682280
 20
6.339080
  0
VERTEX
  8
0
  6
CONTINUOUS
 10
6.676120
 20
7.086200
  0
VERTEX
  8
0
  6
CONTINUOUS
 10
6.690200
 20
7.072560
  0
VERTEX
  8
0
  6
CONTINUOUS
 10
6.696360
 20
6.325440
  0
VERTEX
  8
0
  6
CONTINUOUS
 10
6.682280
 20
6.339080
  0
SEQEND
  8
0
  0
SOLID
  8
0
 62
    15
 10
6.696360
 20
6.325440
 11
6.690200
 21
7.072560
 12
6.707360
 22
6.308280
 13
6.701200
 23
7.055400
  0
POLYLINE
  8
0
  6
CONTINUOUS
 66
     1
 40
0.000000
 41
0.000000
  0
VERTEX
  8
0
  6
CONTINUOUS
 10
6.696360
 20
6.325440
  0
VERTEX
  8
0
  6
CONTINUOUS
 10
6.690200
 20
7.072560
  0
VERTEX
  8
0
  6
CONTINUOUS
 10
6.701200
 20
7.055400
  0
VERTEX
  8
0
  6
CONTINUOUS
 10
6.707360
 20
6.308280
  0
VERTEX
  8
0
  6
CONTINUOUS
 10
6.696360
 20
6.325440
  0
SEQEND
  8
0
  0
SOLID
  8
0
 62
    15
 10
6.714840
 20
6.288040
 11
6.709120
 21
7.034720
 12
6.718800
 22
6.263400
 13
6.712640
 23
7.010520
  0
POLYLINE
  8
0
  6
CONTINUOUS
 66
     1
 40
0.000000
 41
0.000000
  0
VERTEX
  8
0
  6
CONTINUOUS
 10
6.714840
 20
6.288040
  0
VERTEX
  8
0
  6
CONTINUOUS
 10
6.709120
 20
7.034720
  0
VERTEX
  8
0
  6
CONTINUOUS
 10
6.712640
 20
7.010520
  0
VERTEX
  8
0
  6
CONTINUOUS
 10
6.718800
 20
6.263400
  0
VERTEX
  8
0
  6
CONTINUOUS
 10
6.714840
 20
6.288040
  0
SEQEND
  8
0
  0
SOLID
  8
0
 62
    15
 10
6.707360
 20
6.308280
 11
6.701200
 21
7.055400
 12
6.714840
 22
6.288040
 13
6.709120
 23
7.034720
  0
POLYLINE
  8
0
  6
CONTINUOUS
 66
     1
 40
0.000000
 41
0.000000
  0
VERTEX
  8
0
  6
CONTINUOUS
 10
6.707360
 20
6.308280
  0
VERTEX
  8
0
  6
CONTINUOUS
 10
6.701200
 20
7.055400
  0
VERTEX
  8
0
  6
CONTINUOUS
 10
6.709120
 20
7.034720
  0
VERTEX
  8
0
  6
CONTINUOUS
 10
6.714840
 20
6.288040
  0
VERTEX
  8
0
  6
CONTINUOUS
 10
6.707360
 20
6.308280
  0
SEQEND
  8
0
  0
POLYLINE
  8
0
  6
CONTINUOUS
 66
     1
 40
0.000000
 41
0.000000
  0
VERTEX
  8
0
  6
CONTINUOUS
 10
6.717920
 20
6.263400
  0
VERTEX
  8
0
  6
CONTINUOUS
 10
6.717920
 20
5.991040
  0
VERTEX
  8
0
  6
CONTINUOUS
 10
2.888600
 20
5.991040
  0
VERTEX
  8
0
  6
CONTINUOUS
 10
2.888600
 20
6.733760
  0
VERTEX
  8
0
  6
CONTINUOUS
 10
3.374360
 20
6.733760
  0
VERTEX
  8
0
  6
CONTINUOUS
 10
3.376120
 20
6.758400
  0
VERTEX
  8
0
  6
CONTINUOUS
 10
3.381840
 20
6.779960
  0
VERTEX
  8
0
  6
CONTINUOUS
 10
3.403400
 20
6.815160
  0
VERTEX
  8
0
  6
CONTINUOUS
 10
3.435080
 20
6.838480
  0
VERTEX
  8
0
  6
CONTINUOUS
 10
3.471600
 20
6.848600
  0
VERTEX
  8
0
  6
CONTINUOUS
 10
3.508560
 20
6.843760
  0
VERTEX
  8
0
  6
CONTINUOUS
 10
3.525720
 20
6.835840
  0
VERTEX
  8
0
  6
CONTINUOUS
 10
3.541120
 20
6.823520
  0
VERTEX
  8
0
  6
CONTINUOUS
 10
3.554320
 20
6.807240
  0
VERTEX
  8
0
  6
CONTINUOUS
 10
3.564880
 20
6.786120
  0
VERTEX
  8
0
  6
CONTINUOUS
 10
3.571920
 20
6.760600
  0
VERTEX
  8
0
  6
CONTINUOUS
 10
3.575000
 20
6.730240
  0
VERTEX
  8
0
  6
CONTINUOUS
 10
4.946920
 20
6.730240
  0
VERTEX
  8
0
  6
CONTINUOUS
 10
4.946920
 20
6.669520
  0
VERTEX
  8
0
  6
CONTINUOUS
 10
4.997960
 20
6.666440
  0
VERTEX
  8
0
  6
CONTINUOUS
 10
5.037560
 20
6.657200
  0
VERTEX
  8
0
  6
CONTINUOUS
 10
5.068360
 20
6.643120
  0
VERTEX
  8
0
  6
CONTINUOUS
 10
5.091680
 20
6.625080
  0
VERTEX
  8
0
  6
CONTINUOUS
 10
5.126880
 20
6.580640
  0
VERTEX
  8
0
  6
CONTINUOUS
 10
5.143160
 20
6.556440
  0
VERTEX
  8
0
  6
CONTINUOUS
 10
5.160760
 20
6.531360
  0
VERTEX
  8
0
  6
CONTINUOUS
 10
5.181000
 20
6.509360
  0
VERTEX
  8
0
  6
CONTINUOUS
 10
5.202120
 20
6.490880
  0
VERTEX
  8
0
  6
CONTINUOUS
 10
5.247440
 20
6.465360
  0
VERTEX
  8
0
  6
CONTINUOUS
 10
5.296280
 20
6.451720
  0
VERTEX
  8
0
  6
CONTINUOUS
 10
5.349080
 20
6.446880
  0
VERTEX
  8
0
  6
CONTINUOUS
 10
5.349080
 20
6.369880
  0
VERTEX
  8
0
  6
CONTINUOUS
 10
6.446440
 20
6.369880
  0
VERTEX
  8
0
  6
CONTINUOUS
 10
6.450400
 20
6.261640
  0
VERTEX
  8
0
  6
CONTINUOUS
 10
6.502760
 20
6.261640
  0
VERTEX
  8
0
  6
CONTINUOUS
 10
6.505400
 20
6.283640
  0
VERTEX
  8
0
  6
CONTINUOUS
 10
6.512440
 20
6.303000
  0
VERTEX
  8
0
  6
CONTINUOUS
 10
6.536640
 20
6.333800
  0
VERTEX
  8
0
  6
CONTINUOUS
 10
6.570520
 20
6.353160
  0
VERTEX
  8
0
  6
CONTINUOUS
 10
6.609240
 20
6.361080
  0
VERTEX
  8
0
  6
CONTINUOUS
 10
6.647960
 20
6.356680
  0
VERTEX
  8
0
  6
CONTINUOUS
 10
6.682280
 20
6.339080
  0
VERTEX
  8
0
  6
CONTINUOUS
 10
6.696360
 20
6.325440
  0
VERTEX
  8
0
  6
CONTINUOUS
 10
6.707360
 20
6.308280
  0
VERTEX
  8
0
  6
CONTINUOUS
 10
6.714840
 20
6.288040
  0
VERTEX
  8
0
  6
CONTINUOUS
 10
6.718800
 20
6.263400
  0
VERTEX
  8
0
  6
CONTINUOUS
 10
6.717920
 20
6.263400
  0
SEQEND
  8
0
  0
SOLID
  8
0
 62
    15
 10
2.855600
 20
7.050120
 11
2.851640
 21
7.798560
 12
2.867040
 22
7.047480
 13
2.863080
 23
7.795920
  0
POLYLINE
  8
0
  6
CONTINUOUS
 66
     1
 40
0.000000
 41
0.000000
  0
VERTEX
  8
0
  6
CONTINUOUS
 10
2.855600
 20
7.050120
  0
VERTEX
  8
0
  6
CONTINUOUS
 10
2.851640
 20
7.798560
  0
VERTEX
  8
0
  6
CONTINUOUS
 10
2.863080
 20
7.795920
  0
VERTEX
  8
0
  6
CONTINUOUS
 10
2.867040
 20
7.047480
  0
VERTEX
  8
0
  6
CONTINUOUS
 10
2.855600
 20
7.050120
  0
SEQEND
  8
0
  0
SOLID
  8
0
 62
    15
 10
2.321440
 20
5.992800
 11
2.317480
 21
6.741240
 12
2.321440
 22
7.379680
 13
2.317480
 23
8.128120
  0
POLYLINE
  8
0
  6
CONTINUOUS
 66
     1
 40
0.000000
 41
0.000000
  0
VERTEX
  8
0
  6
CONTINUOUS
 10
2.321440
 20
5.992800
  0
VERTEX
  8
0
  6
CONTINUOUS
 10
2.317480
 20
6.741240
  0
VERTEX
  8
0
  6
CONTINUOUS
 10
2.317480
 20
8.128120
  0
VERTEX
  8
0
  6
CONTINUOUS
 10
2.321440
 20
7.379680
  0
VERTEX
  8
0
  6
CONTINUOUS
 10
2.321440
 20
5.992800
  0
SEQEND
  8
0
  0
SOLID
  8
0
 62
    15
 10
2.639560
 20
7.379680
 11
2.635600
 21
8.128120
 12
2.641760
 22
7.329520
 13
2.637360
 23
8.077960
  0
POLYLINE
  8
0
  6
CONTINUOUS
 66
     1
 40
0.000000
 41
0.000000
  0
VERTEX
  8
0
  6
CONTINUOUS
 10
2.639560
 20
7.379680
  0
VERTEX
  8
0
  6
CONTINUOUS
 10
2.635600
 20
8.128120
  0
VERTEX
  8
0
  6
CONTINUOUS
 10
2.637360
 20
8.077960
  0
VERTEX
  8
0
  6
CONTINUOUS
 10
2.641760
 20
7.329520
  0
VERTEX
  8
0
  6
CONTINUOUS
 10
2.639560
 20
7.379680
  0
SEQEND
  8
0
  0
SOLID
  8
0
 62
    15
 10
2.641760
 20
7.329520
 11
2.637360
 21
8.077960
 12
2.647040
 22
7.284640
 13
2.643080
 23
8.033080
  0
POLYLINE
  8
0
  6
CONTINUOUS
 66
     1
 40
0.000000
 41
0.000000
  0
VERTEX
  8
0
  6
CONTINUOUS
 10
2.641760
 20
7.329520
  0
VERTEX
  8
0
  6
CONTINUOUS
 10
2.637360
 20
8.077960
  0
VERTEX
  8
0
  6
CONTINUOUS
 10
2.643080
 20
8.033080
  0
VERTEX
  8
0
  6
CONTINUOUS
 10
2.647040
 20
7.284640
  0
VERTEX
  8
0
  6
CONTINUOUS
 10
2.641760
 20
7.329520
  0
SEQEND
  8
0
  0
SOLID
  8
0
 62
    15
 10
2.647040
 20
7.284640
 11
2.643080
 21
8.033080
 12
2.656280
 22
7.245040
 13
2.651880
 23
7.993480
  0
POLYLINE
  8
0
  6
CONTINUOUS
 66
     1
 40
0.000000
 41
0.000000
  0
VERTEX
  8
0
  6
CONTINUOUS
 10
2.647040
 20
7.284640
  0
VERTEX
  8
0
  6
CONTINUOUS
 10
2.643080
 20
8.033080
  0
VERTEX
  8
0
  6
CONTINUOUS
 10
2.651880
 20
7.993480
  0
VERTEX
  8
0
  6
CONTINUOUS
 10
2.656280
 20
7.245040
  0
VERTEX
  8
0
  6
CONTINUOUS
 10
2.647040
 20
7.284640
  0
SEQEND
  8
0
  0
SOLID
  8
0
 62
    15
 10
2.656280
 20
7.245040
 11
2.651880
 21
7.993480
 12
2.667720
 22
7.210280
 13
2.663760
 23
7.958720
  0
POLYLINE
  8
0
  6
CONTINUOUS
 66
     1
 40
0.000000
 41
0.000000
  0
VERTEX
  8
0
  6
CONTINUOUS
 10
2.656280
 20
7.245040
  0
VERTEX
  8
0
  6
CONTINUOUS
 10
2.651880
 20
7.993480
  0
VERTEX
  8
0
  6
CONTINUOUS
 10
2.663760
 20
7.958720
  0
VERTEX
  8
0
  6
CONTINUOUS
 10
2.667720
 20
7.210280
  0
VERTEX
  8
0
  6
CONTINUOUS
 10
2.656280
 20
7.245040
  0
SEQEND
  8
0
  0
SOLID
  8
0
 62
    15
 10
2.667720
 20
7.210280
 11
2.663760
 21
7.958720
 12
2.681360
 22
7.179920
 13
2.677400
 23
7.928360
  0
POLYLINE
  8
0
  6
CONTINUOUS
 66
     1
 40
0.000000
 41
0.000000
  0
VERTEX
  8
0
  6
CONTINUOUS
 10
2.667720
 20
7.210280
  0
VERTEX
  8
0
  6
CONTINUOUS
 10
2.663760
 20
7.958720
  0
VERTEX
  8
0
  6
CONTINUOUS
 10
2.677400
 20
7.928360
  0
VERTEX
  8
0
  6
CONTINUOUS
 10
2.681360
 20
7.179920
  0
VERTEX
  8
0
  6
CONTINUOUS
 10
2.667720
 20
7.210280
  0
SEQEND
  8
0
  0
SOLID
  8
0
 62
    15
 10
2.681360
 20
7.179920
 11
2.677400
 21
7.928360
 12
2.697640
 22
7.153520
 13
2.693240
 23
7.901960
  0
POLYLINE
  8
0
  6
CONTINUOUS
 66
     1
 40
0.000000
 41
0.000000
  0
VERTEX
  8
0
  6
CONTINUOUS
 10
2.681360
 20
7.179920
  0
VERTEX
  8
0
  6
CONTINUOUS
 10
2.677400
 20
7.928360
  0
VERTEX
  8
0
  6
CONTINUOUS
 10
2.693240
 20
7.901960
  0
VERTEX
  8
0
  6
CONTINUOUS
 10
2.697640
 20
7.153520
  0
VERTEX
  8
0
  6
CONTINUOUS
 10
2.681360
 20
7.179920
  0
SEQEND
  8
0
  0
SOLID
  8
0
 62
    15
 10
2.697640
 20
7.153520
 11
2.693240
 21
7.901960
 12
2.733280
 22
7.112160
 13
2.728880
 23
7.860600
  0
POLYLINE
  8
0
  6
CONTINUOUS
 66
     1
 40
0.000000
 41
0.000000
  0
VERTEX
  8
0
  6
CONTINUOUS
 10
2.697640
 20
7.153520
  0
VERTEX
  8
0
  6
CONTINUOUS
 10
2.693240
 20
7.901960
  0
VERTEX
  8
0
  6
CONTINUOUS
 10
2.728880
 20
7.860600
  0
VERTEX
  8
0
  6
CONTINUOUS
 10
2.733280
 20
7.112160
  0
VERTEX
  8
0
  6
CONTINUOUS
 10
2.697640
 20
7.153520
  0
SEQEND
  8
0
  0
SOLID
  8
0
 62
    15
 10
2.733280
 20
7.112160
 11
2.728880
 21
7.860600
 12
2.771560
 22
7.083560
 13
2.767160
 23
7.832000
  0
POLYLINE
  8
0
  6
CONTINUOUS
 66
     1
 40
0.000000
 41
0.000000
  0
VERTEX
  8
0
  6
CONTINUOUS
 10
2.733280
 20
7.112160
  0
VERTEX
  8
0
  6
CONTINUOUS
 10
2.728880
 20
7.860600
  0
VERTEX
  8
0
  6
CONTINUOUS
 10
2.767160
 20
7.832000
  0
VERTEX
  8
0
  6
CONTINUOUS
 10
2.771560
 20
7.083560
  0
VERTEX
  8
0
  6
CONTINUOUS
 10
2.733280
 20
7.112160
  0
SEQEND
  8
0
  0
SOLID
  8
0
 62
    15
 10
2.771560
 20
7.083560
 11
2.767160
 21
7.832000
 12
2.808960
 22
7.064640
 13
2.804560
 23
7.813520
  0
POLYLINE
  8
0
  6
CONTINUOUS
 66
     1
 40
0.000000
 41
0.000000
  0
VERTEX
  8
0
  6
CONTINUOUS
 10
2.771560
 20
7.083560
  0
VERTEX
  8
0
  6
CONTINUOUS
 10
2.767160
 20
7.832000
  0
VERTEX
  8
0
  6
CONTINUOUS
 10
2.804560
 20
7.813520
  0
VERTEX
  8
0
  6
CONTINUOUS
 10
2.808960
 20
7.064640
  0
VERTEX
  8
0
  6
CONTINUOUS
 10
2.771560
 20
7.083560
  0
SEQEND
  8
0
  0
SOLID
  8
0
 62
    15
 10
2.808960
 20
7.064640
 11
2.804560
 21
7.813520
 12
2.841960
 22
7.053640
 13
2.837560
 23
7.802080
  0
POLYLINE
  8
0
  6
CONTINUOUS
 66
     1
 40
0.000000
 41
0.000000
  0
VERTEX
  8
0
  6
CONTINUOUS
 10
2.808960
 20
7.064640
  0
VERTEX
  8
0
  6
CONTINUOUS
 10
2.804560
 20
7.813520
  0
VERTEX
  8
0
  6
CONTINUOUS
 10
2.837560
 20
7.802080
  0
VERTEX
  8
0
  6
CONTINUOUS
 10
2.841960
 20
7.053640
  0
VERTEX
  8
0
  6
CONTINUOUS
 10
2.808960
 20
7.064640
  0
SEQEND
  8
0
  0
SOLID
  8
0
 62
    15
 10
2.841960
 20
7.053640
 11
2.837560
 21
7.802080
 12
2.855600
 22
7.050120
 13
2.851640
 23
7.798560
  0
POLYLINE
  8
0
  6
CONTINUOUS
 66
     1
 40
0.000000
 41
0.000000
  0
VERTEX
  8
0
  6
CONTINUOUS
 10
2.841960
 20
7.053640
  0
VERTEX
  8
0
  6
CONTINUOUS
 10
2.837560
 20
7.802080
  0
VERTEX
  8
0
  6
CONTINUOUS
 10
2.851640
 20
7.798560
  0
VERTEX
  8
0
  6
CONTINUOUS
 10
2.855600
 20
7.050120
  0
VERTEX
  8
0
  6
CONTINUOUS
 10
2.841960
 20
7.053640
  0
SEQEND
  8
0
  0
SOLID
  8
0
 62
    15
 10
2.321440
 20
7.379680
 11
2.317480
 21
8.128120
 12
2.639560
 22
7.379680
 13
2.635600
 23
8.128120
  0
POLYLINE
  8
0
  6
CONTINUOUS
 66
     1
 40
0.000000
 41
0.000000
  0
VERTEX
  8
0
  6
CONTINUOUS
 10
2.321440
 20
7.379680
  0
VERTEX
  8
0
  6
CONTINUOUS
 10
2.317480
 20
8.128120
  0
VERTEX
  8
0
  6
CONTINUOUS
 10
2.635600
 20
8.128120
  0
VERTEX
  8
0
  6
CONTINUOUS
 10
2.639560
 20
7.379680
  0
VERTEX
  8
0
  6
CONTINUOUS
 10
2.321440
 20
7.379680
  0
SEQEND
  8
0
  0
SOLID
  8
0
 62
    15
 10
2.867040
 20
7.047480
 11
2.863080
 21
7.795920
 12
2.880240
 22
7.045280
 13
2.875840
 23
7.793720
  0
POLYLINE
  8
0
  6
CONTINUOUS
 66
     1
 40
0.000000
 41
0.000000
  0
VERTEX
  8
0
  6
CONTINUOUS
 10
2.867040
 20
7.047480
  0
VERTEX
  8
0
  6
CONTINUOUS
 10
2.863080
 20
7.795920
  0
VERTEX
  8
0
  6
CONTINUOUS
 10
2.875840
 20
7.793720
  0
VERTEX
  8
0
  6
CONTINUOUS
 10
2.880240
 20
7.045280
  0
VERTEX
  8
0
  6
CONTINUOUS
 10
2.867040
 20
7.047480
  0
SEQEND
  8
0
  0
SOLID
  8
0
 62
    15
 10
2.880240
 20
7.045280
 11
2.875840
 21
7.793720
 12
2.898720
 22
7.043520
 13
2.894760
 23
7.791960
  0
POLYLINE
  8
0
  6
CONTINUOUS
 66
     1
 40
0.000000
 41
0.000000
  0
VERTEX
  8
0
  6
CONTINUOUS
 10
2.880240
 20
7.045280
  0
VERTEX
  8
0
  6
CONTINUOUS
 10
2.875840
 20
7.793720
  0
VERTEX
  8
0
  6
CONTINUOUS
 10
2.894760
 20
7.791960
  0
VERTEX
  8
0
  6
CONTINUOUS
 10
2.898720
 20
7.043520
  0
VERTEX
  8
0
  6
CONTINUOUS
 10
2.880240
 20
7.045280
  0
SEQEND
  8
0
  0
SOLID
  8
0
 62
    15
 10
2.898720
 20
7.043520
 11
2.894760
 21
7.791960
 12
2.909720
 22
7.042640
 13
2.905760
 23
7.791080
  0
POLYLINE
  8
0
  6
CONTINUOUS
 66
     1
 40
0.000000
 41
0.000000
  0
VERTEX
  8
0
  6
CONTINUOUS
 10
2.898720
 20
7.043520
  0
VERTEX
  8
0
  6
CONTINUOUS
 10
2.894760
 20
7.791960
  0
VERTEX
  8
0
  6
CONTINUOUS
 10
2.905760
 20
7.791080
  0
VERTEX
  8
0
  6
CONTINUOUS
 10
2.909720
 20
7.042640
  0
VERTEX
  8
0
  6
CONTINUOUS
 10
2.898720
 20
7.043520
  0
SEQEND
  8
0
  0
SOLID
  8
0
 62
    15
 10
2.909720
 20
7.042640
 11
2.905760
 21
7.791080
 12
2.948880
 22
7.038680
 13
2.944920
 23
7.787560
  0
POLYLINE
  8
0
  6
CONTINUOUS
 66
     1
 40
0.000000
 41
0.000000
  0
VERTEX
  8
0
  6
CONTINUOUS
 10
2.909720
 20
7.042640
  0
VERTEX
  8
0
  6
CONTINUOUS
 10
2.905760
 20
7.791080
  0
VERTEX
  8
0
  6
CONTINUOUS
 10
2.944920
 20
7.787560
  0
VERTEX
  8
0
  6
CONTINUOUS
 10
2.948880
 20
7.038680
  0
VERTEX
  8
0
  6
CONTINUOUS
 10
2.909720
 20
7.042640
  0
SEQEND
  8
0
  0
SOLID
  8
0
 62
    15
 10
2.948880
 20
7.038680
 11
2.944920
 21
7.787560
 12
3.011800
 22
7.030760
 13
3.007840
 23
7.779640
  0
POLYLINE
  8
0
  6
CONTINUOUS
 66
     1
 40
0.000000
 41
0.000000
  0
VERTEX
  8
0
  6
CONTINUOUS
 10
2.948880
 20
7.038680
  0
VERTEX
  8
0
  6
CONTINUOUS
 10
2.944920
 20
7.787560
  0
VERTEX
  8
0
  6
CONTINUOUS
 10
3.007840
 20
7.779640
  0
VERTEX
  8
0
  6
CONTINUOUS
 10
3.011800
 20
7.030760
  0
VERTEX
  8
0
  6
CONTINUOUS
 10
2.948880
 20
7.038680
  0
SEQEND
  8
0
  0
SOLID
  8
0
 62
    15
 10
3.011800
 20
7.030760
 11
3.007840
 21
7.779640
 12
3.080440
 22
7.016680
 13
3.076040
 23
7.765120
  0
POLYLINE
  8
0
  6
CONTINUOUS
 66
     1
 40
0.000000
 41
0.000000
  0
VERTEX
  8
0
  6
CONTINUOUS
 10
3.011800
 20
7.030760
  0
VERTEX
  8
0
  6
CONTINUOUS
 10
3.007840
 20
7.779640
  0
VERTEX
  8
0
  6
CONTINUOUS
 10
3.076040
 20
7.765120
  0
VERTEX
  8
0
  6
CONTINUOUS
 10
3.080440
 20
7.016680
  0
VERTEX
  8
0
  6
CONTINUOUS
 10
3.011800
 20
7.030760
  0
SEQEND
  8
0
  0
SOLID
  8
0
 62
    15
 10
3.080440
 20
7.016680
 11
3.076040
 21
7.765120
 12
3.148200
 22
6.993360
 13
3.144240
 23
7.741800
  0
POLYLINE
  8
0
  6
CONTINUOUS
 66
     1
 40
0.000000
 41
0.000000
  0
VERTEX
  8
0
  6
CONTINUOUS
 10
3.080440
 20
7.016680
  0
VERTEX
  8
0
  6
CONTINUOUS
 10
3.076040
 20
7.765120
  0
VERTEX
  8
0
  6
CONTINUOUS
 10
3.144240
 20
7.741800
  0
VERTEX
  8
0
  6
CONTINUOUS
 10
3.148200
 20
6.993360
  0
VERTEX
  8
0
  6
CONTINUOUS
 10
3.080440
 20
7.016680
  0
SEQEND
  8
0
  0
SOLID
  8
0
 62
    15
 10
3.148200
 20
6.993360
 11
3.144240
 21
7.741800
 12
3.209360
 22
6.958160
 13
3.205400
 23
7.706600
  0
POLYLINE
  8
0
  6
CONTINUOUS
 66
     1
 40
0.000000
 41
0.000000
  0
VERTEX
  8
0
  6
CONTINUOUS
 10
3.148200
 20
6.993360
  0
VERTEX
  8
0
  6
CONTINUOUS
 10
3.144240
 20
7.741800
  0
VERTEX
  8
0
  6
CONTINUOUS
 10
3.205400
 20
7.706600
  0
VERTEX
  8
0
  6
CONTINUOUS
 10
3.209360
 20
6.958160
  0
VERTEX
  8
0
  6
CONTINUOUS
 10
3.148200
 20
6.993360
  0
SEQEND
  8
0
  0
SOLID
  8
0
 62
    15
 10
3.209360
 20
6.958160
 11
3.205400
 21
7.706600
 12
3.235320
 22
6.934840
 13
3.230920
 23
7.683280
  0
POLYLINE
  8
0
  6
CONTINUOUS
 66
     1
 40
0.000000
 41
0.000000
  0
VERTEX
  8
0
  6
CONTINUOUS
 10
3.209360
 20
6.958160
  0
VERTEX
  8
0
  6
CONTINUOUS
 10
3.205400
 20
7.706600
  0
VERTEX
  8
0
  6
CONTINUOUS
 10
3.230920
 20
7.683280
  0
VERTEX
  8
0
  6
CONTINUOUS
 10
3.235320
 20
6.934840
  0
VERTEX
  8
0
  6
CONTINUOUS
 10
3.209360
 20
6.958160
  0
SEQEND
  8
0
  0
SOLID
  8
0
 62
    15
 10
3.235320
 20
6.934840
 11
3.230920
 21
7.683280
 12
3.256880
 22
6.908000
 13
3.252480
 23
7.656440
  0
POLYLINE
  8
0
  6
CONTINUOUS
 66
     1
 40
0.000000
 41
0.000000
  0
VERTEX
  8
0
  6
CONTINUOUS
 10
3.235320
 20
6.934840
  0
VERTEX
  8
0
  6
CONTINUOUS
 10
3.230920
 20
7.683280
  0
VERTEX
  8
0
  6
CONTINUOUS
 10
3.252480
 20
7.656440
  0
VERTEX
  8
0
  6
CONTINUOUS
 10
3.256880
 20
6.908000
  0
VERTEX
  8
0
  6
CONTINUOUS
 10
3.235320
 20
6.934840
  0
SEQEND
  8
0
  0
SOLID
  8
0
 62
    15
 10
3.256880
 20
6.908000
 11
3.252480
 21
7.656440
 12
3.273600
 22
6.876320
 13
3.269200
 23
7.624760
  0
POLYLINE
  8
0
  6
CONTINUOUS
 66
     1
 40
0.000000
 41
0.000000
  0
VERTEX
  8
0
  6
CONTINUOUS
 10
3.256880
 20
6.908000
  0
VERTEX
  8
0
  6
CONTINUOUS
 10
3.252480
 20
7.656440
  0
VERTEX
  8
0
  6
CONTINUOUS
 10
3.269200
 20
7.624760
  0
VERTEX
  8
0
  6
CONTINUOUS
 10
3.273600
 20
6.876320
  0
VERTEX
  8
0
  6
CONTINUOUS
 10
3.256880
 20
6.908000
  0
SEQEND
  8
0
  0
SOLID
  8
0
 62
    15
 10
3.273600
 20
6.876320
 11
3.269200
 21
7.624760
 12
3.284160
 22
6.839800
 13
3.280200
 23
7.588240
  0
POLYLINE
  8
0
  6
CONTINUOUS
 66
     1
 40
0.000000
 41
0.000000
  0
VERTEX
  8
0
  6
CONTINUOUS
 10
3.273600
 20
6.876320
  0
VERTEX
  8
0
  6
CONTINUOUS
 10
3.269200
 20
7.624760
  0
VERTEX
  8
0
  6
CONTINUOUS
 10
3.280200
 20
7.588240
  0
VERTEX
  8
0
  6
CONTINUOUS
 10
3.284160
 20
6.839800
  0
VERTEX
  8
0
  6
CONTINUOUS
 10
3.273600
 20
6.876320
  0
SEQEND
  8
0
  0
POLYLINE
  8
0
  6
CONTINUOUS
 66
     1
 40
0.000000
 41
0.000000
  0
VERTEX
  8
0
  6
CONTINUOUS
 10
2.321440
 20
5.992800
  0
VERTEX
  8
0
  6
CONTINUOUS
 10
2.321440
 20
7.379680
  0
VERTEX
  8
0
  6
CONTINUOUS
 10
2.639560
 20
7.379680
  0
VERTEX
  8
0
  6
CONTINUOUS
 10
2.641760
 20
7.329520
  0
VERTEX
  8
0
  6
CONTINUOUS
 10
2.647040
 20
7.284640
  0
VERTEX
  8
0
  6
CONTINUOUS
 10
2.656280
 20
7.245040
  0
VERTEX
  8
0
  6
CONTINUOUS
 10
2.667720
 20
7.210280
  0
VERTEX
  8
0
  6
CONTINUOUS
 10
2.681360
 20
7.179920
  0
VERTEX
  8
0
  6
CONTINUOUS
 10
2.697640
 20
7.153520
  0
VERTEX
  8
0
  6
CONTINUOUS
 10
2.733280
 20
7.112160
  0
VERTEX
  8
0
  6
CONTINUOUS
 10
2.771560
 20
7.083560
  0
VERTEX
  8
0
  6
CONTINUOUS
 10
2.808960
 20
7.064640
  0
VERTEX
  8
0
  6
CONTINUOUS
 10
2.841960
 20
7.053640
  0
VERTEX
  8
0
  6
CONTINUOUS
 10
2.855600
 20
7.050120
  0
VERTEX
  8
0
  6
CONTINUOUS
 10
2.867040
 20
7.047480
  0
VERTEX
  8
0
  6
CONTINUOUS
 10
2.880240
 20
7.045280
  0
VERTEX
  8
0
  6
CONTINUOUS
 10
2.898720
 20
7.043520
  0
VERTEX
  8
0
  6
CONTINUOUS
 10
2.909720
 20
7.042640
  0
VERTEX
  8
0
  6
CONTINUOUS
 10
2.948880
 20
7.038680
  0
VERTEX
  8
0
  6
CONTINUOUS
 10
3.011800
 20
7.030760
  0
VERTEX
  8
0
  6
CONTINUOUS
 10
3.080440
 20
7.016680
  0
VERTEX
  8
0
  6
CONTINUOUS
 10
3.148200
 20
6.993360
  0
VERTEX
  8
0
  6
CONTINUOUS
 10
3.209360
 20
6.958160
  0
VERTEX
  8
0
  6
CONTINUOUS
 10
3.235320
 20
6.934840
  0
VERTEX
  8
0
  6
CONTINUOUS
 10
3.256880
 20
6.908000
  0
VERTEX
  8
0
  6
CONTINUOUS
 10
3.273600
 20
6.876320
  0
VERTEX
  8
0
  6
CONTINUOUS
 10
3.284160
 20
6.839800
  0
VERTEX
  8
0
  6
CONTINUOUS
 10
3.284160
 20
6.735960
  0
VERTEX
  8
0
  6
CONTINUOUS
 10
2.891680
 20
6.735960
  0
VERTEX
  8
0
  6
CONTINUOUS
 10
2.891680
 20
5.992800
  0
VERTEX
  8
0
  6
CONTINUOUS
 10
2.321440
 20
5.992800
  0
SEQEND
  8
0
  0
TEXT
  8
0
 10
2.422200
 20
6.080800
 40
0.138351
  1
845C
 41
1.000000
  7
SN0
 71
     0
 72
     5
 11
2.818700
 21
6.080800
  0
TEXT
  8
0
 10
3.002560
 20
6.082120
 40
0.138351
  1
845A
 41
1.000000
  7
SN0
 71
     0
 72
     5
 11
3.389900
 21
6.082120
  0
TEXT
  8
0
 10
3.447400
 20
1.273360
 40
0.138351
  1
BA  845A 3/4" x 3-7/8"
 41
1.000000
  7
SN0
 71
     0
 72
     5
 11
5.092724
 21
1.273360
  0
TEXT
  8
0
 10
3.447400
 20
1.081960
 40
0.138351
  1
BA  845B 1-3/8" x 15/16"
 41
1.000000
  7
SN0
 71
     0
 72
     5
 11
5.276798
 21
1.081960
  0
SOLID
  8
0
 62
    15
 10
5.117640
 20
2.139280
 11
5.111920
 21
2.886400
 12
5.133920
 22
2.115080
 13
5.127760
 23
2.861760
  0
POLYLINE
  8
0
  6
CONTINUOUS
 66
     1
 40
0.000000
 41
0.000000
  0
VERTEX
  8
0
  6
CONTINUOUS
 10
5.117640
 20
2.139280
  0
VERTEX
  8
0
  6
CONTINUOUS
 10
5.111920
 20
2.886400
  0
VERTEX
  8
0
  6
CONTINUOUS
 10
5.127760
 20
2.861760
  0
VERTEX
  8
0
  6
CONTINUOUS
 10
5.133920
 20
2.115080
  0
VERTEX
  8
0
  6
CONTINUOUS
 10
5.117640
 20
2.139280
  0
SEQEND
  8
0
  0
SOLID
  8
0
 62
    15
 10
2.879360
 20
1.549680
 11
2.873640
 21
2.296800
 12
2.879360
 22
2.292400
 13
2.873640
 23
3.039520
  0
POLYLINE
  8
0
  6
CONTINUOUS
 66
     1
 40
0.000000
 41
0.000000
  0
VERTEX
  8
0
  6
CONTINUOUS
 10
2.879360
 20
1.549680
  0
VERTEX
  8
0
  6
CONTINUOUS
 10
2.873640
 20
2.296800
  0
VERTEX
  8
0
  6
CONTINUOUS
 10
2.873640
 20
3.039520
  0
VERTEX
  8
0
  6
CONTINUOUS
 10
2.879360
 20
2.292400
  0
VERTEX
  8
0
  6
CONTINUOUS
 10
2.879360
 20
1.549680
  0
SEQEND
  8
0
  0
SOLID
  8
0
 62
    15
 10
2.879360
 20
2.292400
 11
2.873640
 21
3.039520
 12
3.365560
 22
2.292400
 13
3.359400
 23
3.039520
  0
POLYLINE
  8
0
  6
CONTINUOUS
 66
     1
 40
0.000000
 41
0.000000
  0
VERTEX
  8
0
  6
CONTINUOUS
 10
2.879360
 20
2.292400
  0
VERTEX
  8
0
  6
CONTINUOUS
 10
2.873640
 20
3.039520
  0
VERTEX
  8
0
  6
CONTINUOUS
 10
3.359400
 20
3.039520
  0
VERTEX
  8
0
  6
CONTINUOUS
 10
3.365560
 20
2.292400
  0
VERTEX
  8
0
  6
CONTINUOUS
 10
2.879360
 20
2.292400
  0
SEQEND
  8
0
  0
SOLID
  8
0
 62
    15
 10
3.365560
 20
2.292400
 11
3.359400
 21
3.039520
 12
3.366880
 22
2.317040
 13
3.360720
 23
3.063720
  0
POLYLINE
  8
0
  6
CONTINUOUS
 66
     1
 40
0.000000
 41
0.000000
  0
VERTEX
  8
0
  6
CONTINUOUS
 10
3.365560
 20
2.292400
  0
VERTEX
  8
0
  6
CONTINUOUS
 10
3.359400
 20
3.039520
  0
VERTEX
  8
0
  6
CONTINUOUS
 10
3.360720
 20
3.063720
  0
VERTEX
  8
0
  6
CONTINUOUS
 10
3.366880
 20
2.317040
  0
VERTEX
  8
0
  6
CONTINUOUS
 10
3.365560
 20
2.292400
  0
SEQEND
  8
0
  0
SOLID
  8
0
 62
    15
 10
3.372600
 20
2.338600
 11
3.366440
 21
3.085720
 12
3.394160
 22
2.373800
 13
3.388440
 23
3.120920
  0
POLYLINE
  8
0
  6
CONTINUOUS
 66
     1
 40
0.000000
 41
0.000000
  0
VERTEX
  8
0
  6
CONTINUOUS
 10
3.372600
 20
2.338600
  0
VERTEX
  8
0
  6
CONTINUOUS
 10
3.366440
 20
3.085720
  0
VERTEX
  8
0
  6
CONTINUOUS
 10
3.388440
 20
3.120920
  0
VERTEX
  8
0
  6
CONTINUOUS
 10
3.394160
 20
2.373800
  0
VERTEX
  8
0
  6
CONTINUOUS
 10
3.372600
 20
2.338600
  0
SEQEND
  8
0
  0
SOLID
  8
0
 62
    15
 10
3.394160
 20
2.373800
 11
3.388440
 21
3.120920
 12
3.425840
 22
2.397120
 13
3.419680
 23
3.144240
  0
POLYLINE
  8
0
  6
CONTINUOUS
 66
     1
 40
0.000000
 41
0.000000
  0
VERTEX
  8
0
  6
CONTINUOUS
 10
3.394160
 20
2.373800
  0
VERTEX
  8
0
  6
CONTINUOUS
 10
3.388440
 20
3.120920
  0
VERTEX
  8
0
  6
CONTINUOUS
 10
3.419680
 20
3.144240
  0
VERTEX
  8
0
  6
CONTINUOUS
 10
3.425840
 20
2.397120
  0
VERTEX
  8
0
  6
CONTINUOUS
 10
3.394160
 20
2.373800
  0
SEQEND
  8
0
  0
SOLID
  8
0
 62
    15
 10
3.425840
 20
2.397120
 11
3.419680
 21
3.144240
 12
3.462360
 22
2.407240
 13
3.456200
 23
3.154360
  0
POLYLINE
  8
0
  6
CONTINUOUS
 66
     1
 40
0.000000
 41
0.000000
  0
VERTEX
  8
0
  6
CONTINUOUS
 10
3.425840
 20
2.397120
  0
VERTEX
  8
0
  6
CONTINUOUS
 10
3.419680
 20
3.144240
  0
VERTEX
  8
0
  6
CONTINUOUS
 10
3.456200
 20
3.154360
  0
VERTEX
  8
0
  6
CONTINUOUS
 10
3.462360
 20
2.407240
  0
VERTEX
  8
0
  6
CONTINUOUS
 10
3.425840
 20
2.397120
  0
SEQEND
  8
0
  0
SOLID
  8
0
 62
    15
 10
3.462360
 20
2.407240
 11
3.456200
 21
3.154360
 12
3.499320
 22
2.402400
 13
3.493160
 23
3.149520
  0
POLYLINE
  8
0
  6
CONTINUOUS
 66
     1
 40
0.000000
 41
0.000000
  0
VERTEX
  8
0
  6
CONTINUOUS
 10
3.462360
 20
2.407240
  0
VERTEX
  8
0
  6
CONTINUOUS
 10
3.456200
 20
3.154360
  0
VERTEX
  8
0
  6
CONTINUOUS
 10
3.493160
 20
3.149520
  0
VERTEX
  8
0
  6
CONTINUOUS
 10
3.499320
 20
2.402400
  0
VERTEX
  8
0
  6
CONTINUOUS
 10
3.462360
 20
2.407240
  0
SEQEND
  8
0
  0
SOLID
  8
0
 62
    15
 10
3.499320
 20
2.402400
 11
3.493160
 21
3.149520
 12
3.516480
 22
2.394480
 13
3.510320
 23
3.141600
  0
POLYLINE
  8
0
  6
CONTINUOUS
 66
     1
 40
0.000000
 41
0.000000
  0
VERTEX
  8
0
  6
CONTINUOUS
 10
3.499320
 20
2.402400
  0
VERTEX
  8
0
  6
CONTINUOUS
 10
3.493160
 20
3.149520
  0
VERTEX
  8
0
  6
CONTINUOUS
 10
3.510320
 20
3.141600
  0
VERTEX
  8
0
  6
CONTINUOUS
 10
3.516480
 20
2.394480
  0
VERTEX
  8
0
  6
CONTINUOUS
 10
3.499320
 20
2.402400
  0
SEQEND
  8
0
  0
SOLID
  8
0
 62
    15
 10
3.516480
 20
2.394480
 11
3.510320
 21
3.141600
 12
3.531880
 22
2.382160
 13
3.526160
 23
3.129280
  0
POLYLINE
  8
0
  6
CONTINUOUS
 66
     1
 40
0.000000
 41
0.000000
  0
VERTEX
  8
0
  6
CONTINUOUS
 10
3.516480
 20
2.394480
  0
VERTEX
  8
0
  6
CONTINUOUS
 10
3.510320
 20
3.141600
  0
VERTEX
  8
0
  6
CONTINUOUS
 10
3.526160
 20
3.129280
  0
VERTEX
  8
0
  6
CONTINUOUS
 10
3.531880
 20
2.382160
  0
VERTEX
  8
0
  6
CONTINUOUS
 10
3.516480
 20
2.394480
  0
SEQEND
  8
0
  0
SOLID
  8
0
 62
    15
 10
3.531880
 20
2.382160
 11
3.526160
 21
3.129280
 12
3.545080
 22
2.365880
 13
3.539360
 23
3.112560
  0
POLYLINE
  8
0
  6
CONTINUOUS
 66
     1
 40
0.000000
 41
0.000000
  0
VERTEX
  8
0
  6
CONTINUOUS
 10
3.531880
 20
2.382160
  0
VERTEX
  8
0
  6
CONTINUOUS
 10
3.526160
 20
3.129280
  0
VERTEX
  8
0
  6
CONTINUOUS
 10
3.539360
 20
3.112560
  0
VERTEX
  8
0
  6
CONTINUOUS
 10
3.545080
 20
2.365880
  0
VERTEX
  8
0
  6
CONTINUOUS
 10
3.531880
 20
2.382160
  0
SEQEND
  8
0
  0
SOLID
  8
0
 62
    15
 10
3.545080
 20
2.365880
 11
3.539360
 21
3.112560
 12
3.555640
 22
2.344760
 13
3.549920
 23
3.091880
  0
POLYLINE
  8
0
  6
CONTINUOUS
 66
     1
 40
0.000000
 41
0.000000
  0
VERTEX
  8
0
  6
CONTINUOUS
 10
3.545080
 20
2.365880
  0
VERTEX
  8
0
  6
CONTINUOUS
 10
3.539360
 20
3.112560
  0
VERTEX
  8
0
  6
CONTINUOUS
 10
3.549920
 20
3.091880
  0
VERTEX
  8
0
  6
CONTINUOUS
 10
3.555640
 20
2.344760
  0
VERTEX
  8
0
  6
CONTINUOUS
 10
3.545080
 20
2.365880
  0
SEQEND
  8
0
  0
SOLID
  8
0
 62
    15
 10
3.555640
 20
2.344760
 11
3.549920
 21
3.091880
 12
3.562680
 22
2.319240
 13
3.556960
 23
3.066360
  0
POLYLINE
  8
0
  6
CONTINUOUS
 66
     1
 40
0.000000
 41
0.000000
  0
VERTEX
  8
0
  6
CONTINUOUS
 10
3.555640
 20
2.344760
  0
VERTEX
  8
0
  6
CONTINUOUS
 10
3.549920
 20
3.091880
  0
VERTEX
  8
0
  6
CONTINUOUS
 10
3.556960
 20
3.066360
  0
VERTEX
  8
0
  6
CONTINUOUS
 10
3.562680
 20
2.319240
  0
VERTEX
  8
0
  6
CONTINUOUS
 10
3.555640
 20
2.344760
  0
SEQEND
  8
0
  0
SOLID
  8
0
 62
    15
 10
3.562680
 20
2.319240
 11
3.556960
 21
3.066360
 12
3.565760
 22
2.288880
 13
3.560040
 23
3.036000
  0
POLYLINE
  8
0
  6
CONTINUOUS
 66
     1
 40
0.000000
 41
0.000000
  0
VERTEX
  8
0
  6
CONTINUOUS
 10
3.562680
 20
2.319240
  0
VERTEX
  8
0
  6
CONTINUOUS
 10
3.556960
 20
3.066360
  0
VERTEX
  8
0
  6
CONTINUOUS
 10
3.560040
 20
3.036000
  0
VERTEX
  8
0
  6
CONTINUOUS
 10
3.565760
 20
2.288880
  0
VERTEX
  8
0
  6
CONTINUOUS
 10
3.562680
 20
2.319240
  0
SEQEND
  8
0
  0
SOLID
  8
0
 62
    15
 10
4.937680
 20
2.228160
 11
4.931960
 21
2.975280
 12
4.988720
 22
2.225080
 13
4.983000
 23
2.971760
  0
POLYLINE
  8
0
  6
CONTINUOUS
 66
     1
 40
0.000000
 41
0.000000
  0
VERTEX
  8
0
  6
CONTINUOUS
 10
4.937680
 20
2.228160
  0
VERTEX
  8
0
  6
CONTINUOUS
 10
4.931960
 20
2.975280
  0
VERTEX
  8
0
  6
CONTINUOUS
 10
4.983000
 20
2.971760
  0
VERTEX
  8
0
  6
CONTINUOUS
 10
4.988720
 20
2.225080
  0
VERTEX
  8
0
  6
CONTINUOUS
 10
4.937680
 20
2.228160
  0
SEQEND
  8
0
  0
SOLID
  8
0
 62
    15
 10
3.565760
 20
2.288880
 11
3.560040
 21
3.036000
 12
4.937680
 22
2.288880
 13
4.931960
 23
3.036000
  0
POLYLINE
  8
0
  6
CONTINUOUS
 66
     1
 40
0.000000
 41
0.000000
  0
VERTEX
  8
0
  6
CONTINUOUS
 10
3.565760
 20
2.288880
  0
VERTEX
  8
0
  6
CONTINUOUS
 10
3.560040
 20
3.036000
  0
VERTEX
  8
0
  6
CONTINUOUS
 10
4.931960
 20
3.036000
  0
VERTEX
  8
0
  6
CONTINUOUS
 10
4.937680
 20
2.288880
  0
VERTEX
  8
0
  6
CONTINUOUS
 10
3.565760
 20
2.288880
  0
SEQEND
  8
0
  0
SOLID
  8
0
 62
    15
 10
4.988720
 20
2.225080
 11
4.983000
 21
2.971760
 12
5.028320
 22
2.215840
 13
5.022600
 23
2.962960
  0
POLYLINE
  8
0
  6
CONTINUOUS
 66
     1
 40
0.000000
 41
0.000000
  0
VERTEX
  8
0
  6
CONTINUOUS
 10
4.988720
 20
2.225080
  0
VERTEX
  8
0
  6
CONTINUOUS
 10
4.983000
 20
2.971760
  0
VERTEX
  8
0
  6
CONTINUOUS
 10
5.022600
 20
2.962960
  0
VERTEX
  8
0
  6
CONTINUOUS
 10
5.028320
 20
2.215840
  0
VERTEX
  8
0
  6
CONTINUOUS
 10
4.988720
 20
2.225080
  0
SEQEND
  8
0
  0
SOLID
  8
0
 62
    15
 10
5.028320
 20
2.215840
 11
5.022600
 21
2.962960
 12
5.059120
 22
2.201760
 13
5.052960
 23
2.948880
  0
POLYLINE
  8
0
  6
CONTINUOUS
 66
     1
 40
0.000000
 41
0.000000
  0
VERTEX
  8
0
  6
CONTINUOUS
 10
5.028320
 20
2.215840
  0
VERTEX
  8
0
  6
CONTINUOUS
 10
5.022600
 20
2.962960
  0
VERTEX
  8
0
  6
CONTINUOUS
 10
5.052960
 20
2.948880
  0
VERTEX
  8
0
  6
CONTINUOUS
 10
5.059120
 20
2.201760
  0
VERTEX
  8
0
  6
CONTINUOUS
 10
5.028320
 20
2.215840
  0
SEQEND
  8
0
  0
SOLID
  8
0
 62
    15
 10
5.059120
 20
2.201760
 11
5.052960
 21
2.948880
 12
5.082440
 22
2.183720
 13
5.076720
 23
2.930840
  0
POLYLINE
  8
0
  6
CONTINUOUS
 66
     1
 40
0.000000
 41
0.000000
  0
VERTEX
  8
0
  6
CONTINUOUS
 10
5.059120
 20
2.201760
  0
VERTEX
  8
0
  6
CONTINUOUS
 10
5.052960
 20
2.948880
  0
VERTEX
  8
0
  6
CONTINUOUS
 10
5.076720
 20
2.930840
  0
VERTEX
  8
0
  6
CONTINUOUS
 10
5.082440
 20
2.183720
  0
VERTEX
  8
0
  6
CONTINUOUS
 10
5.059120
 20
2.201760
  0
SEQEND
  8
0
  0
SOLID
  8
0
 62
    15
 10
5.082440
 20
2.183720
 11
5.076720
 21
2.930840
 12
5.117640
 22
2.139280
 13
5.111920
 23
2.886400
  0
POLYLINE
  8
0
  6
CONTINUOUS
 66
     1
 40
0.000000
 41
0.000000
  0
VERTEX
  8
0
  6
CONTINUOUS
 10
5.082440
 20
2.183720
  0
VERTEX
  8
0
  6
CONTINUOUS
 10
5.076720
 20
2.930840
  0
VERTEX
  8
0
  6
CONTINUOUS
 10
5.111920
 20
2.886400
  0
VERTEX
  8
0
  6
CONTINUOUS
 10
5.117640
 20
2.139280
  0
VERTEX
  8
0
  6
CONTINUOUS
 10
5.082440
 20
2.183720
  0
SEQEND
  8
0
  0
SOLID
  8
0
 62
    15
 10
3.366880
 20
2.317040
 11
3.360720
 21
3.063720
 12
3.372600
 22
2.338600
 13
3.366440
 23
3.085720
  0
POLYLINE
  8
0
  6
CONTINUOUS
 66
     1
 40
0.000000
 41
0.000000
  0
VERTEX
  8
0
  6
CONTINUOUS
 10
3.366880
 20
2.317040
  0
VERTEX
  8
0
  6
CONTINUOUS
 10
3.360720
 20
3.063720
  0
VERTEX
  8
0
  6
CONTINUOUS
 10
3.366440
 20
3.085720
  0
VERTEX
  8
0
  6
CONTINUOUS
 10
3.372600
 20
2.338600
  0
VERTEX
  8
0
  6
CONTINUOUS
 10
3.366880
 20
2.317040
  0
SEQEND
  8
0
  0
SOLID
  8
0
 62
    15
 10
5.133920
 20
2.115080
 11
5.127760
 21
2.861760
 12
5.151520
 22
2.090000
 13
5.145800
 23
2.837120
  0
POLYLINE
  8
0
  6
CONTINUOUS
 66
     1
 40
0.000000
 41
0.000000
  0
VERTEX
  8
0
  6
CONTINUOUS
 10
5.133920
 20
2.115080
  0
VERTEX
  8
0
  6
CONTINUOUS
 10
5.127760
 20
2.861760
  0
VERTEX
  8
0
  6
CONTINUOUS
 10
5.145800
 20
2.837120
  0
VERTEX
  8
0
  6
CONTINUOUS
 10
5.151520
 20
2.090000
  0
VERTEX
  8
0
  6
CONTINUOUS
 10
5.133920
 20
2.115080
  0
SEQEND
  8
0
  0
SOLID
  8
0
 62
    15
 10
5.151520
 20
2.090000
 11
5.145800
 21
2.837120
 12
5.171760
 22
2.068000
 13
5.165600
 23
2.814680
  0
POLYLINE
  8
0
  6
CONTINUOUS
 66
     1
 40
0.000000
 41
0.000000
  0
VERTEX
  8
0
  6
CONTINUOUS
 10
5.151520
 20
2.090000
  0
VERTEX
  8
0
  6
CONTINUOUS
 10
5.145800
 20
2.837120
  0
VERTEX
  8
0
  6
CONTINUOUS
 10
5.165600
 20
2.814680
  0
VERTEX
  8
0
  6
CONTINUOUS
 10
5.171760
 20
2.068000
  0
VERTEX
  8
0
  6
CONTINUOUS
 10
5.151520
 20
2.090000
  0
SEQEND
  8
0
  0
SOLID
  8
0
 62
    15
 10
5.171760
 20
2.068000
 11
5.165600
 21
2.814680
 12
5.192880
 22
2.049520
 13
5.186720
 23
2.796640
  0
POLYLINE
  8
0
  6
CONTINUOUS
 66
     1
 40
0.000000
 41
0.000000
  0
VERTEX
  8
0
  6
CONTINUOUS
 10
5.171760
 20
2.068000
  0
VERTEX
  8
0
  6
CONTINUOUS
 10
5.165600
 20
2.814680
  0
VERTEX
  8
0
  6
CONTINUOUS
 10
5.186720
 20
2.796640
  0
VERTEX
  8
0
  6
CONTINUOUS
 10
5.192880
 20
2.049520
  0
VERTEX
  8
0
  6
CONTINUOUS
 10
5.171760
 20
2.068000
  0
SEQEND
  8
0
  0
SOLID
  8
0
 62
    15
 10
5.192880
 20
2.049520
 11
5.186720
 21
2.796640
 12
5.238200
 22
2.024000
 13
5.232040
 23
2.771120
  0
POLYLINE
  8
0
  6
CONTINUOUS
 66
     1
 40
0.000000
 41
0.000000
  0
VERTEX
  8
0
  6
CONTINUOUS
 10
5.192880
 20
2.049520
  0
VERTEX
  8
0
  6
CONTINUOUS
 10
5.186720
 20
2.796640
  0
VERTEX
  8
0
  6
CONTINUOUS
 10
5.232040
 20
2.771120
  0
VERTEX
  8
0
  6
CONTINUOUS
 10
5.238200
 20
2.024000
  0
VERTEX
  8
0
  6
CONTINUOUS
 10
5.192880
 20
2.049520
  0
SEQEND
  8
0
  0
SOLID
  8
0
 62
    15
 10
5.238200
 20
2.024000
 11
5.232040
 21
2.771120
 12
5.287040
 22
2.010360
 13
5.281320
 23
2.757040
  0
POLYLINE
  8
0
  6
CONTINUOUS
 66
     1
 40
0.000000
 41
0.000000
  0
VERTEX
  8
0
  6
CONTINUOUS
 10
5.238200
 20
2.024000
  0
VERTEX
  8
0
  6
CONTINUOUS
 10
5.232040
 20
2.771120
  0
VERTEX
  8
0
  6
CONTINUOUS
 10
5.281320
 20
2.757040
  0
VERTEX
  8
0
  6
CONTINUOUS
 10
5.287040
 20
2.010360
  0
VERTEX
  8
0
  6
CONTINUOUS
 10
5.238200
 20
2.024000
  0
SEQEND
  8
0
  0
SOLID
  8
0
 62
    15
 10
6.441160
 20
1.820280
 11
6.435440
 21
2.567400
 12
6.493520
 22
1.820280
 13
6.487360
 23
2.567400
  0
POLYLINE
  8
0
  6
CONTINUOUS
 66
     1
 40
0.000000
 41
0.000000
  0
VERTEX
  8
0
  6
CONTINUOUS
 10
6.441160
 20
1.820280
  0
VERTEX
  8
0
  6
CONTINUOUS
 10
6.435440
 20
2.567400
  0
VERTEX
  8
0
  6
CONTINUOUS
 10
6.487360
 20
2.567400
  0
VERTEX
  8
0
  6
CONTINUOUS
 10
6.493520
 20
1.820280
  0
VERTEX
  8
0
  6
CONTINUOUS
 10
6.441160
 20
1.820280
  0
SEQEND
  8
0
  0
SOLID
  8
0
 62
    15
 10
6.437200
 20
1.928520
 11
6.431480
 21
2.675200
 12
6.441160
 22
1.820280
 13
6.435440
 23
2.567400
  0
POLYLINE
  8
0
  6
CONTINUOUS
 66
     1
 40
0.000000
 41
0.000000
  0
VERTEX
  8
0
  6
CONTINUOUS
 10
6.437200
 20
1.928520
  0
VERTEX
  8
0
  6
CONTINUOUS
 10
6.431480
 20
2.675200
  0
VERTEX
  8
0
  6
CONTINUOUS
 10
6.435440
 20
2.567400
  0
VERTEX
  8
0
  6
CONTINUOUS
 10
6.441160
 20
1.820280
  0
VERTEX
  8
0
  6
CONTINUOUS
 10
6.437200
 20
1.928520
  0
SEQEND
  8
0
  0
SOLID
  8
0
 62
    15
 10
5.339840
 20
1.928520
 11
5.334120
 21
2.675200
 12
6.437200
 22
1.928520
 13
6.431480
 23
2.675200
  0
POLYLINE
  8
0
  6
CONTINUOUS
 66
     1
 40
0.000000
 41
0.000000
  0
VERTEX
  8
0
  6
CONTINUOUS
 10
5.339840
 20
1.928520
  0
VERTEX
  8
0
  6
CONTINUOUS
 10
5.334120
 20
2.675200
  0
VERTEX
  8
0
  6
CONTINUOUS
 10
6.431480
 20
2.675200
  0
VERTEX
  8
0
  6
CONTINUOUS
 10
6.437200
 20
1.928520
  0
VERTEX
  8
0
  6
CONTINUOUS
 10
5.339840
 20
1.928520
  0
SEQEND
  8
0
  0
SOLID
  8
0
 62
    15
 10
5.287040
 20
2.010360
 11
5.281320
 21
2.757040
 12
5.339840
 22
2.005520
 13
5.334120
 23
2.752640
  0
POLYLINE
  8
0
  6
CONTINUOUS
 66
     1
 40
0.000000
 41
0.000000
  0
VERTEX
  8
0
  6
CONTINUOUS
 10
5.287040
 20
2.010360
  0
VERTEX
  8
0
  6
CONTINUOUS
 10
5.281320
 20
2.757040
  0
VERTEX
  8
0
  6
CONTINUOUS
 10
5.334120
 20
2.752640
  0
VERTEX
  8
0
  6
CONTINUOUS
 10
5.339840
 20
2.005520
  0
VERTEX
  8
0
  6
CONTINUOUS
 10
5.287040
 20
2.010360
  0
SEQEND
  8
0
  0
SOLID
  8
0
 62
    15
 10
6.493520
 20
1.820280
 11
6.487360
 21
2.567400
 12
6.496160
 22
1.842280
 13
6.490440
 23
2.589400
  0
POLYLINE
  8
0
  6
CONTINUOUS
 66
     1
 40
0.000000
 41
0.000000
  0
VERTEX
  8
0
  6
CONTINUOUS
 10
6.493520
 20
1.820280
  0
VERTEX
  8
0
  6
CONTINUOUS
 10
6.487360
 20
2.567400
  0
VERTEX
  8
0
  6
CONTINUOUS
 10
6.490440
 20
2.589400
  0
VERTEX
  8
0
  6
CONTINUOUS
 10
6.496160
 20
1.842280
  0
VERTEX
  8
0
  6
CONTINUOUS
 10
6.493520
 20
1.820280
  0
SEQEND
  8
0
  0
SOLID
  8
0
 62
    15
 10
6.496160
 20
1.842280
 11
6.490440
 21
2.589400
 12
6.503200
 22
1.861640
 13
6.497480
 23
2.608760
  0
POLYLINE
  8
0
  6
CONTINUOUS
 66
     1
 40
0.000000
 41
0.000000
  0
VERTEX
  8
0
  6
CONTINUOUS
 10
6.496160
 20
1.842280
  0
VERTEX
  8
0
  6
CONTINUOUS
 10
6.490440
 20
2.589400
  0
VERTEX
  8
0
  6
CONTINUOUS
 10
6.497480
 20
2.608760
  0
VERTEX
  8
0
  6
CONTINUOUS
 10
6.503200
 20
1.861640
  0
VERTEX
  8
0
  6
CONTINUOUS
 10
6.496160
 20
1.842280
  0
SEQEND
  8
0
  0
SOLID
  8
0
 62
    15
 10
6.503200
 20
1.861640
 11
6.497480
 21
2.608760
 12
6.527400
 22
1.892440
 13
6.521680
 23
2.639120
  0
POLYLINE
  8
0
  6
CONTINUOUS
 66
     1
 40
0.000000
 41
0.000000
  0
VERTEX
  8
0
  6
CONTINUOUS
 10
6.503200
 20
1.861640
  0
VERTEX
  8
0
  6
CONTINUOUS
 10
6.497480
 20
2.608760
  0
VERTEX
  8
0
  6
CONTINUOUS
 10
6.521680
 20
2.639120
  0
VERTEX
  8
0
  6
CONTINUOUS
 10
6.527400
 20
1.892440
  0
VERTEX
  8
0
  6
CONTINUOUS
 10
6.503200
 20
1.861640
  0
SEQEND
  8
0
  0
SOLID
  8
0
 62
    15
 10
6.527400
 20
1.892440
 11
6.521680
 21
2.639120
 12
6.561280
 22
1.911800
 13
6.555560
 23
2.658920
  0
POLYLINE
  8
0
  6
CONTINUOUS
 66
     1
 40
0.000000
 41
0.000000
  0
VERTEX
  8
0
  6
CONTINUOUS
 10
6.527400
 20
1.892440
  0
VERTEX
  8
0
  6
CONTINUOUS
 10
6.521680
 20
2.639120
  0
VERTEX
  8
0
  6
CONTINUOUS
 10
6.555560
 20
2.658920
  0
VERTEX
  8
0
  6
CONTINUOUS
 10
6.561280
 20
1.911800
  0
VERTEX
  8
0
  6
CONTINUOUS
 10
6.527400
 20
1.892440
  0
SEQEND
  8
0
  0
SOLID
  8
0
 62
    15
 10
6.561280
 20
1.911800
 11
6.555560
 21
2.658920
 12
6.600000
 22
1.919720
 13
6.593840
 23
2.666840
  0
POLYLINE
  8
0
  6
CONTINUOUS
 66
     1
 40
0.000000
 41
0.000000
  0
VERTEX
  8
0
  6
CONTINUOUS
 10
6.561280
 20
1.911800
  0
VERTEX
  8
0
  6
CONTINUOUS
 10
6.555560
 20
2.658920
  0
VERTEX
  8
0
  6
CONTINUOUS
 10
6.593840
 20
2.666840
  0
VERTEX
  8
0
  6
CONTINUOUS
 10
6.600000
 20
1.919720
  0
VERTEX
  8
0
  6
CONTINUOUS
 10
6.561280
 20
1.911800
  0
SEQEND
  8
0
  0
SOLID
  8
0
 62
    15
 10
6.600000
 20
1.919720
 11
6.593840
 21
2.666840
 12
6.638720
 22
1.915320
 13
6.632560
 23
2.662440
  0
POLYLINE
  8
0
  6
CONTINUOUS
 66
     1
 40
0.000000
 41
0.000000
  0
VERTEX
  8
0
  6
CONTINUOUS
 10
6.600000
 20
1.919720
  0
VERTEX
  8
0
  6
CONTINUOUS
 10
6.593840
 20
2.666840
  0
VERTEX
  8
0
  6
CONTINUOUS
 10
6.632560
 20
2.662440
  0
VERTEX
  8
0
  6
CONTINUOUS
 10
6.638720
 20
1.915320
  0
VERTEX
  8
0
  6
CONTINUOUS
 10
6.600000
 20
1.919720
  0
SEQEND
  8
0
  0
SOLID
  8
0
 62
    15
 10
6.638720
 20
1.915320
 11
6.632560
 21
2.662440
 12
6.673040
 22
1.897720
 13
6.666880
 23
2.644840
  0
POLYLINE
  8
0
  6
CONTINUOUS
 66
     1
 40
0.000000
 41
0.000000
  0
VERTEX
  8
0
  6
CONTINUOUS
 10
6.638720
 20
1.915320
  0
VERTEX
  8
0
  6
CONTINUOUS
 10
6.632560
 20
2.662440
  0
VERTEX
  8
0
  6
CONTINUOUS
 10
6.666880
 20
2.644840
  0
VERTEX
  8
0
  6
CONTINUOUS
 10
6.673040
 20
1.897720
  0
VERTEX
  8
0
  6
CONTINUOUS
 10
6.638720
 20
1.915320
  0
SEQEND
  8
0
  0
SOLID
  8
0
 62
    15
 10
6.673040
 20
1.897720
 11
6.666880
 21
2.644840
 12
6.687120
 22
1.884080
 13
6.680960
 23
2.631200
  0
POLYLINE
  8
0
  6
CONTINUOUS
 66
     1
 40
0.000000
 41
0.000000
  0
VERTEX
  8
0
  6
CONTINUOUS
 10
6.673040
 20
1.897720
  0
VERTEX
  8
0
  6
CONTINUOUS
 10
6.666880
 20
2.644840
  0
VERTEX
  8
0
  6
CONTINUOUS
 10
6.680960
 20
2.631200
  0
VERTEX
  8
0
  6
CONTINUOUS
 10
6.687120
 20
1.884080
  0
VERTEX
  8
0
  6
CONTINUOUS
 10
6.673040
 20
1.897720
  0
SEQEND
  8
0
  0
SOLID
  8
0
 62
    15
 10
6.687120
 20
1.884080
 11
6.680960
 21
2.631200
 12
6.698120
 22
1.866920
 13
6.691960
 23
2.614040
  0
POLYLINE
  8
0
  6
CONTINUOUS
 66
     1
 40
0.000000
 41
0.000000
  0
VERTEX
  8
0
  6
CONTINUOUS
 10
6.687120
 20
1.884080
  0
VERTEX
  8
0
  6
CONTINUOUS
 10
6.680960
 20
2.631200
  0
VERTEX
  8
0
  6
CONTINUOUS
 10
6.691960
 20
2.614040
  0
VERTEX
  8
0
  6
CONTINUOUS
 10
6.698120
 20
1.866920
  0
VERTEX
  8
0
  6
CONTINUOUS
 10
6.687120
 20
1.884080
  0
SEQEND
  8
0
  0
SOLID
  8
0
 62
    15
 10
6.705600
 20
1.846680
 11
6.699880
 21
2.593360
 12
6.709560
 22
1.822040
 13
6.703400
 23
2.569160
  0
POLYLINE
  8
0
  6
CONTINUOUS
 66
     1
 40
0.000000
 41
0.000000
  0
VERTEX
  8
0
  6
CONTINUOUS
 10
6.705600
 20
1.846680
  0
VERTEX
  8
0
  6
CONTINUOUS
 10
6.699880
 20
2.593360
  0
VERTEX
  8
0
  6
CONTINUOUS
 10
6.703400
 20
2.569160
  0
VERTEX
  8
0
  6
CONTINUOUS
 10
6.709560
 20
1.822040
  0
VERTEX
  8
0
  6
CONTINUOUS
 10
6.705600
 20
1.846680
  0
SEQEND
  8
0
  0
SOLID
  8
0
 62
    15
 10
6.698120
 20
1.866920
 11
6.691960
 21
2.614040
 12
6.705600
 22
1.846680
 13
6.699880
 23
2.593360
  0
POLYLINE
  8
0
  6
CONTINUOUS
 66
     1
 40
0.000000
 41
0.000000
  0
VERTEX
  8
0
  6
CONTINUOUS
 10
6.698120
 20
1.866920
  0
VERTEX
  8
0
  6
CONTINUOUS
 10
6.691960
 20
2.614040
  0
VERTEX
  8
0
  6
CONTINUOUS
 10
6.699880
 20
2.593360
  0
VERTEX
  8
0
  6
CONTINUOUS
 10
6.705600
 20
1.846680
  0
VERTEX
  8
0
  6
CONTINUOUS
 10
6.698120
 20
1.866920
  0
SEQEND
  8
0
  0
POLYLINE
  8
0
  6
CONTINUOUS
 66
     1
 40
0.000000
 41
0.000000
  0
VERTEX
  8
0
  6
CONTINUOUS
 10
6.708680
 20
1.822040
  0
VERTEX
  8
0
  6
CONTINUOUS
 10
6.708680
 20
1.549680
  0
VERTEX
  8
0
  6
CONTINUOUS
 10
2.879360
 20
1.549680
  0
VERTEX
  8
0
  6
CONTINUOUS
 10
2.879360
 20
2.292400
  0
VERTEX
  8
0
  6
CONTINUOUS
 10
3.365560
 20
2.292400
  0
VERTEX
  8
0
  6
CONTINUOUS
 10
3.366880
 20
2.317040
  0
VERTEX
  8
0
  6
CONTINUOUS
 10
3.372600
 20
2.338600
  0
VERTEX
  8
0
  6
CONTINUOUS
 10
3.394160
 20
2.373800
  0
VERTEX
  8
0
  6
CONTINUOUS
 10
3.425840
 20
2.397120
  0
VERTEX
  8
0
  6
CONTINUOUS
 10
3.462360
 20
2.407240
  0
VERTEX
  8
0
  6
CONTINUOUS
 10
3.499320
 20
2.402400
  0
VERTEX
  8
0
  6
CONTINUOUS
 10
3.516480
 20
2.394480
  0
VERTEX
  8
0
  6
CONTINUOUS
 10
3.531880
 20
2.382160
  0
VERTEX
  8
0
  6
CONTINUOUS
 10
3.545080
 20
2.365880
  0
VERTEX
  8
0
  6
CONTINUOUS
 10
3.555640
 20
2.344760
  0
VERTEX
  8
0
  6
CONTINUOUS
 10
3.562680
 20
2.319240
  0
VERTEX
  8
0
  6
CONTINUOUS
 10
3.565760
 20
2.288880
  0
VERTEX
  8
0
  6
CONTINUOUS
 10
4.937680
 20
2.288880
  0
VERTEX
  8
0
  6
CONTINUOUS
 10
4.937680
 20
2.228160
  0
VERTEX
  8
0
  6
CONTINUOUS
 10
4.988720
 20
2.225080
  0
VERTEX
  8
0
  6
CONTINUOUS
 10
5.028320
 20
2.215840
  0
VERTEX
  8
0
  6
CONTINUOUS
 10
5.059120
 20
2.201760
  0
VERTEX
  8
0
  6
CONTINUOUS
 10
5.082440
 20
2.183720
  0
VERTEX
  8
0
  6
CONTINUOUS
 10
5.117640
 20
2.139280
  0
VERTEX
  8
0
  6
CONTINUOUS
 10
5.133920
 20
2.115080
  0
VERTEX
  8
0
  6
CONTINUOUS
 10
5.151520
 20
2.090000
  0
VERTEX
  8
0
  6
CONTINUOUS
 10
5.171760
 20
2.068000
  0
VERTEX
  8
0
  6
CONTINUOUS
 10
5.192880
 20
2.049520
  0
VERTEX
  8
0
  6
CONTINUOUS
 10
5.238200
 20
2.024000
  0
VERTEX
  8
0
  6
CONTINUOUS
 10
5.287040
 20
2.010360
  0
VERTEX
  8
0
  6
CONTINUOUS
 10
5.339840
 20
2.005520
  0
VERTEX
  8
0
  6
CONTINUOUS
 10
5.339840
 20
1.928520
  0
VERTEX
  8
0
  6
CONTINUOUS
 10
6.437200
 20
1.928520
  0
VERTEX
  8
0
  6
CONTINUOUS
 10
6.441160
 20
1.820280
  0
VERTEX
  8
0
  6
CONTINUOUS
 10
6.493520
 20
1.820280
  0
VERTEX
  8
0
  6
CONTINUOUS
 10
6.496160
 20
1.842280
  0
VERTEX
  8
0
  6
CONTINUOUS
 10
6.503200
 20
1.861640
  0
VERTEX
  8
0
  6
CONTINUOUS
 10
6.527400
 20
1.892440
  0
VERTEX
  8
0
  6
CONTINUOUS
 10
6.561280
 20
1.911800
  0
VERTEX
  8
0
  6
CONTINUOUS
 10
6.600000
 20
1.919720
  0
VERTEX
  8
0
  6
CONTINUOUS
 10
6.638720
 20
1.915320
  0
VERTEX
  8
0
  6
CONTINUOUS
 10
6.673040
 20
1.897720
  0
VERTEX
  8
0
  6
CONTINUOUS
 10
6.687120
 20
1.884080
  0
VERTEX
  8
0
  6
CONTINUOUS
 10
6.698120
 20
1.866920
  0
VERTEX
  8
0
  6
CONTINUOUS
 10
6.705600
 20
1.846680
  0
VERTEX
  8
0
  6
CONTINUOUS
 10
6.709560
 20
1.822040
  0
VERTEX
  8
0
  6
CONTINUOUS
 10
6.708680
 20
1.822040
  0
SEQEND
  8
0
  0
SOLID
  8
0
 62
    15
 10
3.118720
 20
2.662880
 11
3.120480
 21
3.410000
 12
3.153480
 22
2.628120
 13
3.155680
 23
3.375680
  0
POLYLINE
  8
0
  6
CONTINUOUS
 66
     1
 40
0.000000
 41
0.000000
  0
VERTEX
  8
0
  6
CONTINUOUS
 10
3.118720
 20
2.662880
  0
VERTEX
  8
0
  6
CONTINUOUS
 10
3.120480
 20
3.410000
  0
VERTEX
  8
0
  6
CONTINUOUS
 10
3.155680
 20
3.375680
  0
VERTEX
  8
0
  6
CONTINUOUS
 10
3.153480
 20
2.628120
  0
VERTEX
  8
0
  6
CONTINUOUS
 10
3.118720
 20
2.662880
  0
SEQEND
  8
0
  0
SOLID
  8
0
 62
    15
 10
2.326720
 20
2.912800
 11
2.328480
 21
3.659920
 12
2.772880
 22
2.912800
 13
2.774640
 23
3.659920
  0
POLYLINE
  8
0
  6
CONTINUOUS
 66
     1
 40
0.000000
 41
0.000000
  0
VERTEX
  8
0
  6
CONTINUOUS
 10
2.326720
 20
2.912800
  0
VERTEX
  8
0
  6
CONTINUOUS
 10
2.328480
 20
3.659920
  0
VERTEX
  8
0
  6
CONTINUOUS
 10
2.774640
 20
3.659920
  0
VERTEX
  8
0
  6
CONTINUOUS
 10
2.772880
 20
2.912800
  0
VERTEX
  8
0
  6
CONTINUOUS
 10
2.326720
 20
2.912800
  0
SEQEND
  8
0
  0
SOLID
  8
0
 62
    15
 10
2.772880
 20
2.912800
 11
2.774640
 21
3.659920
 12
2.772880
 22
2.797520
 13
2.774640
 23
3.544640
  0
POLYLINE
  8
0
  6
CONTINUOUS
 66
     1
 40
0.000000
 41
0.000000
  0
VERTEX
  8
0
  6
CONTINUOUS
 10
2.772880
 20
2.912800
  0
VERTEX
  8
0
  6
CONTINUOUS
 10
2.774640
 20
3.659920
  0
VERTEX
  8
0
  6
CONTINUOUS
 10
2.774640
 20
3.544640
  0
VERTEX
  8
0
  6
CONTINUOUS
 10
2.772880
 20
2.797520
  0
VERTEX
  8
0
  6
CONTINUOUS
 10
2.772880
 20
2.912800
  0
SEQEND
  8
0
  0
SOLID
  8
0
 62
    15
 10
2.772880
 20
2.797520
 11
2.774640
 21
3.544640
 12
2.864400
 22
2.788720
 13
2.866160
 23
3.535840
  0
POLYLINE
  8
0
  6
CONTINUOUS
 66
     1
 40
0.000000
 41
0.000000
  0
VERTEX
  8
0
  6
CONTINUOUS
 10
2.772880
 20
2.797520
  0
VERTEX
  8
0
  6
CONTINUOUS
 10
2.774640
 20
3.544640
  0
VERTEX
  8
0
  6
CONTINUOUS
 10
2.866160
 20
3.535840
  0
VERTEX
  8
0
  6
CONTINUOUS
 10
2.864400
 20
2.788720
  0
VERTEX
  8
0
  6
CONTINUOUS
 10
2.772880
 20
2.797520
  0
SEQEND
  8
0
  0
SOLID
  8
0
 62
    15
 10
2.882000
 20
2.293720
 11
2.883760
 21
3.040840
 12
2.882000
 22
1.550120
 13
2.883760
 23
2.297240
  0
POLYLINE
  8
0
  6
CONTINUOUS
 66
     1
 40
0.000000
 41
0.000000
  0
VERTEX
  8
0
  6
CONTINUOUS
 10
2.882000
 20
2.293720
  0
VERTEX
  8
0
  6
CONTINUOUS
 10
2.883760
 20
3.040840
  0
VERTEX
  8
0
  6
CONTINUOUS
 10
2.883760
 20
2.297240
  0
VERTEX
  8
0
  6
CONTINUOUS
 10
2.882000
 20
1.550120
  0
VERTEX
  8
0
  6
CONTINUOUS
 10
2.882000
 20
2.293720
  0
SEQEND
  8
0
  0
SOLID
  8
0
 62
    15
 10
2.954600
 20
2.762760
 11
2.956800
 21
3.509880
 12
3.040840
 22
2.720520
 13
3.042600
 23
3.467640
  0
POLYLINE
  8
0
  6
CONTINUOUS
 66
     1
 40
0.000000
 41
0.000000
  0
VERTEX
  8
0
  6
CONTINUOUS
 10
2.954600
 20
2.762760
  0
VERTEX
  8
0
  6
CONTINUOUS
 10
2.956800
 20
3.509880
  0
VERTEX
  8
0
  6
CONTINUOUS
 10
3.042600
 20
3.467640
  0
VERTEX
  8
0
  6
CONTINUOUS
 10
3.040840
 20
2.720520
  0
VERTEX
  8
0
  6
CONTINUOUS
 10
2.954600
 20
2.762760
  0
SEQEND
  8
0
  0
SOLID
  8
0
 62
    15
 10
3.040840
 20
2.720520
 11
3.042600
 21
3.467640
 12
3.080880
 22
2.693240
 13
3.082640
 23
3.440800
  0
POLYLINE
  8
0
  6
CONTINUOUS
 66
     1
 40
0.000000
 41
0.000000
  0
VERTEX
  8
0
  6
CONTINUOUS
 10
3.040840
 20
2.720520
  0
VERTEX
  8
0
  6
CONTINUOUS
 10
3.042600
 20
3.467640
  0
VERTEX
  8
0
  6
CONTINUOUS
 10
3.082640
 20
3.440800
  0
VERTEX
  8
0
  6
CONTINUOUS
 10
3.080880
 20
2.693240
  0
VERTEX
  8
0
  6
CONTINUOUS
 10
3.040840
 20
2.720520
  0
SEQEND
  8
0
  0
SOLID
  8
0
 62
    15
 10
3.080880
 20
2.693240
 11
3.082640
 21
3.440800
 12
3.118720
 22
2.662880
 13
3.120480
 23
3.410000
  0
POLYLINE
  8
0
  6
CONTINUOUS
 66
     1
 40
0.000000
 41
0.000000
  0
VERTEX
  8
0
  6
CONTINUOUS
 10
3.080880
 20
2.693240
  0
VERTEX
  8
0
  6
CONTINUOUS
 10
3.082640
 20
3.440800
  0
VERTEX
  8
0
  6
CONTINUOUS
 10
3.120480
 20
3.410000
  0
VERTEX
  8
0
  6
CONTINUOUS
 10
3.118720
 20
2.662880
  0
VERTEX
  8
0
  6
CONTINUOUS
 10
3.080880
 20
2.693240
  0
SEQEND
  8
0
  0
SOLID
  8
0
 62
    15
 10
2.864400
 20
2.788720
 11
2.866160
 21
3.535840
 12
2.954600
 22
2.762760
 13
2.956800
 23
3.509880
  0
POLYLINE
  8
0
  6
CONTINUOUS
 66
     1
 40
0.000000
 41
0.000000
  0
VERTEX
  8
0
  6
CONTINUOUS
 10
2.864400
 20
2.788720
  0
VERTEX
  8
0
  6
CONTINUOUS
 10
2.866160
 20
3.535840
  0
VERTEX
  8
0
  6
CONTINUOUS
 10
2.956800
 20
3.509880
  0
VERTEX
  8
0
  6
CONTINUOUS
 10
2.954600
 20
2.762760
  0
VERTEX
  8
0
  6
CONTINUOUS
 10
2.864400
 20
2.788720
  0
SEQEND
  8
0
  0
SOLID
  8
0
 62
    15
 10
3.153480
 20
2.628120
 11
3.155680
 21
3.375680
 12
3.185160
 22
2.590280
 13
3.187360
 23
3.337400
  0
POLYLINE
  8
0
  6
CONTINUOUS
 66
     1
 40
0.000000
 41
0.000000
  0
VERTEX
  8
0
  6
CONTINUOUS
 10
3.153480
 20
2.628120
  0
VERTEX
  8
0
  6
CONTINUOUS
 10
3.155680
 20
3.375680
  0
VERTEX
  8
0
  6
CONTINUOUS
 10
3.187360
 20
3.337400
  0
VERTEX
  8
0
  6
CONTINUOUS
 10
3.185160
 20
2.590280
  0
VERTEX
  8
0
  6
CONTINUOUS
 10
3.153480
 20
2.628120
  0
SEQEND
  8
0
  0
SOLID
  8
0
 62
    15
 10
3.185160
 20
2.590280
 11
3.187360
 21
3.337400
 12
3.213320
 22
2.548920
 13
3.215080
 23
3.296040
  0
POLYLINE
  8
0
  6
CONTINUOUS
 66
     1
 40
0.000000
 41
0.000000
  0
VERTEX
  8
0
  6
CONTINUOUS
 10
3.185160
 20
2.590280
  0
VERTEX
  8
0
  6
CONTINUOUS
 10
3.187360
 20
3.337400
  0
VERTEX
  8
0
  6
CONTINUOUS
 10
3.215080
 20
3.296040
  0
VERTEX
  8
0
  6
CONTINUOUS
 10
3.213320
 20
2.548920
  0
VERTEX
  8
0
  6
CONTINUOUS
 10
3.185160
 20
2.590280
  0
SEQEND
  8
0
  0
SOLID
  8
0
 62
    15
 10
3.213320
 20
2.548920
 11
3.215080
 21
3.296040
 12
3.237080
 22
2.504040
 13
3.238840
 23
3.251600
  0
POLYLINE
  8
0
  6
CONTINUOUS
 66
     1
 40
0.000000
 41
0.000000
  0
VERTEX
  8
0
  6
CONTINUOUS
 10
3.213320
 20
2.548920
  0
VERTEX
  8
0
  6
CONTINUOUS
 10
3.215080
 20
3.296040
  0
VERTEX
  8
0
  6
CONTINUOUS
 10
3.238840
 20
3.251600
  0
VERTEX
  8
0
  6
CONTINUOUS
 10
3.237080
 20
2.504040
  0
VERTEX
  8
0
  6
CONTINUOUS
 10
3.213320
 20
2.548920
  0
SEQEND
  8
0
  0
SOLID
  8
0
 62
    15
 10
3.237080
 20
2.504040
 11
3.238840
 21
3.251600
 12
3.256440
 22
2.456080
 13
3.258200
 23
3.203200
  0
POLYLINE
  8
0
  6
CONTINUOUS
 66
     1
 40
0.000000
 41
0.000000
  0
VERTEX
  8
0
  6
CONTINUOUS
 10
3.237080
 20
2.504040
  0
VERTEX
  8
0
  6
CONTINUOUS
 10
3.238840
 20
3.251600
  0
VERTEX
  8
0
  6
CONTINUOUS
 10
3.258200
 20
3.203200
  0
VERTEX
  8
0
  6
CONTINUOUS
 10
3.256440
 20
2.456080
  0
VERTEX
  8
0
  6
CONTINUOUS
 10
3.237080
 20
2.504040
  0
SEQEND
  8
0
  0
SOLID
  8
0
 62
    15
 10
3.256440
 20
2.456080
 11
3.258200
 21
3.203200
 12
3.270520
 22
2.405040
 13
3.272720
 23
3.152160
  0
POLYLINE
  8
0
  6
CONTINUOUS
 66
     1
 40
0.000000
 41
0.000000
  0
VERTEX
  8
0
  6
CONTINUOUS
 10
3.256440
 20
2.456080
  0
VERTEX
  8
0
  6
CONTINUOUS
 10
3.258200
 20
3.203200
  0
VERTEX
  8
0
  6
CONTINUOUS
 10
3.272720
 20
3.152160
  0
VERTEX
  8
0
  6
CONTINUOUS
 10
3.270520
 20
2.405040
  0
VERTEX
  8
0
  6
CONTINUOUS
 10
3.256440
 20
2.456080
  0
SEQEND
  8
0
  0
SOLID
  8
0
 62
    15
 10
3.270520
 20
2.405040
 11
3.272720
 21
3.152160
 12
3.279320
 22
2.350920
 13
3.281520
 23
3.098040
  0
POLYLINE
  8
0
  6
CONTINUOUS
 66
     1
 40
0.000000
 41
0.000000
  0
VERTEX
  8
0
  6
CONTINUOUS
 10
3.270520
 20
2.405040
  0
VERTEX
  8
0
  6
CONTINUOUS
 10
3.272720
 20
3.152160
  0
VERTEX
  8
0
  6
CONTINUOUS
 10
3.281520
 20
3.098040
  0
VERTEX
  8
0
  6
CONTINUOUS
 10
3.279320
 20
2.350920
  0
VERTEX
  8
0
  6
CONTINUOUS
 10
3.270520
 20
2.405040
  0
SEQEND
  8
0
  0
SOLID
  8
0
 62
    15
 10
3.279320
 20
2.350920
 11
3.281520
 21
3.098040
 12
3.282400
 22
2.293720
 13
3.284600
 23
3.040840
  0
POLYLINE
  8
0
  6
CONTINUOUS
 66
     1
 40
0.000000
 41
0.000000
  0
VERTEX
  8
0
  6
CONTINUOUS
 10
3.279320
 20
2.350920
  0
VERTEX
  8
0
  6
CONTINUOUS
 10
3.281520
 20
3.098040
  0
VERTEX
  8
0
  6
CONTINUOUS
 10
3.284600
 20
3.040840
  0
VERTEX
  8
0
  6
CONTINUOUS
 10
3.282400
 20
2.293720
  0
VERTEX
  8
0
  6
CONTINUOUS
 10
3.279320
 20
2.350920
  0
SEQEND
  8
0
  0
POLYLINE
  8
0
  6
CONTINUOUS
 66
     1
 40
0.000000
 41
0.000000
  0
VERTEX
  8
0
  6
CONTINUOUS
 10
2.882000
 20
2.293720
  0
VERTEX
  8
0
  6
CONTINUOUS
 10
2.882000
 20
1.550120
  0
VERTEX
  8
0
  6
CONTINUOUS
 10
2.326720
 20
1.550120
  0
VERTEX
  8
0
  6
CONTINUOUS
 10
2.326720
 20
2.912800
  0
VERTEX
  8
0
  6
CONTINUOUS
 10
2.772880
 20
2.912800
  0
VERTEX
  8
0
  6
CONTINUOUS
 10
2.772880
 20
2.797520
  0
VERTEX
  8
0
  6
CONTINUOUS
 10
2.864400
 20
2.788720
  0
VERTEX
  8
0
  6
CONTINUOUS
 10
2.954600
 20
2.762760
  0
VERTEX
  8
0
  6
CONTINUOUS
 10
3.040840
 20
2.720520
  0
VERTEX
  8
0
  6
CONTINUOUS
 10
3.080880
 20
2.693240
  0
VERTEX
  8
0
  6
CONTINUOUS
 10
3.118720
 20
2.662880
  0
VERTEX
  8
0
  6
CONTINUOUS
 10
3.153480
 20
2.628120
  0
VERTEX
  8
0
  6
CONTINUOUS
 10
3.185160
 20
2.590280
  0
VERTEX
  8
0
  6
CONTINUOUS
 10
3.213320
 20
2.548920
  0
VERTEX
  8
0
  6
CONTINUOUS
 10
3.237080
 20
2.504040
  0
VERTEX
  8
0
  6
CONTINUOUS
 10
3.256440
 20
2.456080
  0
VERTEX
  8
0
  6
CONTINUOUS
 10
3.270520
 20
2.405040
  0
VERTEX
  8
0
  6
CONTINUOUS
 10
3.279320
 20
2.350920
  0
VERTEX
  8
0
  6
CONTINUOUS
 10
3.282400
 20
2.293720
  0
VERTEX
  8
0
  6
CONTINUOUS
 10
2.882000
 20
2.293720
  0
SEQEND
  8
0
  0
TEXT
  8
0
 10
2.432760
 20
1.631520
 40
0.138351
  1
845B 
 41
1.000000
  7
SN0
 71
     0
 72
     5
 11
2.865901
 21
1.631520
  0
TEXT
  8
0
 10
2.999920
 20
1.631520
 40
0.138351
  1
845A
 41
1.000000
  7
SN0
 71
     0
 72
     5
 11
3.387260
 21
1.631520
  0
POLYLINE
  8
0
  6
CONTINUOUS
 66
     1
 40
0.014080
 41
0.014080
  0
VERTEX
  8
0
  6
CONTINUOUS
 10
6.717480
 20
8.645560
  0
VERTEX
  8
0
  6
CONTINUOUS
 10
6.713960
 20
8.669760
  0
VERTEX
  8
0
  6
CONTINUOUS
 10
6.706040
 20
8.690440
  0
VERTEX
  8
0
  6
CONTINUOUS
 10
6.695040
 20
8.707600
  0
VERTEX
  8
0
  6
CONTINUOUS
 10
6.680960
 20
8.721240
  0
VERTEX
  8
0
  6
CONTINUOUS
 10
6.664680
 20
8.731360
  0
VERTEX
  8
0
  6
CONTINUOUS
 10
6.636960
 20
8.741040
  0
VERTEX
  8
0
  6
CONTINUOUS
 10
6.617600
 20
8.743240
  0
VERTEX
  8
0
  6
CONTINUOUS
 10
6.588120
 20
8.740600
  0
VERTEX
  8
0
  6
CONTINUOUS
 10
6.560400
 20
8.731360
  0
VERTEX
  8
0
  6
CONTINUOUS
 10
6.535760
 20
8.715520
  0
VERTEX
  8
0
  6
CONTINUOUS
 10
6.522120
 20
8.701440
  0
VERTEX
  8
0
  6
CONTINUOUS
 10
6.511560
 20
8.684720
  0
VERTEX
  8
0
  6
CONTINUOUS
 10
6.504520
 20
8.665360
  0
VERTEX
  8
0
  6
CONTINUOUS
 10
6.501440
 20
8.643360
  0
VERTEX
  8
0
  6
CONTINUOUS
 10
6.449080
 20
8.643360
  0
VERTEX
  8
0
  6
CONTINUOUS
 10
6.445120
 20
8.751600
  0
VERTEX
  8
0
  6
CONTINUOUS
 10
5.347760
 20
8.751600
  0
VERTEX
  8
0
  6
CONTINUOUS
 10
5.347760
 20
8.829040
  0
VERTEX
  8
0
  6
CONTINUOUS
 10
5.320920
 20
8.830360
  0
VERTEX
  8
0
  6
CONTINUOUS
 10
5.282200
 20
8.836080
  0
VERTEX
  8
0
  6
CONTINUOUS
 10
5.245680
 20
8.847080
  0
VERTEX
  8
0
  6
CONTINUOUS
 10
5.211360
 20
8.865120
  0
VERTEX
  8
0
  6
CONTINUOUS
 10
5.189800
 20
8.881400
  0
VERTEX
  8
0
  6
CONTINUOUS
 10
5.169120
 20
8.901640
  0
VERTEX
  8
0
  6
CONTINUOUS
 10
5.150200
 20
8.925840
  0
VERTEX
  8
0
  6
CONTINUOUS
 10
5.100480
 20
8.996680
  0
VERTEX
  8
0
  6
CONTINUOUS
 10
5.079360
 20
9.016480
  0
VERTEX
  8
0
  6
CONTINUOUS
 10
5.067040
 20
9.025280
  0
VERTEX
  8
0
  6
CONTINUOUS
 10
5.036240
 20
9.039360
  0
VERTEX
  8
0
  6
CONTINUOUS
 10
5.007640
 20
9.046840
  0
VERTEX
  8
0
  6
CONTINUOUS
 10
4.972880
 20
9.050800
  0
VERTEX
  8
0
  6
CONTINUOUS
 10
4.945600
 20
9.051680
  0
VERTEX
  8
0
  6
CONTINUOUS
 10
4.945600
 20
9.112400
  0
VERTEX
  8
0
  6
CONTINUOUS
 10
3.573680
 20
9.112400
  0
VERTEX
  8
0
  6
CONTINUOUS
 10
3.570600
 20
9.142760
  0
VERTEX
  8
0
  6
CONTINUOUS
 10
3.563560
 20
9.167840
  0
VERTEX
  8
0
  6
CONTINUOUS
 10
3.553000
 20
9.188960
  0
VERTEX
  8
0
  6
CONTINUOUS
 10
3.539800
 20
9.205240
  0
VERTEX
  8
0
  6
CONTINUOUS
 10
3.524400
 20
9.217560
  0
VERTEX
  8
0
  6
CONTINUOUS
 10
3.507240
 20
9.225920
  0
VERTEX
  8
0
  6
CONTINUOUS
 10
3.488760
 20
9.229880
  0
VERTEX
  8
0
  6
CONTINUOUS
 10
3.470280
 20
9.230320
  0
VERTEX
  8
0
  6
CONTINUOUS
 10
3.451800
 20
9.227240
  0
VERTEX
  8
0
  6
CONTINUOUS
 10
3.433760
 20
9.220640
  0
VERTEX
  8
0
  6
CONTINUOUS
 10
3.409120
 20
9.204360
  0
VERTEX
  8
0
  6
CONTINUOUS
 10
3.395480
 20
9.189400
  0
VERTEX
  8
0
  6
CONTINUOUS
 10
3.384480
 20
9.171800
  0
VERTEX
  8
0
  6
CONTINUOUS
 10
3.377000
 20
9.151560
  0
VERTEX
  8
0
  6
CONTINUOUS
 10
3.373040
 20
9.128240
  0
VERTEX
  8
0
  6
CONTINUOUS
 10
3.373040
 20
9.115920
  0
VERTEX
  8
0
  6
CONTINUOUS
 10
2.887280
 20
9.115920
  0
VERTEX
  8
0
  6
CONTINUOUS
 10
2.887280
 20
8.373200
  0
VERTEX
  8
0
  6
CONTINUOUS
 10
6.716600
 20
8.373200
  0
VERTEX
  8
0
  6
CONTINUOUS
 10
6.716600
 20
8.645560
  0
SEQEND
  8
0
  0
POLYLINE
  8
0
  6
CONTINUOUS
 66
     1
 40
0.014080
 41
0.014080
  0
VERTEX
  8
0
  6
CONTINUOUS
 10
2.889040
 20
8.374960
  0
VERTEX
  8
0
  6
CONTINUOUS
 10
2.889040
 20
9.114600
  0
VERTEX
  8
0
  6
CONTINUOUS
 10
3.281520
 20
9.114600
  0
VERTEX
  8
0
  6
CONTINUOUS
 10
3.281520
 20
9.218000
  0
VERTEX
  8
0
  6
CONTINUOUS
 10
3.276680
 20
9.236920
  0
VERTEX
  8
0
  6
CONTINUOUS
 10
3.263040
 20
9.270360
  0
VERTEX
  8
0
  6
CONTINUOUS
 10
3.243680
 20
9.299840
  0
VERTEX
  8
0
  6
CONTINUOUS
 10
3.219920
 20
9.324920
  0
VERTEX
  8
0
  6
CONTINUOUS
 10
3.192200
 20
9.346040
  0
VERTEX
  8
0
  6
CONTINUOUS
 10
3.145560
 20
9.371120
  0
VERTEX
  8
0
  6
CONTINUOUS
 10
3.094960
 20
9.389160
  0
VERTEX
  8
0
  6
CONTINUOUS
 10
3.043040
 20
9.402360
  0
VERTEX
  8
0
  6
CONTINUOUS
 10
2.961200
 20
9.414680
  0
VERTEX
  8
0
  6
CONTINUOUS
 10
2.870120
 20
9.423480
  0
VERTEX
  8
0
  6
CONTINUOUS
 10
2.823480
 20
9.435800
  0
VERTEX
  8
0
  6
CONTINUOUS
 10
2.787840
 20
9.450320
  0
VERTEX
  8
0
  6
CONTINUOUS
 10
2.759240
 20
9.466600
  0
VERTEX
  8
0
  6
CONTINUOUS
 10
2.730640
 20
9.489040
  0
VERTEX
  8
0
  6
CONTINUOUS
 10
2.703360
 20
9.518960
  0
VERTEX
  8
0
  6
CONTINUOUS
 10
2.686640
 20
9.543160
  0
VERTEX
  8
0
  6
CONTINUOUS
 10
2.671680
 20
9.570880
  0
VERTEX
  8
0
  6
CONTINUOUS
 10
2.653200
 20
9.621480
  0
VERTEX
  8
0
  6
CONTINUOUS
 10
2.644400
 20
9.660640
  0
VERTEX
  8
0
  6
CONTINUOUS
 10
2.638680
 20
9.705520
  0
VERTEX
  8
0
  6
CONTINUOUS
 10
2.636920
 20
9.755240
  0
VERTEX
  8
0
  6
CONTINUOUS
 10
2.318800
 20
9.755240
  0
VERTEX
  8
0
  6
CONTINUOUS
 10
2.318800
 20
8.374960
  0
VERTEX
  8
0
  6
CONTINUOUS
 10
2.889040
 20
8.374960
  0
SEQEND
  8
0
  0
TEXT
  8
0
 10
3.014880
 20
8.688240
 40
0.138351
  1
BA  845A 3/4" x 3-7/8"
 41
1.000000
  7
SN0
 71
     0
 72
     5
 11
4.660204
 21
8.688240
  0
TEXT
  8
0
 10
3.014880
 20
8.496400
 40
0.138351
  1
BA  845C  1-3/8" x 15/16"
 41
1.000000
  7
SN0
 71
     0
 72
     5
 11
4.899238
 21
8.496400
  0
POLYLINE
  8
0
  6
CONTINUOUS
 66
     1
 40
0.014080
 41
0.014080
  0
VERTEX
  8
0
  6
CONTINUOUS
 10
6.710440
 20
4.177800
  0
VERTEX
  8
0
  6
CONTINUOUS
 10
6.706920
 20
4.202000
  0
VERTEX
  8
0
  6
CONTINUOUS
 10
6.699000
 20
4.222680
  0
VERTEX
  8
0
  6
CONTINUOUS
 10
6.688000
 20
4.239840
  0
VERTEX
  8
0
  6
CONTINUOUS
 10
6.673920
 20
4.253480
  0
VERTEX
  8
0
  6
CONTINUOUS
 10
6.648840
 20
4.267560
  0
VERTEX
  8
0
  6
CONTINUOUS
 10
6.630360
 20
4.272840
  0
VERTEX
  8
0
  6
CONTINUOUS
 10
6.611000
 20
4.275040
  0
VERTEX
  8
0
  6
CONTINUOUS
 10
6.591200
 20
4.274160
  0
VERTEX
  8
0
  6
CONTINUOUS
 10
6.562600
 20
4.267120
  0
VERTEX
  8
0
  6
CONTINUOUS
 10
6.544560
 20
4.258760
  0
VERTEX
  8
0
  6
CONTINUOUS
 10
6.528720
 20
4.247760
  0
VERTEX
  8
0
  6
CONTINUOUS
 10
6.515080
 20
4.233680
  0
VERTEX
  8
0
  6
CONTINUOUS
 10
6.504520
 20
4.216960
  0
VERTEX
  8
0
  6
CONTINUOUS
 10
6.497480
 20
4.197600
  0
VERTEX
  8
0
  6
CONTINUOUS
 10
6.494400
 20
4.175600
  0
VERTEX
  8
0
  6
CONTINUOUS
 10
6.442480
 20
4.175600
  0
VERTEX
  8
0
  6
CONTINUOUS
 10
6.438520
 20
4.283840
  0
VERTEX
  8
0
  6
CONTINUOUS
 10
5.341160
 20
4.283840
  0
VERTEX
  8
0
  6
CONTINUOUS
 10
5.341160
 20
4.360840
  0
VERTEX
  8
0
  6
CONTINUOUS
 10
5.314320
 20
4.362160
  0
VERTEX
  8
0
  6
CONTINUOUS
 10
5.275600
 20
4.368320
  0
VERTEX
  8
0
  6
CONTINUOUS
 10
5.239080
 20
4.379320
  0
VERTEX
  8
0
  6
CONTINUOUS
 10
5.204760
 20
4.397360
  0
VERTEX
  8
0
  6
CONTINUOUS
 10
5.172640
 20
4.423320
  0
VERTEX
  8
0
  6
CONTINUOUS
 10
5.143160
 20
4.458080
  0
VERTEX
  8
0
  6
CONTINUOUS
 10
5.093440
 20
4.528920
  0
VERTEX
  8
0
  6
CONTINUOUS
 10
5.072320
 20
4.548280
  0
VERTEX
  8
0
  6
CONTINUOUS
 10
5.060000
 20
4.557080
  0
VERTEX
  8
0
  6
CONTINUOUS
 10
5.029640
 20
4.571160
  0
VERTEX
  8
0
  6
CONTINUOUS
 10
5.000600
 20
4.578640
  0
VERTEX
  8
0
  6
CONTINUOUS
 10
4.965840
 20
4.582600
  0
VERTEX
  8
0
  6
CONTINUOUS
 10
4.939000
 20
4.583480
  0
VERTEX
  8
0
  6
CONTINUOUS
 10
4.939000
 20
4.644640
  0
VERTEX
  8
0
  6
CONTINUOUS
 10
3.567080
 20
4.644640
  0
VERTEX
  8
0
  6
CONTINUOUS
 10
3.564000
 20
4.675000
  0
VERTEX
  8
0
  6
CONTINUOUS
 10
3.556960
 20
4.700080
  0
VERTEX
  8
0
  6
CONTINUOUS
 10
3.546400
 20
4.721200
  0
VERTEX
  8
0
  6
CONTINUOUS
 10
3.533200
 20
4.737480
  0
VERTEX
  8
0
  6
CONTINUOUS
 10
3.517360
 20
4.749800
  0
VERTEX
  8
0
  6
CONTINUOUS
 10
3.500200
 20
4.758160
  0
VERTEX
  8
0
  6
CONTINUOUS
 10
3.482160
 20
4.762120
  0
VERTEX
  8
0
  6
CONTINUOUS
 10
3.463240
 20
4.762560
  0
VERTEX
  8
0
  6
CONTINUOUS
 10
3.435520
 20
4.756400
  0
VERTEX
  8
0
  6
CONTINUOUS
 10
3.418360
 20
4.748040
  0
VERTEX
  8
0
  6
CONTINUOUS
 10
3.395040
 20
4.729120
  0
VERTEX
  8
0
  6
CONTINUOUS
 10
3.382720
 20
4.712840
  0
VERTEX
  8
0
  6
CONTINUOUS
 10
3.373480
 20
4.693920
  0
VERTEX
  8
0
  6
CONTINUOUS
 10
3.367760
 20
4.671920
  0
VERTEX
  8
0
  6
CONTINUOUS
 10
3.366440
 20
4.647720
  0
VERTEX
  8
0
  6
CONTINUOUS
 10
2.880240
 20
4.647720
  0
VERTEX
  8
0
  6
CONTINUOUS
 10
2.880240
 20
3.905440
  0
VERTEX
  8
0
  6
CONTINUOUS
 10
6.709560
 20
3.905440
  0
VERTEX
  8
0
  6
CONTINUOUS
 10
6.709560
 20
4.177800
  0
SEQEND
  8
0
  0
POLYLINE
  8
0
  6
CONTINUOUS
 66
     1
 40
0.014080
 41
0.014080
  0
VERTEX
  8
0
  6
CONTINUOUS
 10
3.281520
 20
4.648600
  0
VERTEX
  8
0
  6
CONTINUOUS
 10
3.280640
 20
4.677640
  0
VERTEX
  8
0
  6
CONTINUOUS
 10
3.278440
 20
4.705800
  0
VERTEX
  8
0
  6
CONTINUOUS
 10
3.274920
 20
4.733080
  0
VERTEX
  8
0
  6
CONTINUOUS
 10
3.269640
 20
4.759920
  0
VERTEX
  8
0
  6
CONTINUOUS
 10
3.263040
 20
4.785880
  0
VERTEX
  8
0
  6
CONTINUOUS
 10
3.255120
 20
4.810960
  0
VERTEX
  8
0
  6
CONTINUOUS
 10
3.246320
 20
4.835600
  0
VERTEX
  8
0
  6
CONTINUOUS
 10
3.236200
 20
4.858920
  0
VERTEX
  8
0
  6
CONTINUOUS
 10
3.224760
 20
4.881800
  0
VERTEX
  8
0
  6
CONTINUOUS
 10
3.212000
 20
4.903800
  0
VERTEX
  8
0
  6
CONTINUOUS
 10
3.198800
 20
4.924920
  0
VERTEX
  8
0
  6
CONTINUOUS
 10
3.184280
 20
4.945160
  0
VERTEX
  8
0
  6
CONTINUOUS
 10
3.168880
 20
4.964520
  0
VERTEX
  8
0
  6
CONTINUOUS
 10
3.152600
 20
4.983440
  0
VERTEX
  8
0
  6
CONTINUOUS
 10
3.135440
 20
5.001040
  0
VERTEX
  8
0
  6
CONTINUOUS
 10
3.117840
 20
5.017760
  0
VERTEX
  8
0
  6
CONTINUOUS
 10
3.098920
 20
5.033600
  0
VERTEX
  8
0
  6
CONTINUOUS
 10
3.080000
 20
5.048560
  0
VERTEX
  8
0
  6
CONTINUOUS
 10
3.060200
 20
5.062200
  0
VERTEX
  8
0
  6
CONTINUOUS
 10
3.039520
 20
5.075400
  0
VERTEX
  8
0
  6
CONTINUOUS
 10
3.018840
 20
5.087280
  0
VERTEX
  8
0
  6
CONTINUOUS
 10
2.997280
 20
5.098280
  0
VERTEX
  8
0
  6
CONTINUOUS
 10
2.975720
 20
5.108400
  0
VERTEX
  8
0
  6
CONTINUOUS
 10
2.953720
 20
5.117640
  0
VERTEX
  8
0
  6
CONTINUOUS
 10
2.931280
 20
5.125560
  0
VERTEX
  8
0
  6
CONTINUOUS
 10
2.908840
 20
5.132600
  0
VERTEX
  8
0
  6
CONTINUOUS
 10
2.885960
 20
5.138760
  0
VERTEX
  8
0
  6
CONTINUOUS
 10
2.863080
 20
5.143600
  0
VERTEX
  8
0
  6
CONTINUOUS
 10
2.840200
 20
5.147560
  0
VERTEX
  8
0
  6
CONTINUOUS
 10
2.817320
 20
5.150200
  0
VERTEX
  8
0
  6
CONTINUOUS
 10
2.794440
 20
5.151960
  0
VERTEX
  8
0
  6
CONTINUOUS
 10
2.771560
 20
5.152400
  0
VERTEX
  8
0
  6
CONTINUOUS
 10
2.771560
 20
5.267680
  0
VERTEX
  8
0
  6
CONTINUOUS
 10
2.325400
 20
5.267680
  0
VERTEX
  8
0
  6
CONTINUOUS
 10
2.325400
 20
3.905000
  0
VERTEX
  8
0
  6
CONTINUOUS
 10
2.881120
 20
3.905000
  0
VERTEX
  8
0
  6
CONTINUOUS
 10
2.881120
 20
4.648600
  0
VERTEX
  8
0
  6
CONTINUOUS
 10
3.281520
 20
4.648600
  0
SEQEND
  8
0
  0
TEXT
  8
0
 10
3.017960
 20
4.177800
 40
0.138351
  1
BA  845A 3/4" x 3-7/8"
 41
1.000000
  7
SN0
 71
     0
 72
     5
 11
4.663284
 21
4.177800
  0
TEXT
  8
0
 10
3.017960
 20
3.985960
 40
0.138351
  1
BA  845B 1-3/8" x 15/16"
 41
1.000000
  7
SN0
 71
     0
 72
     5
 11
4.847358
 21
3.985960
  0
ENDSEC
  0
EOF
