  0
SECTION
  2
HEADER
  9
$ACADVER
  1
AC1006
  9
$EXTMIN
 10
2.527360
 20
0.730400
  9
$EXTMAX
 10
7.091920
 20
4.207720
  9
$LTSCALE
 40
0.044000
  9
$PDMODE
 70
    35
  9
$PDSIZE
 40
0.035200
  0
ENDSEC
  0
SECTION
  2
TABLES
  0
TABLE
  2
LTYPE
 70
     9
  0
LTYPE
  2
CONTINUOUS
 70
    64
  3
Solid line
 72
    65
 73
     0
 40
0.000000
  0
LTYPE
  2
DASHED
 70
    64
  3
__ __ __ __ __ __ __ __ __ __ __ __ __ __ __
 72
    65
 73
     2
 40
0.000330
 49
0.000220
 49
-0.000110
  0
LTYPE
  2
HIDDEN
 70
    64
  3
 _ _ _ _ _ _ _ _ _ _ _ _ _ _ _ _ _ _ _ _ _ _
 72
    65
 73
     2
 40
0.000165
 49
0.000110
 49
-0.000055
  0
LTYPE
  2
CENTER
 70
    64
  3
____ _ ____ _ ____ _ ____ _ ____ _ ____ _ ____
 72
    65
 73
     4
 40
0.000880
 49
0.000550
 49
-0.000110
 49
0.000110
 49
-0.000110
  0
LTYPE
  2
PHANTOM
 70
    64
  3
_____ _ _ _____ _ _ _____ _ _ _____ _ _ ____
 72
    65
 73
     6
 40
0.001100
 49
0.000550
 49
-0.000110
 49
0.000110
 49
-0.000110
 49
0.000110
 49
-0.000110
  0
LTYPE
  2
DOT
 70
    64
  3
...............................................
 72
    65
 73
     2
 40
0.000110
 49
0.000000
 49
-0.000110
  0
LTYPE
  2
DASHDOT
 70
    64
  3
__ . __ . __ . __ . __ . __ . __ . __ . __ . __
 72
    65
 73
     4
 40
0.000440
 49
0.000220
 49
-0.000110
 49
0.000000
 49
-0.000110
  0
LTYPE
  2
BORDER
 70
    64
  3
__ __ . __ __ . __ __ . __ __ . __ __ . __ __
 72
    65
 73
     6
 40
0.000770
 49
0.000220
 49
-0.000110
 49
0.000220
 49
-0.000110
 49
0.000000
 49
-0.000110
  0
LTYPE
  2
DIVIDE
 70
    64
  3
__ . . __ . . __ . . __ . . __ . . __ . . __
 72
    65
 73
     6
 40
0.000550
 49
0.000220
 49
-0.000110
 49
0.000000
 49
-0.000110
 49
0.000000
 49
-0.000110
  0
LTYPE
  2
DOTDOT
 70
    64
  3
 . .  . .  . .  . .  . .  . . 
 72
    65
 73
     5
 40
0.000242
 49
-0.000110
 49
0.000000
 49
-0.000110
 49
0.000000
 49
-0.000110
  0
ENDTAB
  0
TABLE
  2
STYLE
 70
     2
  0
STYLE
 70
     0
  2
SN0
 40
0.000000
 41
0.000440
 50
0.000000
 71
     0
 42
0.000000
  3
ROMAND
  0
STYLE
 70
    68
  2
SV0
 40
0.000000
 41
0.000440
 50
0.000000
 71
     0
 42
0.000000
  3
ROMAND
  0
ENDTAB
  0
TABLE
  2
LAYER
 70
     3
  0
LAYER
  2
FOREGROUND
 70
    64
 62
     7
  6
CONTINUOUS
  0
LAYER
  2
BACKGROUND
 70
    65
 62
    -7
  6
CONTINUOUS
  0
LAYER
  2
0
 70
    64
 62
     7
  6
CONTINUOUS
  0
ENDTAB
  0
ENDSEC
  0
SECTION
  2
ENTITIES
  0
POLYLINE
  8
FOREGROUND
  6
CONTINUOUS
 66
     1
 40
0.000000
 41
0.000000
  0
VERTEX
  8
FOREGROUND
  6
CONTINUOUS
 10
0.000000
 20
4.938120
  0
VERTEX
  8
FOREGROUND
  6
CONTINUOUS
 10
8.499920
 20
4.938120
  0
VERTEX
  8
FOREGROUND
  6
CONTINUOUS
 10
8.499920
 20
-6.061880
  0
VERTEX
  8
FOREGROUND
  6
CONTINUOUS
 10
0.000000
 20
-6.061880
  0
VERTEX
  8
FOREGROUND
  6
CONTINUOUS
 10
0.000000
 20
4.938120
  0
SEQEND
  8
0
  0
POLYLINE
  8
FOREGROUND
  6
CONTINUOUS
 66
     1
 40
0.000000
 41
0.000000
  0
VERTEX
  8
FOREGROUND
  6
CONTINUOUS
 10
0.000000
 20
4.938120
  0
VERTEX
  8
FOREGROUND
  6
CONTINUOUS
 10
8.499920
 20
4.938120
  0
VERTEX
  8
FOREGROUND
  6
CONTINUOUS
 10
8.499920
 20
-6.061880
  0
VERTEX
  8
FOREGROUND
  6
CONTINUOUS
 10
0.000000
 20
-6.061880
  0
VERTEX
  8
FOREGROUND
  6
CONTINUOUS
 10
0.000000
 20
4.938120
  0
SEQEND
  8
0
  0
SOLID
  8
0
 62
    15
 10
7.068160
 20
1.550120
 11
7.065960
 21
2.288000
 12
7.080920
 22
1.516680
 13
7.078720
 23
2.254560
  0
POLYLINE
  8
0
  6
CONTINUOUS
 66
     1
 40
0.000000
 41
0.000000
  0
VERTEX
  8
0
  6
CONTINUOUS
 10
7.068160
 20
1.550120
  0
VERTEX
  8
0
  6
CONTINUOUS
 10
7.065960
 20
2.288000
  0
VERTEX
  8
0
  6
CONTINUOUS
 10
7.078720
 20
2.254560
  0
VERTEX
  8
0
  6
CONTINUOUS
 10
7.080920
 20
1.516680
  0
VERTEX
  8
0
  6
CONTINUOUS
 10
7.068160
 20
1.550120
  0
SEQEND
  8
0
  0
SOLID
  8
0
 62
    15
 10
5.575680
 20
1.694000
 11
5.573040
 21
2.431880
 12
5.599440
 22
1.600280
 13
5.597240
 23
2.338600
  0
POLYLINE
  8
0
  6
CONTINUOUS
 66
     1
 40
0.000000
 41
0.000000
  0
VERTEX
  8
0
  6
CONTINUOUS
 10
5.575680
 20
1.694000
  0
VERTEX
  8
0
  6
CONTINUOUS
 10
5.573040
 20
2.431880
  0
VERTEX
  8
0
  6
CONTINUOUS
 10
5.597240
 20
2.338600
  0
VERTEX
  8
0
  6
CONTINUOUS
 10
5.599440
 20
1.600280
  0
VERTEX
  8
0
  6
CONTINUOUS
 10
5.575680
 20
1.694000
  0
SEQEND
  8
0
  0
SOLID
  8
0
 62
    15
 10
5.599440
 20
1.600280
 11
5.597240
 21
2.338600
 12
5.631560
 22
1.604240
 13
5.629360
 23
2.342120
  0
POLYLINE
  8
0
  6
CONTINUOUS
 66
     1
 40
0.000000
 41
0.000000
  0
VERTEX
  8
0
  6
CONTINUOUS
 10
5.599440
 20
1.600280
  0
VERTEX
  8
0
  6
CONTINUOUS
 10
5.597240
 20
2.338600
  0
VERTEX
  8
0
  6
CONTINUOUS
 10
5.629360
 20
2.342120
  0
VERTEX
  8
0
  6
CONTINUOUS
 10
5.631560
 20
1.604240
  0
VERTEX
  8
0
  6
CONTINUOUS
 10
5.599440
 20
1.600280
  0
SEQEND
  8
0
  0
SOLID
  8
0
 62
    15
 10
5.631560
 20
1.604240
 11
5.629360
 21
2.342120
 12
5.651360
 22
1.636360
 13
5.649160
 23
2.374240
  0
POLYLINE
  8
0
  6
CONTINUOUS
 66
     1
 40
0.000000
 41
0.000000
  0
VERTEX
  8
0
  6
CONTINUOUS
 10
5.631560
 20
1.604240
  0
VERTEX
  8
0
  6
CONTINUOUS
 10
5.629360
 20
2.342120
  0
VERTEX
  8
0
  6
CONTINUOUS
 10
5.649160
 20
2.374240
  0
VERTEX
  8
0
  6
CONTINUOUS
 10
5.651360
 20
1.636360
  0
VERTEX
  8
0
  6
CONTINUOUS
 10
5.631560
 20
1.604240
  0
SEQEND
  8
0
  0
SOLID
  8
0
 62
    15
 10
5.651360
 20
1.636360
 11
5.649160
 21
2.374240
 12
5.677320
 22
1.660120
 13
5.674680
 23
2.398440
  0
POLYLINE
  8
0
  6
CONTINUOUS
 66
     1
 40
0.000000
 41
0.000000
  0
VERTEX
  8
0
  6
CONTINUOUS
 10
5.651360
 20
1.636360
  0
VERTEX
  8
0
  6
CONTINUOUS
 10
5.649160
 20
2.374240
  0
VERTEX
  8
0
  6
CONTINUOUS
 10
5.674680
 20
2.398440
  0
VERTEX
  8
0
  6
CONTINUOUS
 10
5.677320
 20
1.660120
  0
VERTEX
  8
0
  6
CONTINUOUS
 10
5.651360
 20
1.636360
  0
SEQEND
  8
0
  0
SOLID
  8
0
 62
    15
 10
5.677320
 20
1.660120
 11
5.674680
 21
2.398440
 12
5.706800
 22
1.675080
 13
5.704600
 23
2.413400
  0
POLYLINE
  8
0
  6
CONTINUOUS
 66
     1
 40
0.000000
 41
0.000000
  0
VERTEX
  8
0
  6
CONTINUOUS
 10
5.677320
 20
1.660120
  0
VERTEX
  8
0
  6
CONTINUOUS
 10
5.674680
 20
2.398440
  0
VERTEX
  8
0
  6
CONTINUOUS
 10
5.704600
 20
2.413400
  0
VERTEX
  8
0
  6
CONTINUOUS
 10
5.706800
 20
1.675080
  0
VERTEX
  8
0
  6
CONTINUOUS
 10
5.677320
 20
1.660120
  0
SEQEND
  8
0
  0
SOLID
  8
0
 62
    15
 10
5.706800
 20
1.675080
 11
5.704600
 21
2.413400
 12
5.738480
 22
1.681240
 13
5.736280
 23
2.419120
  0
POLYLINE
  8
0
  6
CONTINUOUS
 66
     1
 40
0.000000
 41
0.000000
  0
VERTEX
  8
0
  6
CONTINUOUS
 10
5.706800
 20
1.675080
  0
VERTEX
  8
0
  6
CONTINUOUS
 10
5.704600
 20
2.413400
  0
VERTEX
  8
0
  6
CONTINUOUS
 10
5.736280
 20
2.419120
  0
VERTEX
  8
0
  6
CONTINUOUS
 10
5.738480
 20
1.681240
  0
VERTEX
  8
0
  6
CONTINUOUS
 10
5.706800
 20
1.675080
  0
SEQEND
  8
0
  0
SOLID
  8
0
 62
    15
 10
5.738480
 20
1.681240
 11
5.736280
 21
2.419120
 12
5.770600
 22
1.677280
 13
5.767960
 23
2.415160
  0
POLYLINE
  8
0
  6
CONTINUOUS
 66
     1
 40
0.000000
 41
0.000000
  0
VERTEX
  8
0
  6
CONTINUOUS
 10
5.738480
 20
1.681240
  0
VERTEX
  8
0
  6
CONTINUOUS
 10
5.736280
 20
2.419120
  0
VERTEX
  8
0
  6
CONTINUOUS
 10
5.767960
 20
2.415160
  0
VERTEX
  8
0
  6
CONTINUOUS
 10
5.770600
 20
1.677280
  0
VERTEX
  8
0
  6
CONTINUOUS
 10
5.738480
 20
1.681240
  0
SEQEND
  8
0
  0
SOLID
  8
0
 62
    15
 10
5.770600
 20
1.677280
 11
5.767960
 21
2.415160
 12
5.800520
 22
1.663200
 13
5.798320
 23
2.401520
  0
POLYLINE
  8
0
  6
CONTINUOUS
 66
     1
 40
0.000000
 41
0.000000
  0
VERTEX
  8
0
  6
CONTINUOUS
 10
5.770600
 20
1.677280
  0
VERTEX
  8
0
  6
CONTINUOUS
 10
5.767960
 20
2.415160
  0
VERTEX
  8
0
  6
CONTINUOUS
 10
5.798320
 20
2.401520
  0
VERTEX
  8
0
  6
CONTINUOUS
 10
5.800520
 20
1.663200
  0
VERTEX
  8
0
  6
CONTINUOUS
 10
5.770600
 20
1.677280
  0
SEQEND
  8
0
  0
SOLID
  8
0
 62
    15
 10
5.800520
 20
1.663200
 11
5.798320
 21
2.401520
 12
5.826920
 22
1.639000
 13
5.824720
 23
2.376880
  0
POLYLINE
  8
0
  6
CONTINUOUS
 66
     1
 40
0.000000
 41
0.000000
  0
VERTEX
  8
0
  6
CONTINUOUS
 10
5.800520
 20
1.663200
  0
VERTEX
  8
0
  6
CONTINUOUS
 10
5.798320
 20
2.401520
  0
VERTEX
  8
0
  6
CONTINUOUS
 10
5.824720
 20
2.376880
  0
VERTEX
  8
0
  6
CONTINUOUS
 10
5.826920
 20
1.639000
  0
VERTEX
  8
0
  6
CONTINUOUS
 10
5.800520
 20
1.663200
  0
SEQEND
  8
0
  0
SOLID
  8
0
 62
    15
 10
5.826920
 20
1.639000
 11
5.824720
 21
2.376880
 12
5.848040
 22
1.604240
 13
5.845840
 23
2.342120
  0
POLYLINE
  8
0
  6
CONTINUOUS
 66
     1
 40
0.000000
 41
0.000000
  0
VERTEX
  8
0
  6
CONTINUOUS
 10
5.826920
 20
1.639000
  0
VERTEX
  8
0
  6
CONTINUOUS
 10
5.824720
 20
2.376880
  0
VERTEX
  8
0
  6
CONTINUOUS
 10
5.845840
 20
2.342120
  0
VERTEX
  8
0
  6
CONTINUOUS
 10
5.848040
 20
1.604240
  0
VERTEX
  8
0
  6
CONTINUOUS
 10
5.826920
 20
1.639000
  0
SEQEND
  8
0
  0
SOLID
  8
0
 62
    15
 10
6.723640
 20
1.506560
 11
6.721000
 21
2.244880
 12
6.766760
 22
1.506560
 13
6.764560
 23
2.244880
  0
POLYLINE
  8
0
  6
CONTINUOUS
 66
     1
 40
0.000000
 41
0.000000
  0
VERTEX
  8
0
  6
CONTINUOUS
 10
6.723640
 20
1.506560
  0
VERTEX
  8
0
  6
CONTINUOUS
 10
6.721000
 20
2.244880
  0
VERTEX
  8
0
  6
CONTINUOUS
 10
6.764560
 20
2.244880
  0
VERTEX
  8
0
  6
CONTINUOUS
 10
6.766760
 20
1.506560
  0
VERTEX
  8
0
  6
CONTINUOUS
 10
6.723640
 20
1.506560
  0
SEQEND
  8
0
  0
SOLID
  8
0
 62
    15
 10
6.720120
 20
1.604240
 11
6.717480
 21
2.342120
 12
6.723640
 22
1.506560
 13
6.721000
 23
2.244880
  0
POLYLINE
  8
0
  6
CONTINUOUS
 66
     1
 40
0.000000
 41
0.000000
  0
VERTEX
  8
0
  6
CONTINUOUS
 10
6.720120
 20
1.604240
  0
VERTEX
  8
0
  6
CONTINUOUS
 10
6.717480
 20
2.342120
  0
VERTEX
  8
0
  6
CONTINUOUS
 10
6.721000
 20
2.244880
  0
VERTEX
  8
0
  6
CONTINUOUS
 10
6.723640
 20
1.506560
  0
VERTEX
  8
0
  6
CONTINUOUS
 10
6.720120
 20
1.604240
  0
SEQEND
  8
0
  0
SOLID
  8
0
 62
    15
 10
5.848040
 20
1.604240
 11
5.845840
 21
2.342120
 12
6.720120
 22
1.604240
 13
6.717480
 23
2.342120
  0
POLYLINE
  8
0
  6
CONTINUOUS
 66
     1
 40
0.000000
 41
0.000000
  0
VERTEX
  8
0
  6
CONTINUOUS
 10
5.848040
 20
1.604240
  0
VERTEX
  8
0
  6
CONTINUOUS
 10
5.845840
 20
2.342120
  0
VERTEX
  8
0
  6
CONTINUOUS
 10
6.717480
 20
2.342120
  0
VERTEX
  8
0
  6
CONTINUOUS
 10
6.720120
 20
1.604240
  0
VERTEX
  8
0
  6
CONTINUOUS
 10
5.848040
 20
1.604240
  0
SEQEND
  8
0
  0
SOLID
  8
0
 62
    15
 10
6.766760
 20
1.506560
 11
6.764560
 21
2.244880
 12
6.782160
 22
1.543960
 13
6.779960
 23
2.281840
  0
POLYLINE
  8
0
  6
CONTINUOUS
 66
     1
 40
0.000000
 41
0.000000
  0
VERTEX
  8
0
  6
CONTINUOUS
 10
6.766760
 20
1.506560
  0
VERTEX
  8
0
  6
CONTINUOUS
 10
6.764560
 20
2.244880
  0
VERTEX
  8
0
  6
CONTINUOUS
 10
6.779960
 20
2.281840
  0
VERTEX
  8
0
  6
CONTINUOUS
 10
6.782160
 20
1.543960
  0
VERTEX
  8
0
  6
CONTINUOUS
 10
6.766760
 20
1.506560
  0
SEQEND
  8
0
  0
SOLID
  8
0
 62
    15
 10
6.782160
 20
1.543960
 11
6.779960
 21
2.281840
 12
6.801520
 22
1.574760
 13
6.799320
 23
2.313080
  0
POLYLINE
  8
0
  6
CONTINUOUS
 66
     1
 40
0.000000
 41
0.000000
  0
VERTEX
  8
0
  6
CONTINUOUS
 10
6.782160
 20
1.543960
  0
VERTEX
  8
0
  6
CONTINUOUS
 10
6.779960
 20
2.281840
  0
VERTEX
  8
0
  6
CONTINUOUS
 10
6.799320
 20
2.313080
  0
VERTEX
  8
0
  6
CONTINUOUS
 10
6.801520
 20
1.574760
  0
VERTEX
  8
0
  6
CONTINUOUS
 10
6.782160
 20
1.543960
  0
SEQEND
  8
0
  0
SOLID
  8
0
 62
    15
 10
6.801520
 20
1.574760
 11
6.799320
 21
2.313080
 12
6.823960
 22
1.600280
 13
6.821320
 23
2.338160
  0
POLYLINE
  8
0
  6
CONTINUOUS
 66
     1
 40
0.000000
 41
0.000000
  0
VERTEX
  8
0
  6
CONTINUOUS
 10
6.801520
 20
1.574760
  0
VERTEX
  8
0
  6
CONTINUOUS
 10
6.799320
 20
2.313080
  0
VERTEX
  8
0
  6
CONTINUOUS
 10
6.821320
 20
2.338160
  0
VERTEX
  8
0
  6
CONTINUOUS
 10
6.823960
 20
1.600280
  0
VERTEX
  8
0
  6
CONTINUOUS
 10
6.801520
 20
1.574760
  0
SEQEND
  8
0
  0
SOLID
  8
0
 62
    15
 10
6.823960
 20
1.600280
 11
6.821320
 21
2.338160
 12
6.848160
 22
1.619640
 13
6.845960
 23
2.357520
  0
POLYLINE
  8
0
  6
CONTINUOUS
 66
     1
 40
0.000000
 41
0.000000
  0
VERTEX
  8
0
  6
CONTINUOUS
 10
6.823960
 20
1.600280
  0
VERTEX
  8
0
  6
CONTINUOUS
 10
6.821320
 20
2.338160
  0
VERTEX
  8
0
  6
CONTINUOUS
 10
6.845960
 20
2.357520
  0
VERTEX
  8
0
  6
CONTINUOUS
 10
6.848160
 20
1.619640
  0
VERTEX
  8
0
  6
CONTINUOUS
 10
6.823960
 20
1.600280
  0
SEQEND
  8
0
  0
SOLID
  8
0
 62
    15
 10
6.848160
 20
1.619640
 11
6.845960
 21
2.357520
 12
6.874560
 22
1.633720
 13
6.871920
 23
2.371600
  0
POLYLINE
  8
0
  6
CONTINUOUS
 66
     1
 40
0.000000
 41
0.000000
  0
VERTEX
  8
0
  6
CONTINUOUS
 10
6.848160
 20
1.619640
  0
VERTEX
  8
0
  6
CONTINUOUS
 10
6.845960
 20
2.357520
  0
VERTEX
  8
0
  6
CONTINUOUS
 10
6.871920
 20
2.371600
  0
VERTEX
  8
0
  6
CONTINUOUS
 10
6.874560
 20
1.633720
  0
VERTEX
  8
0
  6
CONTINUOUS
 10
6.848160
 20
1.619640
  0
SEQEND
  8
0
  0
SOLID
  8
0
 62
    15
 10
6.874560
 20
1.633720
 11
6.871920
 21
2.371600
 12
6.901400
 22
1.641640
 13
6.899200
 23
2.379960
  0
POLYLINE
  8
0
  6
CONTINUOUS
 66
     1
 40
0.000000
 41
0.000000
  0
VERTEX
  8
0
  6
CONTINUOUS
 10
6.874560
 20
1.633720
  0
VERTEX
  8
0
  6
CONTINUOUS
 10
6.871920
 20
2.371600
  0
VERTEX
  8
0
  6
CONTINUOUS
 10
6.899200
 20
2.379960
  0
VERTEX
  8
0
  6
CONTINUOUS
 10
6.901400
 20
1.641640
  0
VERTEX
  8
0
  6
CONTINUOUS
 10
6.874560
 20
1.633720
  0
SEQEND
  8
0
  0
SOLID
  8
0
 62
    15
 10
6.901400
 20
1.641640
 11
6.899200
 21
2.379960
 12
6.929120
 22
1.644280
 13
6.926920
 23
2.382600
  0
POLYLINE
  8
0
  6
CONTINUOUS
 66
     1
 40
0.000000
 41
0.000000
  0
VERTEX
  8
0
  6
CONTINUOUS
 10
6.901400
 20
1.641640
  0
VERTEX
  8
0
  6
CONTINUOUS
 10
6.899200
 20
2.379960
  0
VERTEX
  8
0
  6
CONTINUOUS
 10
6.926920
 20
2.382600
  0
VERTEX
  8
0
  6
CONTINUOUS
 10
6.929120
 20
1.644280
  0
VERTEX
  8
0
  6
CONTINUOUS
 10
6.901400
 20
1.641640
  0
SEQEND
  8
0
  0
SOLID
  8
0
 62
    15
 10
6.929120
 20
1.644280
 11
6.926920
 21
2.382600
 12
6.956840
 22
1.641640
 13
6.954200
 23
2.379960
  0
POLYLINE
  8
0
  6
CONTINUOUS
 66
     1
 40
0.000000
 41
0.000000
  0
VERTEX
  8
0
  6
CONTINUOUS
 10
6.929120
 20
1.644280
  0
VERTEX
  8
0
  6
CONTINUOUS
 10
6.926920
 20
2.382600
  0
VERTEX
  8
0
  6
CONTINUOUS
 10
6.954200
 20
2.379960
  0
VERTEX
  8
0
  6
CONTINUOUS
 10
6.956840
 20
1.641640
  0
VERTEX
  8
0
  6
CONTINUOUS
 10
6.929120
 20
1.644280
  0
SEQEND
  8
0
  0
SOLID
  8
0
 62
    15
 10
6.956840
 20
1.641640
 11
6.954200
 21
2.379960
 12
6.983240
 22
1.633720
 13
6.981040
 23
2.372040
  0
POLYLINE
  8
0
  6
CONTINUOUS
 66
     1
 40
0.000000
 41
0.000000
  0
VERTEX
  8
0
  6
CONTINUOUS
 10
6.956840
 20
1.641640
  0
VERTEX
  8
0
  6
CONTINUOUS
 10
6.954200
 20
2.379960
  0
VERTEX
  8
0
  6
CONTINUOUS
 10
6.981040
 20
2.372040
  0
VERTEX
  8
0
  6
CONTINUOUS
 10
6.983240
 20
1.633720
  0
VERTEX
  8
0
  6
CONTINUOUS
 10
6.956840
 20
1.641640
  0
SEQEND
  8
0
  0
SOLID
  8
0
 62
    15
 10
6.983240
 20
1.633720
 11
6.981040
 21
2.372040
 12
7.008320
 22
1.620520
 13
7.005680
 23
2.358400
  0
POLYLINE
  8
0
  6
CONTINUOUS
 66
     1
 40
0.000000
 41
0.000000
  0
VERTEX
  8
0
  6
CONTINUOUS
 10
6.983240
 20
1.633720
  0
VERTEX
  8
0
  6
CONTINUOUS
 10
6.981040
 20
2.372040
  0
VERTEX
  8
0
  6
CONTINUOUS
 10
7.005680
 20
2.358400
  0
VERTEX
  8
0
  6
CONTINUOUS
 10
7.008320
 20
1.620520
  0
VERTEX
  8
0
  6
CONTINUOUS
 10
6.983240
 20
1.633720
  0
SEQEND
  8
0
  0
SOLID
  8
0
 62
    15
 10
7.008320
 20
1.620520
 11
7.005680
 21
2.358400
 12
7.031200
 22
1.602040
 13
7.028560
 23
2.339920
  0
POLYLINE
  8
0
  6
CONTINUOUS
 66
     1
 40
0.000000
 41
0.000000
  0
VERTEX
  8
0
  6
CONTINUOUS
 10
7.008320
 20
1.620520
  0
VERTEX
  8
0
  6
CONTINUOUS
 10
7.005680
 20
2.358400
  0
VERTEX
  8
0
  6
CONTINUOUS
 10
7.028560
 20
2.339920
  0
VERTEX
  8
0
  6
CONTINUOUS
 10
7.031200
 20
1.602040
  0
VERTEX
  8
0
  6
CONTINUOUS
 10
7.008320
 20
1.620520
  0
SEQEND
  8
0
  0
SOLID
  8
0
 62
    15
 10
7.031200
 20
1.602040
 11
7.028560
 21
2.339920
 12
7.051440
 22
1.578720
 13
7.048800
 23
2.316600
  0
POLYLINE
  8
0
  6
CONTINUOUS
 66
     1
 40
0.000000
 41
0.000000
  0
VERTEX
  8
0
  6
CONTINUOUS
 10
7.031200
 20
1.602040
  0
VERTEX
  8
0
  6
CONTINUOUS
 10
7.028560
 20
2.339920
  0
VERTEX
  8
0
  6
CONTINUOUS
 10
7.048800
 20
2.316600
  0
VERTEX
  8
0
  6
CONTINUOUS
 10
7.051440
 20
1.578720
  0
VERTEX
  8
0
  6
CONTINUOUS
 10
7.031200
 20
1.602040
  0
SEQEND
  8
0
  0
SOLID
  8
0
 62
    15
 10
7.051440
 20
1.578720
 11
7.048800
 21
2.316600
 12
7.068160
 22
1.550120
 13
7.065960
 23
2.288000
  0
POLYLINE
  8
0
  6
CONTINUOUS
 66
     1
 40
0.000000
 41
0.000000
  0
VERTEX
  8
0
  6
CONTINUOUS
 10
7.051440
 20
1.578720
  0
VERTEX
  8
0
  6
CONTINUOUS
 10
7.048800
 20
2.316600
  0
VERTEX
  8
0
  6
CONTINUOUS
 10
7.065960
 20
2.288000
  0
VERTEX
  8
0
  6
CONTINUOUS
 10
7.068160
 20
1.550120
  0
VERTEX
  8
0
  6
CONTINUOUS
 10
7.051440
 20
1.578720
  0
SEQEND
  8
0
  0
SOLID
  8
0
 62
    15
 10
4.199360
 20
1.694000
 11
4.196720
 21
2.431880
 12
5.575680
 22
1.694000
 13
5.573040
 23
2.431880
  0
POLYLINE
  8
0
  6
CONTINUOUS
 66
     1
 40
0.000000
 41
0.000000
  0
VERTEX
  8
0
  6
CONTINUOUS
 10
4.199360
 20
1.694000
  0
VERTEX
  8
0
  6
CONTINUOUS
 10
4.196720
 20
2.431880
  0
VERTEX
  8
0
  6
CONTINUOUS
 10
5.573040
 20
2.431880
  0
VERTEX
  8
0
  6
CONTINUOUS
 10
5.575680
 20
1.694000
  0
VERTEX
  8
0
  6
CONTINUOUS
 10
4.199360
 20
1.694000
  0
SEQEND
  8
0
  0
SOLID
  8
0
 62
    15
 10
7.080920
 20
1.516680
 11
7.078720
 21
2.254560
 12
7.088840
 22
1.478400
 13
7.086640
 23
2.216720
  0
POLYLINE
  8
0
  6
CONTINUOUS
 66
     1
 40
0.000000
 41
0.000000
  0
VERTEX
  8
0
  6
CONTINUOUS
 10
7.080920
 20
1.516680
  0
VERTEX
  8
0
  6
CONTINUOUS
 10
7.078720
 20
2.254560
  0
VERTEX
  8
0
  6
CONTINUOUS
 10
7.086640
 20
2.216720
  0
VERTEX
  8
0
  6
CONTINUOUS
 10
7.088840
 20
1.478400
  0
VERTEX
  8
0
  6
CONTINUOUS
 10
7.080920
 20
1.516680
  0
SEQEND
  8
0
  0
SOLID
  8
0
 62
    15
 10
7.088840
 20
1.478400
 11
7.086640
 21
2.216720
 12
7.091920
 22
1.435720
 13
7.089720
 23
2.173600
  0
POLYLINE
  8
0
  6
CONTINUOUS
 66
     1
 40
0.000000
 41
0.000000
  0
VERTEX
  8
0
  6
CONTINUOUS
 10
7.088840
 20
1.478400
  0
VERTEX
  8
0
  6
CONTINUOUS
 10
7.086640
 20
2.216720
  0
VERTEX
  8
0
  6
CONTINUOUS
 10
7.089720
 20
2.173600
  0
VERTEX
  8
0
  6
CONTINUOUS
 10
7.091920
 20
1.435720
  0
VERTEX
  8
0
  6
CONTINUOUS
 10
7.088840
 20
1.478400
  0
SEQEND
  8
0
  0
SOLID
  8
0
 62
    15
 10
2.557280
 20
1.214840
 11
2.555080
 21
1.953160
 12
2.557280
 22
2.078560
 13
2.555080
 23
2.816880
  0
POLYLINE
  8
0
  6
CONTINUOUS
 66
     1
 40
0.000000
 41
0.000000
  0
VERTEX
  8
0
  6
CONTINUOUS
 10
2.557280
 20
1.214840
  0
VERTEX
  8
0
  6
CONTINUOUS
 10
2.555080
 20
1.953160
  0
VERTEX
  8
0
  6
CONTINUOUS
 10
2.555080
 20
2.816880
  0
VERTEX
  8
0
  6
CONTINUOUS
 10
2.557280
 20
2.078560
  0
VERTEX
  8
0
  6
CONTINUOUS
 10
2.557280
 20
1.214840
  0
SEQEND
  8
0
  0
SOLID
  8
0
 62
    15
 10
2.557280
 20
2.078560
 11
2.555080
 21
2.816880
 12
3.094080
 22
2.049080
 13
3.091440
 23
2.786960
  0
POLYLINE
  8
0
  6
CONTINUOUS
 66
     1
 40
0.000000
 41
0.000000
  0
VERTEX
  8
0
  6
CONTINUOUS
 10
2.557280
 20
2.078560
  0
VERTEX
  8
0
  6
CONTINUOUS
 10
2.555080
 20
2.816880
  0
VERTEX
  8
0
  6
CONTINUOUS
 10
3.091440
 20
2.786960
  0
VERTEX
  8
0
  6
CONTINUOUS
 10
3.094080
 20
2.049080
  0
VERTEX
  8
0
  6
CONTINUOUS
 10
2.557280
 20
2.078560
  0
SEQEND
  8
0
  0
SOLID
  8
0
 62
    15
 10
3.094080
 20
2.049080
 11
3.091440
 21
2.786960
 12
3.103320
 22
1.963720
 13
3.101120
 23
2.701600
  0
POLYLINE
  8
0
  6
CONTINUOUS
 66
     1
 40
0.000000
 41
0.000000
  0
VERTEX
  8
0
  6
CONTINUOUS
 10
3.094080
 20
2.049080
  0
VERTEX
  8
0
  6
CONTINUOUS
 10
3.091440
 20
2.786960
  0
VERTEX
  8
0
  6
CONTINUOUS
 10
3.101120
 20
2.701600
  0
VERTEX
  8
0
  6
CONTINUOUS
 10
3.103320
 20
1.963720
  0
VERTEX
  8
0
  6
CONTINUOUS
 10
3.094080
 20
2.049080
  0
SEQEND
  8
0
  0
SOLID
  8
0
 62
    15
 10
3.103320
 20
1.963720
 11
3.101120
 21
2.701600
 12
3.105960
 22
1.964160
 13
3.103320
 23
2.702480
  0
POLYLINE
  8
0
  6
CONTINUOUS
 66
     1
 40
0.000000
 41
0.000000
  0
VERTEX
  8
0
  6
CONTINUOUS
 10
3.103320
 20
1.963720
  0
VERTEX
  8
0
  6
CONTINUOUS
 10
3.101120
 20
2.701600
  0
VERTEX
  8
0
  6
CONTINUOUS
 10
3.103320
 20
2.702480
  0
VERTEX
  8
0
  6
CONTINUOUS
 10
3.105960
 20
1.964160
  0
VERTEX
  8
0
  6
CONTINUOUS
 10
3.103320
 20
1.963720
  0
SEQEND
  8
0
  0
SOLID
  8
0
 62
    15
 10
3.105960
 20
1.964160
 11
3.103320
 21
2.702480
 12
3.179880
 22
1.979560
 13
3.177680
 23
2.717440
  0
POLYLINE
  8
0
  6
CONTINUOUS
 66
     1
 40
0.000000
 41
0.000000
  0
VERTEX
  8
0
  6
CONTINUOUS
 10
3.105960
 20
1.964160
  0
VERTEX
  8
0
  6
CONTINUOUS
 10
3.103320
 20
2.702480
  0
VERTEX
  8
0
  6
CONTINUOUS
 10
3.177680
 20
2.717440
  0
VERTEX
  8
0
  6
CONTINUOUS
 10
3.179880
 20
1.979560
  0
VERTEX
  8
0
  6
CONTINUOUS
 10
3.105960
 20
1.964160
  0
SEQEND
  8
0
  0
SOLID
  8
0
 62
    15
 10
3.179880
 20
1.979560
 11
3.177680
 21
2.717440
 12
3.249400
 22
1.985280
 13
3.247200
 23
2.723600
  0
POLYLINE
  8
0
  6
CONTINUOUS
 66
     1
 40
0.000000
 41
0.000000
  0
VERTEX
  8
0
  6
CONTINUOUS
 10
3.179880
 20
1.979560
  0
VERTEX
  8
0
  6
CONTINUOUS
 10
3.177680
 20
2.717440
  0
VERTEX
  8
0
  6
CONTINUOUS
 10
3.247200
 20
2.723600
  0
VERTEX
  8
0
  6
CONTINUOUS
 10
3.249400
 20
1.985280
  0
VERTEX
  8
0
  6
CONTINUOUS
 10
3.179880
 20
1.979560
  0
SEQEND
  8
0
  0
SOLID
  8
0
 62
    15
 10
3.249400
 20
1.985280
 11
3.247200
 21
2.723600
 12
3.314080
 22
1.983080
 13
3.311440
 23
2.721400
  0
POLYLINE
  8
0
  6
CONTINUOUS
 66
     1
 40
0.000000
 41
0.000000
  0
VERTEX
  8
0
  6
CONTINUOUS
 10
3.249400
 20
1.985280
  0
VERTEX
  8
0
  6
CONTINUOUS
 10
3.247200
 20
2.723600
  0
VERTEX
  8
0
  6
CONTINUOUS
 10
3.311440
 20
2.721400
  0
VERTEX
  8
0
  6
CONTINUOUS
 10
3.314080
 20
1.983080
  0
VERTEX
  8
0
  6
CONTINUOUS
 10
3.249400
 20
1.985280
  0
SEQEND
  8
0
  0
SOLID
  8
0
 62
    15
 10
3.314080
 20
1.983080
 11
3.311440
 21
2.721400
 12
3.373920
 22
1.973840
 13
3.371720
 23
2.711720
  0
POLYLINE
  8
0
  6
CONTINUOUS
 66
     1
 40
0.000000
 41
0.000000
  0
VERTEX
  8
0
  6
CONTINUOUS
 10
3.314080
 20
1.983080
  0
VERTEX
  8
0
  6
CONTINUOUS
 10
3.311440
 20
2.721400
  0
VERTEX
  8
0
  6
CONTINUOUS
 10
3.371720
 20
2.711720
  0
VERTEX
  8
0
  6
CONTINUOUS
 10
3.373920
 20
1.973840
  0
VERTEX
  8
0
  6
CONTINUOUS
 10
3.314080
 20
1.983080
  0
SEQEND
  8
0
  0
SOLID
  8
0
 62
    15
 10
3.373920
 20
1.973840
 11
3.371720
 21
2.711720
 12
3.430240
 22
1.958440
 13
3.428040
 23
2.696760
  0
POLYLINE
  8
0
  6
CONTINUOUS
 66
     1
 40
0.000000
 41
0.000000
  0
VERTEX
  8
0
  6
CONTINUOUS
 10
3.373920
 20
1.973840
  0
VERTEX
  8
0
  6
CONTINUOUS
 10
3.371720
 20
2.711720
  0
VERTEX
  8
0
  6
CONTINUOUS
 10
3.428040
 20
2.696760
  0
VERTEX
  8
0
  6
CONTINUOUS
 10
3.430240
 20
1.958440
  0
VERTEX
  8
0
  6
CONTINUOUS
 10
3.373920
 20
1.973840
  0
SEQEND
  8
0
  0
SOLID
  8
0
 62
    15
 10
3.430240
 20
1.958440
 11
3.428040
 21
2.696760
 12
3.482600
 22
1.938640
 13
3.480400
 23
2.676520
  0
POLYLINE
  8
0
  6
CONTINUOUS
 66
     1
 40
0.000000
 41
0.000000
  0
VERTEX
  8
0
  6
CONTINUOUS
 10
3.430240
 20
1.958440
  0
VERTEX
  8
0
  6
CONTINUOUS
 10
3.428040
 20
2.696760
  0
VERTEX
  8
0
  6
CONTINUOUS
 10
3.480400
 20
2.676520
  0
VERTEX
  8
0
  6
CONTINUOUS
 10
3.482600
 20
1.938640
  0
VERTEX
  8
0
  6
CONTINUOUS
 10
3.430240
 20
1.958440
  0
SEQEND
  8
0
  0
SOLID
  8
0
 62
    15
 10
3.482600
 20
1.938640
 11
3.480400
 21
2.676520
 12
3.577640
 22
1.888480
 13
3.575440
 23
2.626800
  0
POLYLINE
  8
0
  6
CONTINUOUS
 66
     1
 40
0.000000
 41
0.000000
  0
VERTEX
  8
0
  6
CONTINUOUS
 10
3.482600
 20
1.938640
  0
VERTEX
  8
0
  6
CONTINUOUS
 10
3.480400
 20
2.676520
  0
VERTEX
  8
0
  6
CONTINUOUS
 10
3.575440
 20
2.626800
  0
VERTEX
  8
0
  6
CONTINUOUS
 10
3.577640
 20
1.888480
  0
VERTEX
  8
0
  6
CONTINUOUS
 10
3.482600
 20
1.938640
  0
SEQEND
  8
0
  0
SOLID
  8
0
 62
    15
 10
3.577640
 20
1.888480
 11
3.575440
 21
2.626800
 12
3.622520
 22
1.859880
 13
3.620320
 23
2.597760
  0
POLYLINE
  8
0
  6
CONTINUOUS
 66
     1
 40
0.000000
 41
0.000000
  0
VERTEX
  8
0
  6
CONTINUOUS
 10
3.577640
 20
1.888480
  0
VERTEX
  8
0
  6
CONTINUOUS
 10
3.575440
 20
2.626800
  0
VERTEX
  8
0
  6
CONTINUOUS
 10
3.620320
 20
2.597760
  0
VERTEX
  8
0
  6
CONTINUOUS
 10
3.622520
 20
1.859880
  0
VERTEX
  8
0
  6
CONTINUOUS
 10
3.577640
 20
1.888480
  0
SEQEND
  8
0
  0
SOLID
  8
0
 62
    15
 10
3.622520
 20
1.859880
 11
3.620320
 21
2.597760
 12
3.645400
 22
1.844480
 13
3.643200
 23
2.582360
  0
POLYLINE
  8
0
  6
CONTINUOUS
 66
     1
 40
0.000000
 41
0.000000
  0
VERTEX
  8
0
  6
CONTINUOUS
 10
3.622520
 20
1.859880
  0
VERTEX
  8
0
  6
CONTINUOUS
 10
3.620320
 20
2.597760
  0
VERTEX
  8
0
  6
CONTINUOUS
 10
3.643200
 20
2.582360
  0
VERTEX
  8
0
  6
CONTINUOUS
 10
3.645400
 20
1.844480
  0
VERTEX
  8
0
  6
CONTINUOUS
 10
3.622520
 20
1.859880
  0
SEQEND
  8
0
  0
SOLID
  8
0
 62
    15
 10
3.645400
 20
1.844480
 11
3.643200
 21
2.582360
 12
3.669600
 22
1.829080
 13
3.666960
 23
2.566960
  0
POLYLINE
  8
0
  6
CONTINUOUS
 66
     1
 40
0.000000
 41
0.000000
  0
VERTEX
  8
0
  6
CONTINUOUS
 10
3.645400
 20
1.844480
  0
VERTEX
  8
0
  6
CONTINUOUS
 10
3.643200
 20
2.582360
  0
VERTEX
  8
0
  6
CONTINUOUS
 10
3.666960
 20
2.566960
  0
VERTEX
  8
0
  6
CONTINUOUS
 10
3.669600
 20
1.829080
  0
VERTEX
  8
0
  6
CONTINUOUS
 10
3.645400
 20
1.844480
  0
SEQEND
  8
0
  0
SOLID
  8
0
 62
    15
 10
3.669600
 20
1.829080
 11
3.666960
 21
2.566960
 12
3.721520
 22
1.799600
 13
3.719320
 23
2.537920
  0
POLYLINE
  8
0
  6
CONTINUOUS
 66
     1
 40
0.000000
 41
0.000000
  0
VERTEX
  8
0
  6
CONTINUOUS
 10
3.669600
 20
1.829080
  0
VERTEX
  8
0
  6
CONTINUOUS
 10
3.666960
 20
2.566960
  0
VERTEX
  8
0
  6
CONTINUOUS
 10
3.719320
 20
2.537920
  0
VERTEX
  8
0
  6
CONTINUOUS
 10
3.721520
 20
1.799600
  0
VERTEX
  8
0
  6
CONTINUOUS
 10
3.669600
 20
1.829080
  0
SEQEND
  8
0
  0
SOLID
  8
0
 62
    15
 10
3.721520
 20
1.799600
 11
3.719320
 21
2.537920
 12
3.781800
 22
1.774520
 13
3.779600
 23
2.512840
  0
POLYLINE
  8
0
  6
CONTINUOUS
 66
     1
 40
0.000000
 41
0.000000
  0
VERTEX
  8
0
  6
CONTINUOUS
 10
3.721520
 20
1.799600
  0
VERTEX
  8
0
  6
CONTINUOUS
 10
3.719320
 20
2.537920
  0
VERTEX
  8
0
  6
CONTINUOUS
 10
3.779600
 20
2.512840
  0
VERTEX
  8
0
  6
CONTINUOUS
 10
3.781800
 20
1.774520
  0
VERTEX
  8
0
  6
CONTINUOUS
 10
3.721520
 20
1.799600
  0
SEQEND
  8
0
  0
SOLID
  8
0
 62
    15
 10
3.781800
 20
1.774520
 11
3.779600
 21
2.512840
 12
3.853080
 22
1.756920
 13
3.850440
 23
2.494800
  0
POLYLINE
  8
0
  6
CONTINUOUS
 66
     1
 40
0.000000
 41
0.000000
  0
VERTEX
  8
0
  6
CONTINUOUS
 10
3.781800
 20
1.774520
  0
VERTEX
  8
0
  6
CONTINUOUS
 10
3.779600
 20
2.512840
  0
VERTEX
  8
0
  6
CONTINUOUS
 10
3.850440
 20
2.494800
  0
VERTEX
  8
0
  6
CONTINUOUS
 10
3.853080
 20
1.756920
  0
VERTEX
  8
0
  6
CONTINUOUS
 10
3.781800
 20
1.774520
  0
SEQEND
  8
0
  0
SOLID
  8
0
 62
    15
 10
3.853080
 20
1.756920
 11
3.850440
 21
2.494800
 12
3.893560
 22
1.751640
 13
3.891360
 23
2.489520
  0
POLYLINE
  8
0
  6
CONTINUOUS
 66
     1
 40
0.000000
 41
0.000000
  0
VERTEX
  8
0
  6
CONTINUOUS
 10
3.853080
 20
1.756920
  0
VERTEX
  8
0
  6
CONTINUOUS
 10
3.850440
 20
2.494800
  0
VERTEX
  8
0
  6
CONTINUOUS
 10
3.891360
 20
2.489520
  0
VERTEX
  8
0
  6
CONTINUOUS
 10
3.893560
 20
1.751640
  0
VERTEX
  8
0
  6
CONTINUOUS
 10
3.853080
 20
1.756920
  0
SEQEND
  8
0
  0
SOLID
  8
0
 62
    15
 10
3.893560
 20
1.751640
 11
3.891360
 21
2.489520
 12
3.938000
 22
1.749440
 13
3.935800
 23
2.487320
  0
POLYLINE
  8
0
  6
CONTINUOUS
 66
     1
 40
0.000000
 41
0.000000
  0
VERTEX
  8
0
  6
CONTINUOUS
 10
3.893560
 20
1.751640
  0
VERTEX
  8
0
  6
CONTINUOUS
 10
3.891360
 20
2.489520
  0
VERTEX
  8
0
  6
CONTINUOUS
 10
3.935800
 20
2.487320
  0
VERTEX
  8
0
  6
CONTINUOUS
 10
3.938000
 20
1.749440
  0
VERTEX
  8
0
  6
CONTINUOUS
 10
3.893560
 20
1.751640
  0
SEQEND
  8
0
  0
SOLID
  8
0
 62
    15
 10
3.938000
 20
1.749440
 11
3.935800
 21
2.487320
 12
3.986400
 22
1.750320
 13
3.984200
 23
2.488200
  0
POLYLINE
  8
0
  6
CONTINUOUS
 66
     1
 40
0.000000
 41
0.000000
  0
VERTEX
  8
0
  6
CONTINUOUS
 10
3.938000
 20
1.749440
  0
VERTEX
  8
0
  6
CONTINUOUS
 10
3.935800
 20
2.487320
  0
VERTEX
  8
0
  6
CONTINUOUS
 10
3.984200
 20
2.488200
  0
VERTEX
  8
0
  6
CONTINUOUS
 10
3.986400
 20
1.750320
  0
VERTEX
  8
0
  6
CONTINUOUS
 10
3.938000
 20
1.749440
  0
SEQEND
  8
0
  0
SOLID
  8
0
 62
    15
 10
3.986400
 20
1.750320
 11
3.984200
 21
2.488200
 12
4.039640
 22
1.755160
 13
4.037440
 23
2.493040
  0
POLYLINE
  8
0
  6
CONTINUOUS
 66
     1
 40
0.000000
 41
0.000000
  0
VERTEX
  8
0
  6
CONTINUOUS
 10
3.986400
 20
1.750320
  0
VERTEX
  8
0
  6
CONTINUOUS
 10
3.984200
 20
2.488200
  0
VERTEX
  8
0
  6
CONTINUOUS
 10
4.037440
 20
2.493040
  0
VERTEX
  8
0
  6
CONTINUOUS
 10
4.039640
 20
1.755160
  0
VERTEX
  8
0
  6
CONTINUOUS
 10
3.986400
 20
1.750320
  0
SEQEND
  8
0
  0
SOLID
  8
0
 62
    15
 10
4.039640
 20
1.755160
 11
4.037440
 21
2.493040
 12
4.098160
 22
1.763960
 13
4.095520
 23
2.501840
  0
POLYLINE
  8
0
  6
CONTINUOUS
 66
     1
 40
0.000000
 41
0.000000
  0
VERTEX
  8
0
  6
CONTINUOUS
 10
4.039640
 20
1.755160
  0
VERTEX
  8
0
  6
CONTINUOUS
 10
4.037440
 20
2.493040
  0
VERTEX
  8
0
  6
CONTINUOUS
 10
4.095520
 20
2.501840
  0
VERTEX
  8
0
  6
CONTINUOUS
 10
4.098160
 20
1.763960
  0
VERTEX
  8
0
  6
CONTINUOUS
 10
4.039640
 20
1.755160
  0
SEQEND
  8
0
  0
SOLID
  8
0
 62
    15
 10
4.098160
 20
1.763960
 11
4.095520
 21
2.501840
 12
4.161520
 22
1.777160
 13
4.158880
 23
2.515040
  0
POLYLINE
  8
0
  6
CONTINUOUS
 66
     1
 40
0.000000
 41
0.000000
  0
VERTEX
  8
0
  6
CONTINUOUS
 10
4.098160
 20
1.763960
  0
VERTEX
  8
0
  6
CONTINUOUS
 10
4.095520
 20
2.501840
  0
VERTEX
  8
0
  6
CONTINUOUS
 10
4.158880
 20
2.515040
  0
VERTEX
  8
0
  6
CONTINUOUS
 10
4.161520
 20
1.777160
  0
VERTEX
  8
0
  6
CONTINUOUS
 10
4.098160
 20
1.763960
  0
SEQEND
  8
0
  0
SOLID
  8
0
 62
    15
 10
4.161520
 20
1.777160
 11
4.158880
 21
2.515040
 12
4.179560
 22
1.690480
 13
4.176920
 23
2.428360
  0
POLYLINE
  8
0
  6
CONTINUOUS
 66
     1
 40
0.000000
 41
0.000000
  0
VERTEX
  8
0
  6
CONTINUOUS
 10
4.161520
 20
1.777160
  0
VERTEX
  8
0
  6
CONTINUOUS
 10
4.158880
 20
2.515040
  0
VERTEX
  8
0
  6
CONTINUOUS
 10
4.176920
 20
2.428360
  0
VERTEX
  8
0
  6
CONTINUOUS
 10
4.179560
 20
1.690480
  0
VERTEX
  8
0
  6
CONTINUOUS
 10
4.161520
 20
1.777160
  0
SEQEND
  8
0
  0
SOLID
  8
0
 62
    15
 10
4.179560
 20
1.690480
 11
4.176920
 21
2.428360
 12
4.199360
 22
1.694000
 13
4.196720
 23
2.431880
  0
POLYLINE
  8
0
  6
CONTINUOUS
 66
     1
 40
0.000000
 41
0.000000
  0
VERTEX
  8
0
  6
CONTINUOUS
 10
4.179560
 20
1.690480
  0
VERTEX
  8
0
  6
CONTINUOUS
 10
4.176920
 20
2.428360
  0
VERTEX
  8
0
  6
CONTINUOUS
 10
4.196720
 20
2.431880
  0
VERTEX
  8
0
  6
CONTINUOUS
 10
4.199360
 20
1.694000
  0
VERTEX
  8
0
  6
CONTINUOUS
 10
4.179560
 20
1.690480
  0
SEQEND
  8
0
  0
POLYLINE
  8
0
  6
CONTINUOUS
 66
     1
 40
0.000000
 41
0.000000
  0
VERTEX
  8
0
  6
CONTINUOUS
 10
4.199360
 20
1.694000
  0
VERTEX
  8
0
  6
CONTINUOUS
 10
5.575680
 20
1.694000
  0
VERTEX
  8
0
  6
CONTINUOUS
 10
5.599440
 20
1.600280
  0
VERTEX
  8
0
  6
CONTINUOUS
 10
5.631560
 20
1.604240
  0
VERTEX
  8
0
  6
CONTINUOUS
 10
5.651360
 20
1.636360
  0
VERTEX
  8
0
  6
CONTINUOUS
 10
5.677320
 20
1.660120
  0
VERTEX
  8
0
  6
CONTINUOUS
 10
5.706800
 20
1.675080
  0
VERTEX
  8
0
  6
CONTINUOUS
 10
5.738480
 20
1.681240
  0
VERTEX
  8
0
  6
CONTINUOUS
 10
5.770600
 20
1.677280
  0
VERTEX
  8
0
  6
CONTINUOUS
 10
5.800520
 20
1.663200
  0
VERTEX
  8
0
  6
CONTINUOUS
 10
5.826920
 20
1.639000
  0
VERTEX
  8
0
  6
CONTINUOUS
 10
5.848040
 20
1.604240
  0
VERTEX
  8
0
  6
CONTINUOUS
 10
6.720120
 20
1.604240
  0
VERTEX
  8
0
  6
CONTINUOUS
 10
6.723640
 20
1.506560
  0
VERTEX
  8
0
  6
CONTINUOUS
 10
6.766760
 20
1.506560
  0
VERTEX
  8
0
  6
CONTINUOUS
 10
6.782160
 20
1.543960
  0
VERTEX
  8
0
  6
CONTINUOUS
 10
6.801520
 20
1.574760
  0
VERTEX
  8
0
  6
CONTINUOUS
 10
6.823960
 20
1.600280
  0
VERTEX
  8
0
  6
CONTINUOUS
 10
6.848160
 20
1.619640
  0
VERTEX
  8
0
  6
CONTINUOUS
 10
6.874560
 20
1.633720
  0
VERTEX
  8
0
  6
CONTINUOUS
 10
6.901400
 20
1.641640
  0
VERTEX
  8
0
  6
CONTINUOUS
 10
6.929120
 20
1.644280
  0
VERTEX
  8
0
  6
CONTINUOUS
 10
6.956840
 20
1.641640
  0
VERTEX
  8
0
  6
CONTINUOUS
 10
6.983240
 20
1.633720
  0
VERTEX
  8
0
  6
CONTINUOUS
 10
7.008320
 20
1.620520
  0
VERTEX
  8
0
  6
CONTINUOUS
 10
7.031200
 20
1.602040
  0
VERTEX
  8
0
  6
CONTINUOUS
 10
7.051440
 20
1.578720
  0
VERTEX
  8
0
  6
CONTINUOUS
 10
7.068160
 20
1.550120
  0
VERTEX
  8
0
  6
CONTINUOUS
 10
7.080920
 20
1.516680
  0
VERTEX
  8
0
  6
CONTINUOUS
 10
7.088840
 20
1.478400
  0
VERTEX
  8
0
  6
CONTINUOUS
 10
7.091920
 20
1.435720
  0
VERTEX
  8
0
  6
CONTINUOUS
 10
7.091920
 20
1.214840
  0
VERTEX
  8
0
  6
CONTINUOUS
 10
2.557280
 20
1.214840
  0
VERTEX
  8
0
  6
CONTINUOUS
 10
2.557280
 20
2.078560
  0
VERTEX
  8
0
  6
CONTINUOUS
 10
3.094080
 20
2.049080
  0
VERTEX
  8
0
  6
CONTINUOUS
 10
3.103320
 20
1.963720
  0
VERTEX
  8
0
  6
CONTINUOUS
 10
3.179880
 20
1.979560
  0
VERTEX
  8
0
  6
CONTINUOUS
 10
3.249400
 20
1.985280
  0
VERTEX
  8
0
  6
CONTINUOUS
 10
3.314080
 20
1.983080
  0
VERTEX
  8
0
  6
CONTINUOUS
 10
3.373920
 20
1.973840
  0
VERTEX
  8
0
  6
CONTINUOUS
 10
3.430240
 20
1.958440
  0
VERTEX
  8
0
  6
CONTINUOUS
 10
3.482600
 20
1.938640
  0
VERTEX
  8
0
  6
CONTINUOUS
 10
3.577640
 20
1.888480
  0
VERTEX
  8
0
  6
CONTINUOUS
 10
3.669600
 20
1.829080
  0
VERTEX
  8
0
  6
CONTINUOUS
 10
3.721520
 20
1.799600
  0
VERTEX
  8
0
  6
CONTINUOUS
 10
3.781800
 20
1.774520
  0
VERTEX
  8
0
  6
CONTINUOUS
 10
3.853080
 20
1.756920
  0
VERTEX
  8
0
  6
CONTINUOUS
 10
3.893560
 20
1.751640
  0
VERTEX
  8
0
  6
CONTINUOUS
 10
3.938000
 20
1.749440
  0
VERTEX
  8
0
  6
CONTINUOUS
 10
3.986400
 20
1.750320
  0
VERTEX
  8
0
  6
CONTINUOUS
 10
4.039640
 20
1.755160
  0
VERTEX
  8
0
  6
CONTINUOUS
 10
4.098160
 20
1.763960
  0
VERTEX
  8
0
  6
CONTINUOUS
 10
4.161520
 20
1.777160
  0
VERTEX
  8
0
  6
CONTINUOUS
 10
4.179560
 20
1.690480
  0
VERTEX
  8
0
  6
CONTINUOUS
 10
4.199360
 20
1.694000
  0
SEQEND
  8
0
  0
TEXT
  8
0
 10
4.528040
 20
0.965800
 40
0.138083
  1
BA  844
 41
1.000000
  7
SN0
 71
     0
 72
     5
 11
5.118466
 21
0.965800
  0
TEXT
  8
0
 10
4.326080
 20
0.774400
 40
0.138083
  1
3/4" x 4-9/16"
 41
1.000000
  7
SN0
 71
     0
 72
     5
 11
5.320013
 21
0.774400
  0
POLYLINE
  8
0
  6
CONTINUOUS
 66
     1
 40
0.014080
 41
0.014080
  0
VERTEX
  8
0
  6
CONTINUOUS
 10
4.176920
 20
3.815240
  0
VERTEX
  8
0
  6
CONTINUOUS
 10
5.553240
 20
3.815240
  0
VERTEX
  8
0
  6
CONTINUOUS
 10
5.577000
 20
3.721520
  0
VERTEX
  8
0
  6
CONTINUOUS
 10
5.609120
 20
3.725040
  0
VERTEX
  8
0
  6
CONTINUOUS
 10
5.623200
 20
3.750120
  0
VERTEX
  8
0
  6
CONTINUOUS
 10
5.641240
 20
3.770360
  0
VERTEX
  8
0
  6
CONTINUOUS
 10
5.654880
 20
3.781360
  0
VERTEX
  8
0
  6
CONTINUOUS
 10
5.668960
 20
3.789720
  0
VERTEX
  8
0
  6
CONTINUOUS
 10
5.684360
 20
3.796320
  0
VERTEX
  8
0
  6
CONTINUOUS
 10
5.700200
 20
3.800280
  0
VERTEX
  8
0
  6
CONTINUOUS
 10
5.716040
 20
3.802040
  0
VERTEX
  8
0
  6
CONTINUOUS
 10
5.731880
 20
3.801600
  0
VERTEX
  8
0
  6
CONTINUOUS
 10
5.755640
 20
3.795880
  0
VERTEX
  8
0
  6
CONTINUOUS
 10
5.778080
 20
3.784440
  0
VERTEX
  8
0
  6
CONTINUOUS
 10
5.798320
 20
3.767280
  0
VERTEX
  8
0
  6
CONTINUOUS
 10
5.815920
 20
3.743960
  0
VERTEX
  8
0
  6
CONTINUOUS
 10
5.825600
 20
3.725040
  0
VERTEX
  8
0
  6
CONTINUOUS
 10
6.697240
 20
3.725040
  0
VERTEX
  8
0
  6
CONTINUOUS
 10
6.701200
 20
3.627800
  0
VERTEX
  8
0
  6
CONTINUOUS
 10
6.744320
 20
3.627800
  0
VERTEX
  8
0
  6
CONTINUOUS
 10
6.760160
 20
3.664760
  0
VERTEX
  8
0
  6
CONTINUOUS
 10
6.779080
 20
3.696000
  0
VERTEX
  8
0
  6
CONTINUOUS
 10
6.801520
 20
3.721080
  0
VERTEX
  8
0
  6
CONTINUOUS
 10
6.826160
 20
3.740880
  0
VERTEX
  8
0
  6
CONTINUOUS
 10
6.852120
 20
3.754520
  0
VERTEX
  8
0
  6
CONTINUOUS
 10
6.879400
 20
3.762880
  0
VERTEX
  8
0
  6
CONTINUOUS
 10
6.907120
 20
3.765520
  0
VERTEX
  8
0
  6
CONTINUOUS
 10
6.934400
 20
3.762880
  0
VERTEX
  8
0
  6
CONTINUOUS
 10
6.960800
 20
3.754960
  0
VERTEX
  8
0
  6
CONTINUOUS
 10
6.985880
 20
3.741760
  0
VERTEX
  8
0
  6
CONTINUOUS
 10
7.008760
 20
3.723280
  0
VERTEX
  8
0
  6
CONTINUOUS
 10
7.029000
 20
3.699960
  0
VERTEX
  8
0
  6
CONTINUOUS
 10
7.045720
 20
3.671360
  0
VERTEX
  8
0
  6
CONTINUOUS
 10
7.058480
 20
3.637920
  0
VERTEX
  8
0
  6
CONTINUOUS
 10
7.063320
 20
3.619440
  0
VERTEX
  8
0
  6
CONTINUOUS
 10
7.066840
 20
3.599640
  0
VERTEX
  8
0
  6
CONTINUOUS
 10
7.069480
 20
3.556960
  0
VERTEX
  8
0
  6
CONTINUOUS
 10
7.069480
 20
3.336080
  0
VERTEX
  8
0
  6
CONTINUOUS
 10
2.534840
 20
3.336080
  0
VERTEX
  8
0
  6
CONTINUOUS
 10
2.534840
 20
4.199800
  0
VERTEX
  8
0
  6
CONTINUOUS
 10
3.071200
 20
4.170320
  0
VERTEX
  8
0
  6
CONTINUOUS
 10
3.080880
 20
4.084960
  0
VERTEX
  8
0
  6
CONTINUOUS
 10
3.139400
 20
4.097720
  0
VERTEX
  8
0
  6
CONTINUOUS
 10
3.192640
 20
4.104760
  0
VERTEX
  8
0
  6
CONTINUOUS
 10
3.226960
 20
4.106520
  0
VERTEX
  8
0
  6
CONTINUOUS
 10
3.259520
 20
4.106520
  0
VERTEX
  8
0
  6
CONTINUOUS
 10
3.291640
 20
4.104320
  0
VERTEX
  8
0
  6
CONTINUOUS
 10
3.351480
 20
4.095080
  0
VERTEX
  8
0
  6
CONTINUOUS
 10
3.407800
 20
4.079680
  0
VERTEX
  8
0
  6
CONTINUOUS
 10
3.460160
 20
4.059440
  0
VERTEX
  8
0
  6
CONTINUOUS
 10
3.509440
 20
4.036120
  0
VERTEX
  8
0
  6
CONTINUOUS
 10
3.577640
 20
3.995640
  0
VERTEX
  8
0
  6
CONTINUOUS
 10
3.646720
 20
3.950320
  0
VERTEX
  8
0
  6
CONTINUOUS
 10
3.699080
 20
3.920840
  0
VERTEX
  8
0
  6
CONTINUOUS
 10
3.743080
 20
3.901480
  0
VERTEX
  8
0
  6
CONTINUOUS
 10
3.793240
 20
3.885640
  0
VERTEX
  8
0
  6
CONTINUOUS
 10
3.850440
 20
3.875080
  0
VERTEX
  8
0
  6
CONTINUOUS
 10
3.892680
 20
3.871120
  0
VERTEX
  8
0
  6
CONTINUOUS
 10
3.939320
 20
3.870240
  0
VERTEX
  8
0
  6
CONTINUOUS
 10
4.017640
 20
3.875960
  0
VERTEX
  8
0
  6
CONTINUOUS
 10
4.075720
 20
3.884760
  0
VERTEX
  8
0
  6
CONTINUOUS
 10
4.139080
 20
3.897960
  0
VERTEX
  8
0
  6
CONTINUOUS
 10
4.157120
 20
3.811720
  0
VERTEX
  8
0
  6
CONTINUOUS
 10
4.176920
 20
3.815240
  0
SEQEND
  8
0
  0
ENDSEC
  0
EOF
