  0
SECTION
  2
HEADER
  9
$ACADVER
  1
AC1006
  9
$EXTMIN
 10
2.141480
 20
0.993960
  9
$EXTMAX
 10
6.881600
 20
6.030200
  9
$LTSCALE
 40
0.044000
  9
$PDMODE
 70
    35
  9
$PDSIZE
 40
0.035200
  0
ENDSEC
  0
SECTION
  2
TABLES
  0
TABLE
  2
LTYPE
 70
     9
  0
LTYPE
  2
CONTINUOUS
 70
    64
  3
Solid line
 72
    65
 73
     0
 40
0.000000
  0
LTYPE
  2
DASHED
 70
    64
  3
__ __ __ __ __ __ __ __ __ __ __ __ __ __ __
 72
    65
 73
     2
 40
0.000330
 49
0.000220
 49
-0.000110
  0
LTYPE
  2
HIDDEN
 70
    64
  3
 _ _ _ _ _ _ _ _ _ _ _ _ _ _ _ _ _ _ _ _ _ _
 72
    65
 73
     2
 40
0.000165
 49
0.000110
 49
-0.000055
  0
LTYPE
  2
CENTER
 70
    64
  3
____ _ ____ _ ____ _ ____ _ ____ _ ____ _ ____
 72
    65
 73
     4
 40
0.000880
 49
0.000550
 49
-0.000110
 49
0.000110
 49
-0.000110
  0
LTYPE
  2
PHANTOM
 70
    64
  3
_____ _ _ _____ _ _ _____ _ _ _____ _ _ ____
 72
    65
 73
     6
 40
0.001100
 49
0.000550
 49
-0.000110
 49
0.000110
 49
-0.000110
 49
0.000110
 49
-0.000110
  0
LTYPE
  2
DOT
 70
    64
  3
...............................................
 72
    65
 73
     2
 40
0.000110
 49
0.000000
 49
-0.000110
  0
LTYPE
  2
DASHDOT
 70
    64
  3
__ . __ . __ . __ . __ . __ . __ . __ . __ . __
 72
    65
 73
     4
 40
0.000440
 49
0.000220
 49
-0.000110
 49
0.000000
 49
-0.000110
  0
LTYPE
  2
BORDER
 70
    64
  3
__ __ . __ __ . __ __ . __ __ . __ __ . __ __
 72
    65
 73
     6
 40
0.000770
 49
0.000220
 49
-0.000110
 49
0.000220
 49
-0.000110
 49
0.000000
 49
-0.000110
  0
LTYPE
  2
DIVIDE
 70
    64
  3
__ . . __ . . __ . . __ . . __ . . __ . . __
 72
    65
 73
     6
 40
0.000550
 49
0.000220
 49
-0.000110
 49
0.000000
 49
-0.000110
 49
0.000000
 49
-0.000110
  0
LTYPE
  2
DOTDOT
 70
    64
  3
 . .  . .  . .  . .  . .  . . 
 72
    65
 73
     5
 40
0.000242
 49
-0.000110
 49
0.000000
 49
-0.000110
 49
0.000000
 49
-0.000110
  0
ENDTAB
  0
TABLE
  2
STYLE
 70
     2
  0
STYLE
 70
     0
  2
SN0
 40
0.000000
 41
0.000440
 50
0.000000
 71
     0
 42
0.000000
  3
ROMAND
  0
STYLE
 70
    68
  2
SV0
 40
0.000000
 41
0.000440
 50
0.000000
 71
     0
 42
0.000000
  3
ROMAND
  0
ENDTAB
  0
TABLE
  2
LAYER
 70
     3
  0
LAYER
  2
FOREGROUND
 70
    64
 62
     7
  6
CONTINUOUS
  0
LAYER
  2
BACKGROUND
 70
    65
 62
    -7
  6
CONTINUOUS
  0
LAYER
  2
0
 70
    64
 62
     7
  6
CONTINUOUS
  0
ENDTAB
  0
ENDSEC
  0
SECTION
  2
ENTITIES
  0
POLYLINE
  8
FOREGROUND
  6
CONTINUOUS
 66
     1
 40
0.000000
 41
0.000000
  0
VERTEX
  8
FOREGROUND
  6
CONTINUOUS
 10
0.000000
 20
7.024160
  0
VERTEX
  8
FOREGROUND
  6
CONTINUOUS
 10
8.499920
 20
7.024160
  0
VERTEX
  8
FOREGROUND
  6
CONTINUOUS
 10
8.499920
 20
-3.975840
  0
VERTEX
  8
FOREGROUND
  6
CONTINUOUS
 10
0.000000
 20
-3.975840
  0
VERTEX
  8
FOREGROUND
  6
CONTINUOUS
 10
0.000000
 20
7.024160
  0
SEQEND
  8
0
  0
POLYLINE
  8
FOREGROUND
  6
CONTINUOUS
 66
     1
 40
0.000000
 41
0.000000
  0
VERTEX
  8
FOREGROUND
  6
CONTINUOUS
 10
0.000000
 20
7.024160
  0
VERTEX
  8
FOREGROUND
  6
CONTINUOUS
 10
8.499920
 20
7.024160
  0
VERTEX
  8
FOREGROUND
  6
CONTINUOUS
 10
8.499920
 20
-3.975840
  0
VERTEX
  8
FOREGROUND
  6
CONTINUOUS
 10
0.000000
 20
-3.975840
  0
VERTEX
  8
FOREGROUND
  6
CONTINUOUS
 10
0.000000
 20
7.024160
  0
SEQEND
  8
0
  0
SOLID
  8
0
 62
    15
 10
4.016760
 20
2.722280
 11
4.669280
 21
2.345200
 12
3.944600
 22
2.629880
 13
4.597120
 23
2.252800
  0
POLYLINE
  8
0
  6
CONTINUOUS
 66
     1
 40
0.000000
 41
0.000000
  0
VERTEX
  8
0
  6
CONTINUOUS
 10
4.016760
 20
2.722280
  0
VERTEX
  8
0
  6
CONTINUOUS
 10
4.669280
 20
2.345200
  0
VERTEX
  8
0
  6
CONTINUOUS
 10
4.597120
 20
2.252800
  0
VERTEX
  8
0
  6
CONTINUOUS
 10
3.944600
 20
2.629880
  0
VERTEX
  8
0
  6
CONTINUOUS
 10
4.016760
 20
2.722280
  0
SEQEND
  8
0
  0
SOLID
  8
0
 62
    15
 10
5.761360
 20
4.420240
 11
6.413880
 21
4.043160
 12
5.706800
 22
4.385480
 13
6.359320
 23
4.008400
  0
POLYLINE
  8
0
  6
CONTINUOUS
 66
     1
 40
0.000000
 41
0.000000
  0
VERTEX
  8
0
  6
CONTINUOUS
 10
5.761360
 20
4.420240
  0
VERTEX
  8
0
  6
CONTINUOUS
 10
6.413880
 20
4.043160
  0
VERTEX
  8
0
  6
CONTINUOUS
 10
6.359320
 20
4.008400
  0
VERTEX
  8
0
  6
CONTINUOUS
 10
5.706800
 20
4.385480
  0
VERTEX
  8
0
  6
CONTINUOUS
 10
5.761360
 20
4.420240
  0
SEQEND
  8
0
  0
SOLID
  8
0
 62
    15
 10
5.706800
 20
4.385480
 11
6.359320
 21
4.008400
 12
5.645640
 22
4.370080
 13
6.297720
 23
3.993000
  0
POLYLINE
  8
0
  6
CONTINUOUS
 66
     1
 40
0.000000
 41
0.000000
  0
VERTEX
  8
0
  6
CONTINUOUS
 10
5.706800
 20
4.385480
  0
VERTEX
  8
0
  6
CONTINUOUS
 10
6.359320
 20
4.008400
  0
VERTEX
  8
0
  6
CONTINUOUS
 10
6.297720
 20
3.993000
  0
VERTEX
  8
0
  6
CONTINUOUS
 10
5.645640
 20
4.370080
  0
VERTEX
  8
0
  6
CONTINUOUS
 10
5.706800
 20
4.385480
  0
SEQEND
  8
0
  0
SOLID
  8
0
 62
    15
 10
5.645640
 20
4.370080
 11
6.297720
 21
3.993000
 12
5.581400
 22
4.369640
 13
6.233920
 23
3.992560
  0
POLYLINE
  8
0
  6
CONTINUOUS
 66
     1
 40
0.000000
 41
0.000000
  0
VERTEX
  8
0
  6
CONTINUOUS
 10
5.645640
 20
4.370080
  0
VERTEX
  8
0
  6
CONTINUOUS
 10
6.297720
 20
3.993000
  0
VERTEX
  8
0
  6
CONTINUOUS
 10
6.233920
 20
3.992560
  0
VERTEX
  8
0
  6
CONTINUOUS
 10
5.581400
 20
4.369640
  0
VERTEX
  8
0
  6
CONTINUOUS
 10
5.645640
 20
4.370080
  0
SEQEND
  8
0
  0
SOLID
  8
0
 62
    15
 10
5.383400
 20
4.454560
 11
6.035920
 21
4.077040
 12
5.347320
 22
4.472160
 13
5.999400
 23
4.095080
  0
POLYLINE
  8
0
  6
CONTINUOUS
 66
     1
 40
0.000000
 41
0.000000
  0
VERTEX
  8
0
  6
CONTINUOUS
 10
5.383400
 20
4.454560
  0
VERTEX
  8
0
  6
CONTINUOUS
 10
6.035920
 20
4.077040
  0
VERTEX
  8
0
  6
CONTINUOUS
 10
5.999400
 20
4.095080
  0
VERTEX
  8
0
  6
CONTINUOUS
 10
5.347320
 20
4.472160
  0
VERTEX
  8
0
  6
CONTINUOUS
 10
5.383400
 20
4.454560
  0
SEQEND
  8
0
  0
SOLID
  8
0
 62
    15
 10
5.347320
 20
4.472160
 11
5.999400
 21
4.095080
 12
5.291000
 22
4.476120
 13
5.943080
 23
4.099040
  0
POLYLINE
  8
0
  6
CONTINUOUS
 66
     1
 40
0.000000
 41
0.000000
  0
VERTEX
  8
0
  6
CONTINUOUS
 10
5.347320
 20
4.472160
  0
VERTEX
  8
0
  6
CONTINUOUS
 10
5.999400
 20
4.095080
  0
VERTEX
  8
0
  6
CONTINUOUS
 10
5.943080
 20
4.099040
  0
VERTEX
  8
0
  6
CONTINUOUS
 10
5.291000
 20
4.476120
  0
VERTEX
  8
0
  6
CONTINUOUS
 10
5.347320
 20
4.472160
  0
SEQEND
  8
0
  0
SOLID
  8
0
 62
    15
 10
5.581400
 20
4.369640
 11
6.233920
 21
3.992560
 12
5.462600
 22
4.402200
 13
6.114680
 23
4.025120
  0
POLYLINE
  8
0
  6
CONTINUOUS
 66
     1
 40
0.000000
 41
0.000000
  0
VERTEX
  8
0
  6
CONTINUOUS
 10
5.581400
 20
4.369640
  0
VERTEX
  8
0
  6
CONTINUOUS
 10
6.233920
 20
3.992560
  0
VERTEX
  8
0
  6
CONTINUOUS
 10
6.114680
 20
4.025120
  0
VERTEX
  8
0
  6
CONTINUOUS
 10
5.462600
 20
4.402200
  0
VERTEX
  8
0
  6
CONTINUOUS
 10
5.581400
 20
4.369640
  0
SEQEND
  8
0
  0
SOLID
  8
0
 62
    15
 10
5.291000
 20
4.476120
 11
5.943080
 21
4.099040
 12
5.143600
 22
4.454120
 13
5.795680
 23
4.076600
  0
POLYLINE
  8
0
  6
CONTINUOUS
 66
     1
 40
0.000000
 41
0.000000
  0
VERTEX
  8
0
  6
CONTINUOUS
 10
5.291000
 20
4.476120
  0
VERTEX
  8
0
  6
CONTINUOUS
 10
5.943080
 20
4.099040
  0
VERTEX
  8
0
  6
CONTINUOUS
 10
5.795680
 20
4.076600
  0
VERTEX
  8
0
  6
CONTINUOUS
 10
5.143600
 20
4.454120
  0
VERTEX
  8
0
  6
CONTINUOUS
 10
5.291000
 20
4.476120
  0
SEQEND
  8
0
  0
SOLID
  8
0
 62
    15
 10
5.143600
 20
4.454120
 11
5.795680
 21
4.076600
 12
4.993120
 22
4.413200
 13
5.645640
 23
4.036120
  0
POLYLINE
  8
0
  6
CONTINUOUS
 66
     1
 40
0.000000
 41
0.000000
  0
VERTEX
  8
0
  6
CONTINUOUS
 10
5.143600
 20
4.454120
  0
VERTEX
  8
0
  6
CONTINUOUS
 10
5.795680
 20
4.076600
  0
VERTEX
  8
0
  6
CONTINUOUS
 10
5.645640
 20
4.036120
  0
VERTEX
  8
0
  6
CONTINUOUS
 10
4.993120
 20
4.413200
  0
VERTEX
  8
0
  6
CONTINUOUS
 10
5.143600
 20
4.454120
  0
SEQEND
  8
0
  0
SOLID
  8
0
 62
    15
 10
4.993120
 20
4.413200
 11
5.645640
 21
4.036120
 12
4.933280
 22
4.393840
 13
5.585360
 23
4.016760
  0
POLYLINE
  8
0
  6
CONTINUOUS
 66
     1
 40
0.000000
 41
0.000000
  0
VERTEX
  8
0
  6
CONTINUOUS
 10
4.993120
 20
4.413200
  0
VERTEX
  8
0
  6
CONTINUOUS
 10
5.645640
 20
4.036120
  0
VERTEX
  8
0
  6
CONTINUOUS
 10
5.585360
 20
4.016760
  0
VERTEX
  8
0
  6
CONTINUOUS
 10
4.933280
 20
4.393840
  0
VERTEX
  8
0
  6
CONTINUOUS
 10
4.993120
 20
4.413200
  0
SEQEND
  8
0
  0
SOLID
  8
0
 62
    15
 10
4.933280
 20
4.393840
 11
5.585360
 21
4.016760
 12
4.891920
 22
4.379760
 13
5.544440
 23
4.002680
  0
POLYLINE
  8
0
  6
CONTINUOUS
 66
     1
 40
0.000000
 41
0.000000
  0
VERTEX
  8
0
  6
CONTINUOUS
 10
4.933280
 20
4.393840
  0
VERTEX
  8
0
  6
CONTINUOUS
 10
5.585360
 20
4.016760
  0
VERTEX
  8
0
  6
CONTINUOUS
 10
5.544440
 20
4.002680
  0
VERTEX
  8
0
  6
CONTINUOUS
 10
4.891920
 20
4.379760
  0
VERTEX
  8
0
  6
CONTINUOUS
 10
4.933280
 20
4.393840
  0
SEQEND
  8
0
  0
SOLID
  8
0
 62
    15
 10
4.891920
 20
4.379760
 11
5.544440
 21
4.002680
 12
4.847920
 22
4.361280
 13
5.500440
 23
3.984200
  0
POLYLINE
  8
0
  6
CONTINUOUS
 66
     1
 40
0.000000
 41
0.000000
  0
VERTEX
  8
0
  6
CONTINUOUS
 10
4.891920
 20
4.379760
  0
VERTEX
  8
0
  6
CONTINUOUS
 10
5.544440
 20
4.002680
  0
VERTEX
  8
0
  6
CONTINUOUS
 10
5.500440
 20
3.984200
  0
VERTEX
  8
0
  6
CONTINUOUS
 10
4.847920
 20
4.361280
  0
VERTEX
  8
0
  6
CONTINUOUS
 10
4.891920
 20
4.379760
  0
SEQEND
  8
0
  0
SOLID
  8
0
 62
    15
 10
4.847920
 20
4.361280
 11
5.500440
 21
3.984200
 12
4.780160
 22
4.326080
 13
5.432680
 23
3.949000
  0
POLYLINE
  8
0
  6
CONTINUOUS
 66
     1
 40
0.000000
 41
0.000000
  0
VERTEX
  8
0
  6
CONTINUOUS
 10
4.847920
 20
4.361280
  0
VERTEX
  8
0
  6
CONTINUOUS
 10
5.500440
 20
3.984200
  0
VERTEX
  8
0
  6
CONTINUOUS
 10
5.432680
 20
3.949000
  0
VERTEX
  8
0
  6
CONTINUOUS
 10
4.780160
 20
4.326080
  0
VERTEX
  8
0
  6
CONTINUOUS
 10
4.847920
 20
4.361280
  0
SEQEND
  8
0
  0
SOLID
  8
0
 62
    15
 10
4.780160
 20
4.326080
 11
5.432680
 21
3.949000
 12
4.694800
 22
4.272840
 13
5.347320
 23
3.895760
  0
POLYLINE
  8
0
  6
CONTINUOUS
 66
     1
 40
0.000000
 41
0.000000
  0
VERTEX
  8
0
  6
CONTINUOUS
 10
4.780160
 20
4.326080
  0
VERTEX
  8
0
  6
CONTINUOUS
 10
5.432680
 20
3.949000
  0
VERTEX
  8
0
  6
CONTINUOUS
 10
5.347320
 20
3.895760
  0
VERTEX
  8
0
  6
CONTINUOUS
 10
4.694800
 20
4.272840
  0
VERTEX
  8
0
  6
CONTINUOUS
 10
4.780160
 20
4.326080
  0
SEQEND
  8
0
  0
SOLID
  8
0
 62
    15
 10
4.694800
 20
4.272840
 11
5.347320
 21
3.895760
 12
4.598880
 22
4.199360
 13
5.251400
 23
3.822280
  0
POLYLINE
  8
0
  6
CONTINUOUS
 66
     1
 40
0.000000
 41
0.000000
  0
VERTEX
  8
0
  6
CONTINUOUS
 10
4.694800
 20
4.272840
  0
VERTEX
  8
0
  6
CONTINUOUS
 10
5.347320
 20
3.895760
  0
VERTEX
  8
0
  6
CONTINUOUS
 10
5.251400
 20
3.822280
  0
VERTEX
  8
0
  6
CONTINUOUS
 10
4.598880
 20
4.199360
  0
VERTEX
  8
0
  6
CONTINUOUS
 10
4.694800
 20
4.272840
  0
SEQEND
  8
0
  0
SOLID
  8
0
 62
    15
 10
4.598880
 20
4.199360
 11
5.251400
 21
3.822280
 12
4.499000
 22
4.103440
 13
5.151080
 23
3.726360
  0
POLYLINE
  8
0
  6
CONTINUOUS
 66
     1
 40
0.000000
 41
0.000000
  0
VERTEX
  8
0
  6
CONTINUOUS
 10
4.598880
 20
4.199360
  0
VERTEX
  8
0
  6
CONTINUOUS
 10
5.251400
 20
3.822280
  0
VERTEX
  8
0
  6
CONTINUOUS
 10
5.151080
 20
3.726360
  0
VERTEX
  8
0
  6
CONTINUOUS
 10
4.499000
 20
4.103440
  0
VERTEX
  8
0
  6
CONTINUOUS
 10
4.598880
 20
4.199360
  0
SEQEND
  8
0
  0
SOLID
  8
0
 62
    15
 10
4.499000
 20
4.103440
 11
5.151080
 21
3.726360
 12
4.401320
 22
3.983760
 13
5.053400
 23
3.606680
  0
POLYLINE
  8
0
  6
CONTINUOUS
 66
     1
 40
0.000000
 41
0.000000
  0
VERTEX
  8
0
  6
CONTINUOUS
 10
4.499000
 20
4.103440
  0
VERTEX
  8
0
  6
CONTINUOUS
 10
5.151080
 20
3.726360
  0
VERTEX
  8
0
  6
CONTINUOUS
 10
5.053400
 20
3.606680
  0
VERTEX
  8
0
  6
CONTINUOUS
 10
4.401320
 20
3.983760
  0
VERTEX
  8
0
  6
CONTINUOUS
 10
4.499000
 20
4.103440
  0
SEQEND
  8
0
  0
SOLID
  8
0
 62
    15
 10
4.401320
 20
3.983760
 11
5.053400
 21
3.606680
 12
4.312440
 22
3.838120
 13
4.964520
 23
3.461040
  0
POLYLINE
  8
0
  6
CONTINUOUS
 66
     1
 40
0.000000
 41
0.000000
  0
VERTEX
  8
0
  6
CONTINUOUS
 10
4.401320
 20
3.983760
  0
VERTEX
  8
0
  6
CONTINUOUS
 10
5.053400
 20
3.606680
  0
VERTEX
  8
0
  6
CONTINUOUS
 10
4.964520
 20
3.461040
  0
VERTEX
  8
0
  6
CONTINUOUS
 10
4.312440
 20
3.838120
  0
VERTEX
  8
0
  6
CONTINUOUS
 10
4.401320
 20
3.983760
  0
SEQEND
  8
0
  0
SOLID
  8
0
 62
    15
 10
4.312440
 20
3.838120
 11
4.964520
 21
3.461040
 12
4.239400
 22
3.665200
 13
4.891920
 23
3.288120
  0
POLYLINE
  8
0
  6
CONTINUOUS
 66
     1
 40
0.000000
 41
0.000000
  0
VERTEX
  8
0
  6
CONTINUOUS
 10
4.312440
 20
3.838120
  0
VERTEX
  8
0
  6
CONTINUOUS
 10
4.964520
 20
3.461040
  0
VERTEX
  8
0
  6
CONTINUOUS
 10
4.891920
 20
3.288120
  0
VERTEX
  8
0
  6
CONTINUOUS
 10
4.239400
 20
3.665200
  0
VERTEX
  8
0
  6
CONTINUOUS
 10
4.312440
 20
3.838120
  0
SEQEND
  8
0
  0
SOLID
  8
0
 62
    15
 10
4.239400
 20
3.665200
 11
4.891920
 21
3.288120
 12
4.187920
 22
3.487000
 13
4.840440
 23
3.109920
  0
POLYLINE
  8
0
  6
CONTINUOUS
 66
     1
 40
0.000000
 41
0.000000
  0
VERTEX
  8
0
  6
CONTINUOUS
 10
4.239400
 20
3.665200
  0
VERTEX
  8
0
  6
CONTINUOUS
 10
4.891920
 20
3.288120
  0
VERTEX
  8
0
  6
CONTINUOUS
 10
4.840440
 20
3.109920
  0
VERTEX
  8
0
  6
CONTINUOUS
 10
4.187920
 20
3.487000
  0
VERTEX
  8
0
  6
CONTINUOUS
 10
4.239400
 20
3.665200
  0
SEQEND
  8
0
  0
SOLID
  8
0
 62
    15
 10
4.187920
 20
3.487000
 11
4.840440
 21
3.109920
 12
4.154920
 22
3.325960
 13
4.807440
 23
2.948880
  0
POLYLINE
  8
0
  6
CONTINUOUS
 66
     1
 40
0.000000
 41
0.000000
  0
VERTEX
  8
0
  6
CONTINUOUS
 10
4.187920
 20
3.487000
  0
VERTEX
  8
0
  6
CONTINUOUS
 10
4.840440
 20
3.109920
  0
VERTEX
  8
0
  6
CONTINUOUS
 10
4.807440
 20
2.948880
  0
VERTEX
  8
0
  6
CONTINUOUS
 10
4.154920
 20
3.325960
  0
VERTEX
  8
0
  6
CONTINUOUS
 10
4.187920
 20
3.487000
  0
SEQEND
  8
0
  0
SOLID
  8
0
 62
    15
 10
4.154920
 20
3.325960
 11
4.807440
 21
2.948880
 12
4.133360
 22
3.180760
 13
4.785440
 23
2.803680
  0
POLYLINE
  8
0
  6
CONTINUOUS
 66
     1
 40
0.000000
 41
0.000000
  0
VERTEX
  8
0
  6
CONTINUOUS
 10
4.154920
 20
3.325960
  0
VERTEX
  8
0
  6
CONTINUOUS
 10
4.807440
 20
2.948880
  0
VERTEX
  8
0
  6
CONTINUOUS
 10
4.785440
 20
2.803680
  0
VERTEX
  8
0
  6
CONTINUOUS
 10
4.133360
 20
3.180760
  0
VERTEX
  8
0
  6
CONTINUOUS
 10
4.154920
 20
3.325960
  0
SEQEND
  8
0
  0
SOLID
  8
0
 62
    15
 10
4.133360
 20
3.180760
 11
4.785440
 21
2.803680
 12
4.124560
 22
3.113440
 13
4.776640
 23
2.736360
  0
POLYLINE
  8
0
  6
CONTINUOUS
 66
     1
 40
0.000000
 41
0.000000
  0
VERTEX
  8
0
  6
CONTINUOUS
 10
4.133360
 20
3.180760
  0
VERTEX
  8
0
  6
CONTINUOUS
 10
4.785440
 20
2.803680
  0
VERTEX
  8
0
  6
CONTINUOUS
 10
4.776640
 20
2.736360
  0
VERTEX
  8
0
  6
CONTINUOUS
 10
4.124560
 20
3.113440
  0
VERTEX
  8
0
  6
CONTINUOUS
 10
4.133360
 20
3.180760
  0
SEQEND
  8
0
  0
SOLID
  8
0
 62
    15
 10
4.124560
 20
3.113440
 11
4.776640
 21
2.736360
 12
4.115760
 22
3.049640
 13
4.767840
 23
2.672560
  0
POLYLINE
  8
0
  6
CONTINUOUS
 66
     1
 40
0.000000
 41
0.000000
  0
VERTEX
  8
0
  6
CONTINUOUS
 10
4.124560
 20
3.113440
  0
VERTEX
  8
0
  6
CONTINUOUS
 10
4.776640
 20
2.736360
  0
VERTEX
  8
0
  6
CONTINUOUS
 10
4.767840
 20
2.672560
  0
VERTEX
  8
0
  6
CONTINUOUS
 10
4.115760
 20
3.049640
  0
VERTEX
  8
0
  6
CONTINUOUS
 10
4.124560
 20
3.113440
  0
SEQEND
  8
0
  0
SOLID
  8
0
 62
    15
 10
4.115760
 20
3.049640
 11
4.767840
 21
2.672560
 12
4.064720
 22
2.822160
 13
4.716800
 23
2.445080
  0
POLYLINE
  8
0
  6
CONTINUOUS
 66
     1
 40
0.000000
 41
0.000000
  0
VERTEX
  8
0
  6
CONTINUOUS
 10
4.115760
 20
3.049640
  0
VERTEX
  8
0
  6
CONTINUOUS
 10
4.767840
 20
2.672560
  0
VERTEX
  8
0
  6
CONTINUOUS
 10
4.716800
 20
2.445080
  0
VERTEX
  8
0
  6
CONTINUOUS
 10
4.064720
 20
2.822160
  0
VERTEX
  8
0
  6
CONTINUOUS
 10
4.115760
 20
3.049640
  0
SEQEND
  8
0
  0
SOLID
  8
0
 62
    15
 10
4.064720
 20
2.822160
 11
4.716800
 21
2.445080
 12
4.016760
 22
2.722280
 13
4.669280
 23
2.345200
  0
POLYLINE
  8
0
  6
CONTINUOUS
 66
     1
 40
0.000000
 41
0.000000
  0
VERTEX
  8
0
  6
CONTINUOUS
 10
4.064720
 20
2.822160
  0
VERTEX
  8
0
  6
CONTINUOUS
 10
4.716800
 20
2.445080
  0
VERTEX
  8
0
  6
CONTINUOUS
 10
4.669280
 20
2.345200
  0
VERTEX
  8
0
  6
CONTINUOUS
 10
4.016760
 20
2.722280
  0
VERTEX
  8
0
  6
CONTINUOUS
 10
4.064720
 20
2.822160
  0
SEQEND
  8
0
  0
SOLID
  8
0
 62
    15
 10
5.804920
 20
4.478320
 11
6.457440
 21
4.101240
 12
5.761360
 22
4.420240
 13
6.413880
 23
4.043160
  0
POLYLINE
  8
0
  6
CONTINUOUS
 66
     1
 40
0.000000
 41
0.000000
  0
VERTEX
  8
0
  6
CONTINUOUS
 10
5.804920
 20
4.478320
  0
VERTEX
  8
0
  6
CONTINUOUS
 10
6.457440
 20
4.101240
  0
VERTEX
  8
0
  6
CONTINUOUS
 10
6.413880
 20
4.043160
  0
VERTEX
  8
0
  6
CONTINUOUS
 10
5.761360
 20
4.420240
  0
VERTEX
  8
0
  6
CONTINUOUS
 10
5.804920
 20
4.478320
  0
SEQEND
  8
0
  0
SOLID
  8
0
 62
    15
 10
3.944600
 20
2.629880
 11
4.597120
 21
2.252800
 12
3.859680
 22
2.552000
 13
4.511760
 23
2.174920
  0
POLYLINE
  8
0
  6
CONTINUOUS
 66
     1
 40
0.000000
 41
0.000000
  0
VERTEX
  8
0
  6
CONTINUOUS
 10
3.944600
 20
2.629880
  0
VERTEX
  8
0
  6
CONTINUOUS
 10
4.597120
 20
2.252800
  0
VERTEX
  8
0
  6
CONTINUOUS
 10
4.511760
 20
2.174920
  0
VERTEX
  8
0
  6
CONTINUOUS
 10
3.859680
 20
2.552000
  0
VERTEX
  8
0
  6
CONTINUOUS
 10
3.944600
 20
2.629880
  0
SEQEND
  8
0
  0
SOLID
  8
0
 62
    15
 10
3.859680
 20
2.552000
 11
4.511760
 21
2.174920
 12
3.776960
 22
2.494800
 13
4.429480
 23
2.117720
  0
POLYLINE
  8
0
  6
CONTINUOUS
 66
     1
 40
0.000000
 41
0.000000
  0
VERTEX
  8
0
  6
CONTINUOUS
 10
3.859680
 20
2.552000
  0
VERTEX
  8
0
  6
CONTINUOUS
 10
4.511760
 20
2.174920
  0
VERTEX
  8
0
  6
CONTINUOUS
 10
4.429480
 20
2.117720
  0
VERTEX
  8
0
  6
CONTINUOUS
 10
3.776960
 20
2.494800
  0
VERTEX
  8
0
  6
CONTINUOUS
 10
3.859680
 20
2.552000
  0
SEQEND
  8
0
  0
SOLID
  8
0
 62
    15
 10
3.776960
 20
2.494800
 11
4.429480
 21
2.117720
 12
3.622520
 22
2.427920
 13
4.275040
 23
2.050840
  0
POLYLINE
  8
0
  6
CONTINUOUS
 66
     1
 40
0.000000
 41
0.000000
  0
VERTEX
  8
0
  6
CONTINUOUS
 10
3.776960
 20
2.494800
  0
VERTEX
  8
0
  6
CONTINUOUS
 10
4.429480
 20
2.117720
  0
VERTEX
  8
0
  6
CONTINUOUS
 10
4.275040
 20
2.050840
  0
VERTEX
  8
0
  6
CONTINUOUS
 10
3.622520
 20
2.427920
  0
VERTEX
  8
0
  6
CONTINUOUS
 10
3.776960
 20
2.494800
  0
SEQEND
  8
0
  0
SOLID
  8
0
 62
    15
 10
3.622520
 20
2.427920
 11
4.275040
 21
2.050840
 12
3.486120
 22
2.400640
 13
4.138200
 23
2.023560
  0
POLYLINE
  8
0
  6
CONTINUOUS
 66
     1
 40
0.000000
 41
0.000000
  0
VERTEX
  8
0
  6
CONTINUOUS
 10
3.622520
 20
2.427920
  0
VERTEX
  8
0
  6
CONTINUOUS
 10
4.275040
 20
2.050840
  0
VERTEX
  8
0
  6
CONTINUOUS
 10
4.138200
 20
2.023560
  0
VERTEX
  8
0
  6
CONTINUOUS
 10
3.486120
 20
2.400640
  0
VERTEX
  8
0
  6
CONTINUOUS
 10
3.622520
 20
2.427920
  0
SEQEND
  8
0
  0
SOLID
  8
0
 62
    15
 10
3.486120
 20
2.400640
 11
4.138200
 21
2.023560
 12
3.425840
 22
2.392720
 13
4.077920
 23
2.015640
  0
POLYLINE
  8
0
  6
CONTINUOUS
 66
     1
 40
0.000000
 41
0.000000
  0
VERTEX
  8
0
  6
CONTINUOUS
 10
3.486120
 20
2.400640
  0
VERTEX
  8
0
  6
CONTINUOUS
 10
4.138200
 20
2.023560
  0
VERTEX
  8
0
  6
CONTINUOUS
 10
4.077920
 20
2.015640
  0
VERTEX
  8
0
  6
CONTINUOUS
 10
3.425840
 20
2.392720
  0
VERTEX
  8
0
  6
CONTINUOUS
 10
3.486120
 20
2.400640
  0
SEQEND
  8
0
  0
SOLID
  8
0
 62
    15
 10
3.425840
 20
2.392720
 11
4.077920
 21
2.015640
 12
3.371280
 22
2.383480
 13
4.023800
 23
2.006400
  0
POLYLINE
  8
0
  6
CONTINUOUS
 66
     1
 40
0.000000
 41
0.000000
  0
VERTEX
  8
0
  6
CONTINUOUS
 10
3.425840
 20
2.392720
  0
VERTEX
  8
0
  6
CONTINUOUS
 10
4.077920
 20
2.015640
  0
VERTEX
  8
0
  6
CONTINUOUS
 10
4.023800
 20
2.006400
  0
VERTEX
  8
0
  6
CONTINUOUS
 10
3.371280
 20
2.383480
  0
VERTEX
  8
0
  6
CONTINUOUS
 10
3.425840
 20
2.392720
  0
SEQEND
  8
0
  0
SOLID
  8
0
 62
    15
 10
3.371280
 20
2.383480
 11
4.023800
 21
2.006400
 12
3.335200
 22
2.359280
 13
3.987720
 23
1.981760
  0
POLYLINE
  8
0
  6
CONTINUOUS
 66
     1
 40
0.000000
 41
0.000000
  0
VERTEX
  8
0
  6
CONTINUOUS
 10
3.371280
 20
2.383480
  0
VERTEX
  8
0
  6
CONTINUOUS
 10
4.023800
 20
2.006400
  0
VERTEX
  8
0
  6
CONTINUOUS
 10
3.987720
 20
1.981760
  0
VERTEX
  8
0
  6
CONTINUOUS
 10
3.335200
 20
2.359280
  0
VERTEX
  8
0
  6
CONTINUOUS
 10
3.371280
 20
2.383480
  0
SEQEND
  8
0
  0
SOLID
  8
0
 62
    15
 10
3.335200
 20
2.359280
 11
3.987720
 21
1.981760
 12
3.319800
 22
2.332880
 13
3.971880
 23
1.955360
  0
POLYLINE
  8
0
  6
CONTINUOUS
 66
     1
 40
0.000000
 41
0.000000
  0
VERTEX
  8
0
  6
CONTINUOUS
 10
3.335200
 20
2.359280
  0
VERTEX
  8
0
  6
CONTINUOUS
 10
3.987720
 20
1.981760
  0
VERTEX
  8
0
  6
CONTINUOUS
 10
3.971880
 20
1.955360
  0
VERTEX
  8
0
  6
CONTINUOUS
 10
3.319800
 20
2.332880
  0
VERTEX
  8
0
  6
CONTINUOUS
 10
3.335200
 20
2.359280
  0
SEQEND
  8
0
  0
SOLID
  8
0
 62
    15
 10
3.319800
 20
2.332880
 11
3.971880
 21
1.955360
 12
3.324200
 22
2.294160
 13
3.976280
 23
1.917080
  0
POLYLINE
  8
0
  6
CONTINUOUS
 66
     1
 40
0.000000
 41
0.000000
  0
VERTEX
  8
0
  6
CONTINUOUS
 10
3.319800
 20
2.332880
  0
VERTEX
  8
0
  6
CONTINUOUS
 10
3.971880
 20
1.955360
  0
VERTEX
  8
0
  6
CONTINUOUS
 10
3.976280
 20
1.917080
  0
VERTEX
  8
0
  6
CONTINUOUS
 10
3.324200
 20
2.294160
  0
VERTEX
  8
0
  6
CONTINUOUS
 10
3.319800
 20
2.332880
  0
SEQEND
  8
0
  0
SOLID
  8
0
 62
    15
 10
3.324200
 20
2.294160
 11
3.976280
 21
1.917080
 12
3.348400
 22
2.233000
 13
4.000480
 23
1.855920
  0
POLYLINE
  8
0
  6
CONTINUOUS
 66
     1
 40
0.000000
 41
0.000000
  0
VERTEX
  8
0
  6
CONTINUOUS
 10
3.324200
 20
2.294160
  0
VERTEX
  8
0
  6
CONTINUOUS
 10
3.976280
 20
1.917080
  0
VERTEX
  8
0
  6
CONTINUOUS
 10
4.000480
 20
1.855920
  0
VERTEX
  8
0
  6
CONTINUOUS
 10
3.348400
 20
2.233000
  0
VERTEX
  8
0
  6
CONTINUOUS
 10
3.324200
 20
2.294160
  0
SEQEND
  8
0
  0
SOLID
  8
0
 62
    15
 10
3.348400
 20
2.233000
 11
4.000480
 21
1.855920
 12
3.377000
 22
2.140600
 13
4.029080
 23
1.763520
  0
POLYLINE
  8
0
  6
CONTINUOUS
 66
     1
 40
0.000000
 41
0.000000
  0
VERTEX
  8
0
  6
CONTINUOUS
 10
3.348400
 20
2.233000
  0
VERTEX
  8
0
  6
CONTINUOUS
 10
4.000480
 20
1.855920
  0
VERTEX
  8
0
  6
CONTINUOUS
 10
4.029080
 20
1.763520
  0
VERTEX
  8
0
  6
CONTINUOUS
 10
3.377000
 20
2.140600
  0
VERTEX
  8
0
  6
CONTINUOUS
 10
3.348400
 20
2.233000
  0
SEQEND
  8
0
  0
SOLID
  8
0
 62
    15
 10
3.377000
 20
2.140600
 11
4.029080
 21
1.763520
 12
3.372600
 22
2.029720
 13
4.025120
 23
1.652640
  0
POLYLINE
  8
0
  6
CONTINUOUS
 66
     1
 40
0.000000
 41
0.000000
  0
VERTEX
  8
0
  6
CONTINUOUS
 10
3.377000
 20
2.140600
  0
VERTEX
  8
0
  6
CONTINUOUS
 10
4.029080
 20
1.763520
  0
VERTEX
  8
0
  6
CONTINUOUS
 10
4.025120
 20
1.652640
  0
VERTEX
  8
0
  6
CONTINUOUS
 10
3.372600
 20
2.029720
  0
VERTEX
  8
0
  6
CONTINUOUS
 10
3.377000
 20
2.140600
  0
SEQEND
  8
0
  0
SOLID
  8
0
 62
    15
 10
3.372600
 20
2.029720
 11
4.025120
 21
1.652640
 12
3.347520
 22
1.974280
 13
4.000040
 23
1.597200
  0
POLYLINE
  8
0
  6
CONTINUOUS
 66
     1
 40
0.000000
 41
0.000000
  0
VERTEX
  8
0
  6
CONTINUOUS
 10
3.372600
 20
2.029720
  0
VERTEX
  8
0
  6
CONTINUOUS
 10
4.025120
 20
1.652640
  0
VERTEX
  8
0
  6
CONTINUOUS
 10
4.000040
 20
1.597200
  0
VERTEX
  8
0
  6
CONTINUOUS
 10
3.347520
 20
1.974280
  0
VERTEX
  8
0
  6
CONTINUOUS
 10
3.372600
 20
2.029720
  0
SEQEND
  8
0
  0
SOLID
  8
0
 62
    15
 10
3.347520
 20
1.974280
 11
4.000040
 21
1.597200
 12
3.301320
 22
1.922360
 13
3.953400
 23
1.544840
  0
POLYLINE
  8
0
  6
CONTINUOUS
 66
     1
 40
0.000000
 41
0.000000
  0
VERTEX
  8
0
  6
CONTINUOUS
 10
3.347520
 20
1.974280
  0
VERTEX
  8
0
  6
CONTINUOUS
 10
4.000040
 20
1.597200
  0
VERTEX
  8
0
  6
CONTINUOUS
 10
3.953400
 20
1.544840
  0
VERTEX
  8
0
  6
CONTINUOUS
 10
3.301320
 20
1.922360
  0
VERTEX
  8
0
  6
CONTINUOUS
 10
3.347520
 20
1.974280
  0
SEQEND
  8
0
  0
SOLID
  8
0
 62
    15
 10
3.301320
 20
1.922360
 11
3.953400
 21
1.544840
 12
3.229160
 22
1.876160
 13
3.881680
 23
1.499080
  0
POLYLINE
  8
0
  6
CONTINUOUS
 66
     1
 40
0.000000
 41
0.000000
  0
VERTEX
  8
0
  6
CONTINUOUS
 10
3.301320
 20
1.922360
  0
VERTEX
  8
0
  6
CONTINUOUS
 10
3.953400
 20
1.544840
  0
VERTEX
  8
0
  6
CONTINUOUS
 10
3.881680
 20
1.499080
  0
VERTEX
  8
0
  6
CONTINUOUS
 10
3.229160
 20
1.876160
  0
VERTEX
  8
0
  6
CONTINUOUS
 10
3.301320
 20
1.922360
  0
SEQEND
  8
0
  0
SOLID
  8
0
 62
    15
 10
3.229160
 20
1.876160
 11
3.881680
 21
1.499080
 12
3.127520
 22
1.838760
 13
3.779600
 23
1.461680
  0
POLYLINE
  8
0
  6
CONTINUOUS
 66
     1
 40
0.000000
 41
0.000000
  0
VERTEX
  8
0
  6
CONTINUOUS
 10
3.229160
 20
1.876160
  0
VERTEX
  8
0
  6
CONTINUOUS
 10
3.881680
 20
1.499080
  0
VERTEX
  8
0
  6
CONTINUOUS
 10
3.779600
 20
1.461680
  0
VERTEX
  8
0
  6
CONTINUOUS
 10
3.127520
 20
1.838760
  0
VERTEX
  8
0
  6
CONTINUOUS
 10
3.229160
 20
1.876160
  0
SEQEND
  8
0
  0
SOLID
  8
0
 62
    15
 10
3.127520
 20
1.838760
 11
3.779600
 21
1.461680
 12
3.118280
 22
1.740200
 13
3.770800
 23
1.363120
  0
POLYLINE
  8
0
  6
CONTINUOUS
 66
     1
 40
0.000000
 41
0.000000
  0
VERTEX
  8
0
  6
CONTINUOUS
 10
3.127520
 20
1.838760
  0
VERTEX
  8
0
  6
CONTINUOUS
 10
3.779600
 20
1.461680
  0
VERTEX
  8
0
  6
CONTINUOUS
 10
3.770800
 20
1.363120
  0
VERTEX
  8
0
  6
CONTINUOUS
 10
3.118280
 20
1.740200
  0
VERTEX
  8
0
  6
CONTINUOUS
 10
3.127520
 20
1.838760
  0
SEQEND
  8
0
  0
SOLID
  8
0
 62
    15
 10
3.118280
 20
1.740200
 11
3.770800
 21
1.363120
 12
3.010040
 22
1.726560
 13
3.662560
 23
1.349480
  0
POLYLINE
  8
0
  6
CONTINUOUS
 66
     1
 40
0.000000
 41
0.000000
  0
VERTEX
  8
0
  6
CONTINUOUS
 10
3.118280
 20
1.740200
  0
VERTEX
  8
0
  6
CONTINUOUS
 10
3.770800
 20
1.363120
  0
VERTEX
  8
0
  6
CONTINUOUS
 10
3.662560
 20
1.349480
  0
VERTEX
  8
0
  6
CONTINUOUS
 10
3.010040
 20
1.726560
  0
VERTEX
  8
0
  6
CONTINUOUS
 10
3.118280
 20
1.740200
  0
SEQEND
  8
0
  0
SOLID
  8
0
 62
    15
 10
3.010040
 20
1.726560
 11
3.662560
 21
1.349480
 12
2.900480
 22
1.675520
 13
3.552560
 23
1.298000
  0
POLYLINE
  8
0
  6
CONTINUOUS
 66
     1
 40
0.000000
 41
0.000000
  0
VERTEX
  8
0
  6
CONTINUOUS
 10
3.010040
 20
1.726560
  0
VERTEX
  8
0
  6
CONTINUOUS
 10
3.662560
 20
1.349480
  0
VERTEX
  8
0
  6
CONTINUOUS
 10
3.552560
 20
1.298000
  0
VERTEX
  8
0
  6
CONTINUOUS
 10
2.900480
 20
1.675520
  0
VERTEX
  8
0
  6
CONTINUOUS
 10
3.010040
 20
1.726560
  0
SEQEND
  8
0
  0
SOLID
  8
0
 62
    15
 10
2.900480
 20
1.675520
 11
3.552560
 21
1.298000
 12
2.851640
 22
1.630640
 13
3.504160
 23
1.253560
  0
POLYLINE
  8
0
  6
CONTINUOUS
 66
     1
 40
0.000000
 41
0.000000
  0
VERTEX
  8
0
  6
CONTINUOUS
 10
2.900480
 20
1.675520
  0
VERTEX
  8
0
  6
CONTINUOUS
 10
3.552560
 20
1.298000
  0
VERTEX
  8
0
  6
CONTINUOUS
 10
3.504160
 20
1.253560
  0
VERTEX
  8
0
  6
CONTINUOUS
 10
2.851640
 20
1.630640
  0
VERTEX
  8
0
  6
CONTINUOUS
 10
2.900480
 20
1.675520
  0
SEQEND
  8
0
  0
SOLID
  8
0
 62
    15
 10
2.851640
 20
1.630640
 11
3.504160
 21
1.253560
 12
2.811160
 22
1.570800
 13
3.463240
 23
1.193720
  0
POLYLINE
  8
0
  6
CONTINUOUS
 66
     1
 40
0.000000
 41
0.000000
  0
VERTEX
  8
0
  6
CONTINUOUS
 10
2.851640
 20
1.630640
  0
VERTEX
  8
0
  6
CONTINUOUS
 10
3.504160
 20
1.253560
  0
VERTEX
  8
0
  6
CONTINUOUS
 10
3.463240
 20
1.193720
  0
VERTEX
  8
0
  6
CONTINUOUS
 10
2.811160
 20
1.570800
  0
VERTEX
  8
0
  6
CONTINUOUS
 10
2.851640
 20
1.630640
  0
SEQEND
  8
0
  0
SOLID
  8
0
 62
    15
 10
2.811160
 20
1.570800
 11
3.463240
 21
1.193720
 12
2.780800
 22
1.493360
 13
3.433320
 23
1.116280
  0
POLYLINE
  8
0
  6
CONTINUOUS
 66
     1
 40
0.000000
 41
0.000000
  0
VERTEX
  8
0
  6
CONTINUOUS
 10
2.811160
 20
1.570800
  0
VERTEX
  8
0
  6
CONTINUOUS
 10
3.463240
 20
1.193720
  0
VERTEX
  8
0
  6
CONTINUOUS
 10
3.433320
 20
1.116280
  0
VERTEX
  8
0
  6
CONTINUOUS
 10
2.780800
 20
1.493360
  0
VERTEX
  8
0
  6
CONTINUOUS
 10
2.811160
 20
1.570800
  0
SEQEND
  8
0
  0
SOLID
  8
0
 62
    15
 10
2.780800
 20
1.493360
 11
3.433320
 21
1.116280
 12
2.764080
 22
1.396560
 13
3.416600
 23
1.019480
  0
POLYLINE
  8
0
  6
CONTINUOUS
 66
     1
 40
0.000000
 41
0.000000
  0
VERTEX
  8
0
  6
CONTINUOUS
 10
2.780800
 20
1.493360
  0
VERTEX
  8
0
  6
CONTINUOUS
 10
3.433320
 20
1.116280
  0
VERTEX
  8
0
  6
CONTINUOUS
 10
3.416600
 20
1.019480
  0
VERTEX
  8
0
  6
CONTINUOUS
 10
2.764080
 20
1.396560
  0
VERTEX
  8
0
  6
CONTINUOUS
 10
2.780800
 20
1.493360
  0
SEQEND
  8
0
  0
SOLID
  8
0
 62
    15
 10
2.764080
 20
1.396560
 11
3.416600
 21
1.019480
 12
2.580160
 22
1.389520
 13
3.232680
 23
1.012440
  0
POLYLINE
  8
0
  6
CONTINUOUS
 66
     1
 40
0.000000
 41
0.000000
  0
VERTEX
  8
0
  6
CONTINUOUS
 10
2.764080
 20
1.396560
  0
VERTEX
  8
0
  6
CONTINUOUS
 10
3.416600
 20
1.019480
  0
VERTEX
  8
0
  6
CONTINUOUS
 10
3.232680
 20
1.012440
  0
VERTEX
  8
0
  6
CONTINUOUS
 10
2.580160
 20
1.389520
  0
VERTEX
  8
0
  6
CONTINUOUS
 10
2.764080
 20
1.396560
  0
SEQEND
  8
0
  0
SOLID
  8
0
 62
    15
 10
5.804920
 20
4.838240
 11
6.457000
 21
4.461160
 12
5.804920
 22
4.478320
 13
6.457440
 23
4.101240
  0
POLYLINE
  8
0
  6
CONTINUOUS
 66
     1
 40
0.000000
 41
0.000000
  0
VERTEX
  8
0
  6
CONTINUOUS
 10
5.804920
 20
4.838240
  0
VERTEX
  8
0
  6
CONTINUOUS
 10
6.457000
 20
4.461160
  0
VERTEX
  8
0
  6
CONTINUOUS
 10
6.457440
 20
4.101240
  0
VERTEX
  8
0
  6
CONTINUOUS
 10
5.804920
 20
4.478320
  0
VERTEX
  8
0
  6
CONTINUOUS
 10
5.804920
 20
4.838240
  0
SEQEND
  8
0
  0
POLYLINE
  8
0
  6
CONTINUOUS
 66
     1
 40
0.000000
 41
0.000000
  0
VERTEX
  8
0
  6
CONTINUOUS
 10
5.804920
 20
4.478320
  0
VERTEX
  8
0
  6
CONTINUOUS
 10
5.761360
 20
4.420240
  0
VERTEX
  8
0
  6
CONTINUOUS
 10
5.706800
 20
4.385480
  0
VERTEX
  8
0
  6
CONTINUOUS
 10
5.645640
 20
4.370080
  0
VERTEX
  8
0
  6
CONTINUOUS
 10
5.581400
 20
4.369640
  0
VERTEX
  8
0
  6
CONTINUOUS
 10
5.462600
 20
4.402200
  0
VERTEX
  8
0
  6
CONTINUOUS
 10
5.383400
 20
4.454560
  0
VERTEX
  8
0
  6
CONTINUOUS
 10
5.347320
 20
4.472160
  0
VERTEX
  8
0
  6
CONTINUOUS
 10
5.291000
 20
4.476120
  0
VERTEX
  8
0
  6
CONTINUOUS
 10
5.143600
 20
4.454120
  0
VERTEX
  8
0
  6
CONTINUOUS
 10
4.993120
 20
4.413200
  0
VERTEX
  8
0
  6
CONTINUOUS
 10
4.891920
 20
4.379760
  0
VERTEX
  8
0
  6
CONTINUOUS
 10
4.847920
 20
4.361280
  0
VERTEX
  8
0
  6
CONTINUOUS
 10
4.780160
 20
4.326080
  0
VERTEX
  8
0
  6
CONTINUOUS
 10
4.694800
 20
4.272840
  0
VERTEX
  8
0
  6
CONTINUOUS
 10
4.598880
 20
4.199360
  0
VERTEX
  8
0
  6
CONTINUOUS
 10
4.499000
 20
4.103440
  0
VERTEX
  8
0
  6
CONTINUOUS
 10
4.401320
 20
3.983760
  0
VERTEX
  8
0
  6
CONTINUOUS
 10
4.312440
 20
3.838120
  0
VERTEX
  8
0
  6
CONTINUOUS
 10
4.239400
 20
3.665200
  0
VERTEX
  8
0
  6
CONTINUOUS
 10
4.187920
 20
3.487000
  0
VERTEX
  8
0
  6
CONTINUOUS
 10
4.154920
 20
3.325960
  0
VERTEX
  8
0
  6
CONTINUOUS
 10
4.133360
 20
3.180760
  0
VERTEX
  8
0
  6
CONTINUOUS
 10
4.115760
 20
3.049640
  0
VERTEX
  8
0
  6
CONTINUOUS
 10
4.064720
 20
2.822160
  0
VERTEX
  8
0
  6
CONTINUOUS
 10
4.016760
 20
2.722280
  0
VERTEX
  8
0
  6
CONTINUOUS
 10
3.944600
 20
2.629880
  0
VERTEX
  8
0
  6
CONTINUOUS
 10
3.859680
 20
2.552000
  0
VERTEX
  8
0
  6
CONTINUOUS
 10
3.776960
 20
2.494800
  0
VERTEX
  8
0
  6
CONTINUOUS
 10
3.622520
 20
2.427920
  0
VERTEX
  8
0
  6
CONTINUOUS
 10
3.486120
 20
2.400640
  0
VERTEX
  8
0
  6
CONTINUOUS
 10
3.425840
 20
2.392720
  0
VERTEX
  8
0
  6
CONTINUOUS
 10
3.371280
 20
2.383480
  0
VERTEX
  8
0
  6
CONTINUOUS
 10
3.335200
 20
2.359280
  0
VERTEX
  8
0
  6
CONTINUOUS
 10
3.319800
 20
2.332880
  0
VERTEX
  8
0
  6
CONTINUOUS
 10
3.324200
 20
2.294160
  0
VERTEX
  8
0
  6
CONTINUOUS
 10
3.348400
 20
2.233000
  0
VERTEX
  8
0
  6
CONTINUOUS
 10
3.377000
 20
2.140600
  0
VERTEX
  8
0
  6
CONTINUOUS
 10
3.372600
 20
2.029720
  0
VERTEX
  8
0
  6
CONTINUOUS
 10
3.347520
 20
1.974280
  0
VERTEX
  8
0
  6
CONTINUOUS
 10
3.301320
 20
1.922360
  0
VERTEX
  8
0
  6
CONTINUOUS
 10
3.229160
 20
1.876160
  0
VERTEX
  8
0
  6
CONTINUOUS
 10
3.127520
 20
1.838760
  0
VERTEX
  8
0
  6
CONTINUOUS
 10
3.118280
 20
1.740200
  0
VERTEX
  8
0
  6
CONTINUOUS
 10
3.010040
 20
1.726560
  0
VERTEX
  8
0
  6
CONTINUOUS
 10
2.900480
 20
1.675520
  0
VERTEX
  8
0
  6
CONTINUOUS
 10
2.851640
 20
1.630640
  0
VERTEX
  8
0
  6
CONTINUOUS
 10
2.811160
 20
1.570800
  0
VERTEX
  8
0
  6
CONTINUOUS
 10
2.780800
 20
1.493360
  0
VERTEX
  8
0
  6
CONTINUOUS
 10
2.764080
 20
1.396560
  0
VERTEX
  8
0
  6
CONTINUOUS
 10
2.580160
 20
1.389520
  0
VERTEX
  8
0
  6
CONTINUOUS
 10
2.603920
 20
2.769800
  0
VERTEX
  8
0
  6
CONTINUOUS
 10
4.636720
 20
4.816680
  0
VERTEX
  8
0
  6
CONTINUOUS
 10
5.804920
 20
4.838240
  0
VERTEX
  8
0
  6
CONTINUOUS
 10
5.804920
 20
4.478320
  0
SEQEND
  8
0
  0
TEXT
  8
0
 10
4.697000
 20
1.229360
 40
0.138040
  1
BA  842
 41
1.000000
  7
SN0
 71
     0
 72
     5
 11
5.288255
 21
1.229360
  0
TEXT
  8
0
 10
4.329160
 20
1.037960
 40
0.138040
  1
1-1/16" x 4-11/16"
 41
1.000000
  7
SN0
 71
     0
 72
     5
 11
5.656713
 21
1.037960
  0
POLYLINE
  8
0
  6
CONTINUOUS
 66
     1
 40
0.014080
 41
0.014080
  0
VERTEX
  8
0
  6
CONTINUOUS
 10
2.407240
 20
5.997200
  0
VERTEX
  8
0
  6
CONTINUOUS
 10
2.444200
 20
6.005560
  0
VERTEX
  8
0
  6
CONTINUOUS
 10
2.461800
 20
6.007320
  0
VERTEX
  8
0
  6
CONTINUOUS
 10
2.478960
 20
6.007320
  0
VERTEX
  8
0
  6
CONTINUOUS
 10
2.511520
 20
6.002920
  0
VERTEX
  8
0
  6
CONTINUOUS
 10
2.542320
 20
5.993240
  0
VERTEX
  8
0
  6
CONTINUOUS
 10
2.570480
 20
5.978720
  0
VERTEX
  8
0
  6
CONTINUOUS
 10
2.596440
 20
5.960680
  0
VERTEX
  8
0
  6
CONTINUOUS
 10
2.631200
 20
5.927680
  0
VERTEX
  8
0
  6
CONTINUOUS
 10
2.660680
 20
5.889400
  0
VERTEX
  8
0
  6
CONTINUOUS
 10
2.677400
 20
5.862560
  0
VERTEX
  8
0
  6
CONTINUOUS
 10
2.702480
 20
5.808000
  0
VERTEX
  8
0
  6
CONTINUOUS
 10
2.714800
 20
5.768840
  0
VERTEX
  8
0
  6
CONTINUOUS
 10
2.720960
 20
5.734520
  0
VERTEX
  8
0
  6
CONTINUOUS
 10
2.721840
 20
5.705920
  0
VERTEX
  8
0
  6
CONTINUOUS
 10
2.728440
 20
5.687000
  0
VERTEX
  8
0
  6
CONTINUOUS
 10
2.741200
 20
5.666320
  0
VERTEX
  8
0
  6
CONTINUOUS
 10
2.771120
 20
5.634200
  0
VERTEX
  8
0
  6
CONTINUOUS
 10
2.810720
 20
5.600760
  0
VERTEX
  8
0
  6
CONTINUOUS
 10
2.857360
 20
5.567320
  0
VERTEX
  8
0
  6
CONTINUOUS
 10
2.925120
 20
5.523760
  0
VERTEX
  8
0
  6
CONTINUOUS
 10
3.040400
 20
5.459080
  0
VERTEX
  8
0
  6
CONTINUOUS
 10
3.120480
 20
5.419040
  0
VERTEX
  8
0
  6
CONTINUOUS
 10
3.180320
 20
5.395280
  0
VERTEX
  8
0
  6
CONTINUOUS
 10
3.259520
 20
5.371080
  0
VERTEX
  8
0
  6
CONTINUOUS
 10
3.335200
 20
5.354360
  0
VERTEX
  8
0
  6
CONTINUOUS
 10
3.423200
 20
5.341160
  0
VERTEX
  8
0
  6
CONTINUOUS
 10
3.488320
 20
5.335880
  0
VERTEX
  8
0
  6
CONTINUOUS
 10
3.557400
 20
5.333680
  0
VERTEX
  8
0
  6
CONTINUOUS
 10
3.630880
 20
5.336320
  0
VERTEX
  8
0
  6
CONTINUOUS
 10
3.707880
 20
5.343360
  0
VERTEX
  8
0
  6
CONTINUOUS
 10
3.787960
 20
5.356560
  0
VERTEX
  8
0
  6
CONTINUOUS
 10
3.870680
 20
5.376360
  0
VERTEX
  8
0
  6
CONTINUOUS
 10
3.956040
 20
5.403200
  0
VERTEX
  8
0
  6
CONTINUOUS
 10
4.043600
 20
5.438400
  0
VERTEX
  8
0
  6
CONTINUOUS
 10
4.131160
 20
5.481080
  0
VERTEX
  8
0
  6
CONTINUOUS
 10
4.250400
 20
5.548400
  0
VERTEX
  8
0
  6
CONTINUOUS
 10
4.321680
 20
5.593280
  0
VERTEX
  8
0
  6
CONTINUOUS
 10
4.418920
 20
5.660600
  0
VERTEX
  8
0
  6
CONTINUOUS
 10
4.661360
 20
5.841440
  0
VERTEX
  8
0
  6
CONTINUOUS
 10
4.734840
 20
5.889840
  0
VERTEX
  8
0
  6
CONTINUOUS
 10
4.783680
 20
5.917120
  0
VERTEX
  8
0
  6
CONTINUOUS
 10
4.808760
 20
5.929440
  0
VERTEX
  8
0
  6
CONTINUOUS
 10
4.859800
 20
5.950120
  0
VERTEX
  8
0
  6
CONTINUOUS
 10
4.913040
 20
5.965520
  0
VERTEX
  8
0
  6
CONTINUOUS
 10
4.969360
 20
5.975640
  0
VERTEX
  8
0
  6
CONTINUOUS
 10
4.998840
 20
5.978280
  0
VERTEX
  8
0
  6
CONTINUOUS
 10
5.060000
 20
5.979600
  0
VERTEX
  8
0
  6
CONTINUOUS
 10
5.089480
 20
5.978720
  0
VERTEX
  8
0
  6
CONTINUOUS
 10
5.144920
 20
5.973880
  0
VERTEX
  8
0
  6
CONTINUOUS
 10
5.196400
 20
5.966400
  0
VERTEX
  8
0
  6
CONTINUOUS
 10
5.265920
 20
5.949680
  0
VERTEX
  8
0
  6
CONTINUOUS
 10
5.308160
 20
5.935600
  0
VERTEX
  8
0
  6
CONTINUOUS
 10
5.346880
 20
5.919760
  0
VERTEX
  8
0
  6
CONTINUOUS
 10
5.399680
 20
5.893360
  0
VERTEX
  8
0
  6
CONTINUOUS
 10
5.431800
 20
5.874440
  0
VERTEX
  8
0
  6
CONTINUOUS
 10
5.489000
 20
5.835280
  0
VERTEX
  8
0
  6
CONTINUOUS
 10
5.586240
 20
5.761800
  0
VERTEX
  8
0
  6
CONTINUOUS
 10
5.608240
 20
5.746400
  0
VERTEX
  8
0
  6
CONTINUOUS
 10
5.642120
 20
5.738920
  0
VERTEX
  8
0
  6
CONTINUOUS
 10
5.659720
 20
5.738040
  0
VERTEX
  8
0
  6
CONTINUOUS
 10
5.674240
 20
5.742000
  0
VERTEX
  8
0
  6
CONTINUOUS
 10
5.687440
 20
5.750800
  0
VERTEX
  8
0
  6
CONTINUOUS
 10
5.705480
 20
5.775880
  0
VERTEX
  8
0
  6
CONTINUOUS
 10
5.750360
 20
5.877960
  0
VERTEX
  8
0
  6
CONTINUOUS
 10
5.777200
 20
5.921520
  0
VERTEX
  8
0
  6
CONTINUOUS
 10
5.802720
 20
5.953200
  0
VERTEX
  8
0
  6
CONTINUOUS
 10
5.833960
 20
5.980920
  0
VERTEX
  8
0
  6
CONTINUOUS
 10
5.858600
 20
5.996760
  0
VERTEX
  8
0
  6
CONTINUOUS
 10
5.885440
 20
6.009080
  0
VERTEX
  8
0
  6
CONTINUOUS
 10
5.915800
 20
6.017880
  0
VERTEX
  8
0
  6
CONTINUOUS
 10
5.948800
 20
6.022280
  0
VERTEX
  8
0
  6
CONTINUOUS
 10
5.966840
 20
6.022720
  0
VERTEX
  8
0
  6
CONTINUOUS
 10
5.985320
 20
6.021840
  0
VERTEX
  8
0
  6
CONTINUOUS
 10
6.025360
 20
6.015680
  0
VERTEX
  8
0
  6
CONTINUOUS
 10
6.068920
 20
6.002920
  0
VERTEX
  8
0
  6
CONTINUOUS
 10
6.116000
 20
5.984000
  0
VERTEX
  8
0
  6
CONTINUOUS
 10
6.167040
 20
5.957160
  0
VERTEX
  8
0
  6
CONTINUOUS
 10
6.243160
 20
6.020080
  0
VERTEX
  8
0
  6
CONTINUOUS
 10
6.282320
 20
5.985320
  0
VERTEX
  8
0
  6
CONTINUOUS
 10
6.304760
 20
5.968600
  0
VERTEX
  8
0
  6
CONTINUOUS
 10
6.328960
 20
5.953200
  0
VERTEX
  8
0
  6
CONTINUOUS
 10
6.368560
 20
5.932960
  0
VERTEX
  8
0
  6
CONTINUOUS
 10
6.412120
 20
5.918000
  0
VERTEX
  8
0
  6
CONTINUOUS
 10
6.442920
 20
5.911400
  0
VERTEX
  8
0
  6
CONTINUOUS
 10
6.475040
 20
5.907880
  0
VERTEX
  8
0
  6
CONTINUOUS
 10
6.508920
 20
5.908320
  0
VERTEX
  8
0
  6
CONTINUOUS
 10
6.543680
 20
5.912720
  0
VERTEX
  8
0
  6
CONTINUOUS
 10
6.580200
 20
5.921960
  0
VERTEX
  8
0
  6
CONTINUOUS
 10
6.617600
 20
5.935600
  0
VERTEX
  8
0
  6
CONTINUOUS
 10
6.656320
 20
5.954960
  0
VERTEX
  8
0
  6
CONTINUOUS
 10
6.695920
 20
5.980040
  0
VERTEX
  8
0
  6
CONTINUOUS
 10
6.736840
 20
6.011280
  0
VERTEX
  8
0
  6
CONTINUOUS
 10
6.871480
 20
5.885440
  0
VERTEX
  8
0
  6
CONTINUOUS
 10
5.875320
 20
4.929760
  0
VERTEX
  8
0
  6
CONTINUOUS
 10
2.990240
 20
4.929760
  0
VERTEX
  8
0
  6
CONTINUOUS
 10
2.152040
 20
5.743320
  0
VERTEX
  8
0
  6
CONTINUOUS
 10
2.407240
 20
5.997200
  0
SEQEND
  8
0
  0
ENDSEC
  0
EOF
