  0
SECTION
  2
HEADER
  9
$ACADVER
  1
AC1006
  9
$EXTMIN
 10
2.823480
 20
0.645920
  9
$EXTMAX
 10
6.467120
 20
2.989360
  9
$LTSCALE
 40
0.044000
  9
$PDMODE
 70
    35
  9
$PDSIZE
 40
0.035200
  0
ENDSEC
  0
SECTION
  2
TABLES
  0
TABLE
  2
LTYPE
 70
     9
  0
LTYPE
  2
CONTINUOUS
 70
    64
  3
Solid line
 72
    65
 73
     0
 40
0.000000
  0
LTYPE
  2
DASHED
 70
    64
  3
__ __ __ __ __ __ __ __ __ __ __ __ __ __ __
 72
    65
 73
     2
 40
0.000330
 49
0.000220
 49
-0.000110
  0
LTYPE
  2
HIDDEN
 70
    64
  3
 _ _ _ _ _ _ _ _ _ _ _ _ _ _ _ _ _ _ _ _ _ _
 72
    65
 73
     2
 40
0.000165
 49
0.000110
 49
-0.000055
  0
LTYPE
  2
CENTER
 70
    64
  3
____ _ ____ _ ____ _ ____ _ ____ _ ____ _ ____
 72
    65
 73
     4
 40
0.000880
 49
0.000550
 49
-0.000110
 49
0.000110
 49
-0.000110
  0
LTYPE
  2
PHANTOM
 70
    64
  3
_____ _ _ _____ _ _ _____ _ _ _____ _ _ ____
 72
    65
 73
     6
 40
0.001100
 49
0.000550
 49
-0.000110
 49
0.000110
 49
-0.000110
 49
0.000110
 49
-0.000110
  0
LTYPE
  2
DOT
 70
    64
  3
...............................................
 72
    65
 73
     2
 40
0.000110
 49
0.000000
 49
-0.000110
  0
LTYPE
  2
DASHDOT
 70
    64
  3
__ . __ . __ . __ . __ . __ . __ . __ . __ . __
 72
    65
 73
     4
 40
0.000440
 49
0.000220
 49
-0.000110
 49
0.000000
 49
-0.000110
  0
LTYPE
  2
BORDER
 70
    64
  3
__ __ . __ __ . __ __ . __ __ . __ __ . __ __
 72
    65
 73
     6
 40
0.000770
 49
0.000220
 49
-0.000110
 49
0.000220
 49
-0.000110
 49
0.000000
 49
-0.000110
  0
LTYPE
  2
DIVIDE
 70
    64
  3
__ . . __ . . __ . . __ . . __ . . __ . . __
 72
    65
 73
     6
 40
0.000550
 49
0.000220
 49
-0.000110
 49
0.000000
 49
-0.000110
 49
0.000000
 49
-0.000110
  0
LTYPE
  2
DOTDOT
 70
    64
  3
 . .  . .  . .  . .  . .  . . 
 72
    65
 73
     5
 40
0.000242
 49
-0.000110
 49
0.000000
 49
-0.000110
 49
0.000000
 49
-0.000110
  0
ENDTAB
  0
TABLE
  2
STYLE
 70
     2
  0
STYLE
 70
     0
  2
SN0
 40
0.000000
 41
0.000440
 50
0.000000
 71
     0
 42
0.000000
  3
ROMAND
  0
STYLE
 70
    68
  2
SV0
 40
0.000000
 41
0.000440
 50
0.000000
 71
     0
 42
0.000000
  3
ROMAND
  0
ENDTAB
  0
TABLE
  2
LAYER
 70
     3
  0
LAYER
  2
FOREGROUND
 70
    64
 62
     7
  6
CONTINUOUS
  0
LAYER
  2
BACKGROUND
 70
    65
 62
    -7
  6
CONTINUOUS
  0
LAYER
  2
0
 70
    64
 62
     7
  6
CONTINUOUS
  0
ENDTAB
  0
ENDSEC
  0
SECTION
  2
ENTITIES
  0
POLYLINE
  8
FOREGROUND
  6
CONTINUOUS
 66
     1
 40
0.000000
 41
0.000000
  0
VERTEX
  8
FOREGROUND
  6
CONTINUOUS
 10
0.000000
 20
3.635280
  0
VERTEX
  8
FOREGROUND
  6
CONTINUOUS
 10
8.499920
 20
3.635280
  0
VERTEX
  8
FOREGROUND
  6
CONTINUOUS
 10
8.499920
 20
-7.364720
  0
VERTEX
  8
FOREGROUND
  6
CONTINUOUS
 10
0.000000
 20
-7.364720
  0
VERTEX
  8
FOREGROUND
  6
CONTINUOUS
 10
0.000000
 20
3.635280
  0
SEQEND
  8
0
  0
POLYLINE
  8
FOREGROUND
  6
CONTINUOUS
 66
     1
 40
0.000000
 41
0.000000
  0
VERTEX
  8
FOREGROUND
  6
CONTINUOUS
 10
0.000000
 20
3.635280
  0
VERTEX
  8
FOREGROUND
  6
CONTINUOUS
 10
8.499920
 20
3.635280
  0
VERTEX
  8
FOREGROUND
  6
CONTINUOUS
 10
8.499920
 20
-7.364720
  0
VERTEX
  8
FOREGROUND
  6
CONTINUOUS
 10
0.000000
 20
-7.364720
  0
VERTEX
  8
FOREGROUND
  6
CONTINUOUS
 10
0.000000
 20
3.635280
  0
SEQEND
  8
0
  0
SOLID
  8
0
 62
    15
 10
3.666080
 20
2.176680
 11
3.669600
 21
2.924240
 12
3.701720
 22
2.205280
 13
3.705240
 23
2.952840
  0
POLYLINE
  8
0
  6
CONTINUOUS
 66
     1
 40
0.000000
 41
0.000000
  0
VERTEX
  8
0
  6
CONTINUOUS
 10
3.666080
 20
2.176680
  0
VERTEX
  8
0
  6
CONTINUOUS
 10
3.669600
 20
2.924240
  0
VERTEX
  8
0
  6
CONTINUOUS
 10
3.705240
 20
2.952840
  0
VERTEX
  8
0
  6
CONTINUOUS
 10
3.701720
 20
2.205280
  0
VERTEX
  8
0
  6
CONTINUOUS
 10
3.666080
 20
2.176680
  0
SEQEND
  8
0
  0
SOLID
  8
0
 62
    15
 10
4.037440
 20
1.594560
 11
4.040960
 21
2.342120
 12
4.037440
 22
1.092520
 13
4.040960
 23
1.840080
  0
POLYLINE
  8
0
  6
CONTINUOUS
 66
     1
 40
0.000000
 41
0.000000
  0
VERTEX
  8
0
  6
CONTINUOUS
 10
4.037440
 20
1.594560
  0
VERTEX
  8
0
  6
CONTINUOUS
 10
4.040960
 20
2.342120
  0
VERTEX
  8
0
  6
CONTINUOUS
 10
4.040960
 20
1.840080
  0
VERTEX
  8
0
  6
CONTINUOUS
 10
4.037440
 20
1.092520
  0
VERTEX
  8
0
  6
CONTINUOUS
 10
4.037440
 20
1.594560
  0
SEQEND
  8
0
  0
SOLID
  8
0
 62
    15
 10
2.824360
 20
1.092520
 11
2.827880
 21
1.840080
 12
2.825680
 22
1.158960
 13
2.829200
 23
1.906520
  0
POLYLINE
  8
0
  6
CONTINUOUS
 66
     1
 40
0.000000
 41
0.000000
  0
VERTEX
  8
0
  6
CONTINUOUS
 10
2.824360
 20
1.092520
  0
VERTEX
  8
0
  6
CONTINUOUS
 10
2.827880
 20
1.840080
  0
VERTEX
  8
0
  6
CONTINUOUS
 10
2.829200
 20
1.906520
  0
VERTEX
  8
0
  6
CONTINUOUS
 10
2.825680
 20
1.158960
  0
VERTEX
  8
0
  6
CONTINUOUS
 10
2.824360
 20
1.092520
  0
SEQEND
  8
0
  0
SOLID
  8
0
 62
    15
 10
2.825680
 20
1.158960
 11
2.829200
 21
1.906520
 12
2.836680
 22
1.216160
 13
2.840200
 23
1.963720
  0
POLYLINE
  8
0
  6
CONTINUOUS
 66
     1
 40
0.000000
 41
0.000000
  0
VERTEX
  8
0
  6
CONTINUOUS
 10
2.825680
 20
1.158960
  0
VERTEX
  8
0
  6
CONTINUOUS
 10
2.829200
 20
1.906520
  0
VERTEX
  8
0
  6
CONTINUOUS
 10
2.840200
 20
1.963720
  0
VERTEX
  8
0
  6
CONTINUOUS
 10
2.836680
 20
1.216160
  0
VERTEX
  8
0
  6
CONTINUOUS
 10
2.825680
 20
1.158960
  0
SEQEND
  8
0
  0
SOLID
  8
0
 62
    15
 10
2.836680
 20
1.216160
 11
2.840200
 21
1.963720
 12
2.856920
 22
1.264120
 13
2.860000
 23
2.011680
  0
POLYLINE
  8
0
  6
CONTINUOUS
 66
     1
 40
0.000000
 41
0.000000
  0
VERTEX
  8
0
  6
CONTINUOUS
 10
2.836680
 20
1.216160
  0
VERTEX
  8
0
  6
CONTINUOUS
 10
2.840200
 20
1.963720
  0
VERTEX
  8
0
  6
CONTINUOUS
 10
2.860000
 20
2.011680
  0
VERTEX
  8
0
  6
CONTINUOUS
 10
2.856920
 20
1.264120
  0
VERTEX
  8
0
  6
CONTINUOUS
 10
2.836680
 20
1.216160
  0
SEQEND
  8
0
  0
SOLID
  8
0
 62
    15
 10
2.856920
 20
1.264120
 11
2.860000
 21
2.011680
 12
2.885960
 22
1.302840
 13
2.889040
 23
2.050400
  0
POLYLINE
  8
0
  6
CONTINUOUS
 66
     1
 40
0.000000
 41
0.000000
  0
VERTEX
  8
0
  6
CONTINUOUS
 10
2.856920
 20
1.264120
  0
VERTEX
  8
0
  6
CONTINUOUS
 10
2.860000
 20
2.011680
  0
VERTEX
  8
0
  6
CONTINUOUS
 10
2.889040
 20
2.050400
  0
VERTEX
  8
0
  6
CONTINUOUS
 10
2.885960
 20
1.302840
  0
VERTEX
  8
0
  6
CONTINUOUS
 10
2.856920
 20
1.264120
  0
SEQEND
  8
0
  0
SOLID
  8
0
 62
    15
 10
2.885960
 20
1.302840
 11
2.889040
 21
2.050400
 12
2.923360
 22
1.332760
 13
2.926880
 23
2.080320
  0
POLYLINE
  8
0
  6
CONTINUOUS
 66
     1
 40
0.000000
 41
0.000000
  0
VERTEX
  8
0
  6
CONTINUOUS
 10
2.885960
 20
1.302840
  0
VERTEX
  8
0
  6
CONTINUOUS
 10
2.889040
 20
2.050400
  0
VERTEX
  8
0
  6
CONTINUOUS
 10
2.926880
 20
2.080320
  0
VERTEX
  8
0
  6
CONTINUOUS
 10
2.923360
 20
1.332760
  0
VERTEX
  8
0
  6
CONTINUOUS
 10
2.885960
 20
1.302840
  0
SEQEND
  8
0
  0
SOLID
  8
0
 62
    15
 10
2.923360
 20
1.332760
 11
2.926880
 21
2.080320
 12
2.969120
 22
1.354320
 13
2.972640
 23
2.101880
  0
POLYLINE
  8
0
  6
CONTINUOUS
 66
     1
 40
0.000000
 41
0.000000
  0
VERTEX
  8
0
  6
CONTINUOUS
 10
2.923360
 20
1.332760
  0
VERTEX
  8
0
  6
CONTINUOUS
 10
2.926880
 20
2.080320
  0
VERTEX
  8
0
  6
CONTINUOUS
 10
2.972640
 20
2.101880
  0
VERTEX
  8
0
  6
CONTINUOUS
 10
2.969120
 20
1.354320
  0
VERTEX
  8
0
  6
CONTINUOUS
 10
2.923360
 20
1.332760
  0
SEQEND
  8
0
  0
SOLID
  8
0
 62
    15
 10
2.969120
 20
1.354320
 11
2.972640
 21
2.101880
 12
3.022800
 22
1.366640
 13
3.026320
 23
2.114640
  0
POLYLINE
  8
0
  6
CONTINUOUS
 66
     1
 40
0.000000
 41
0.000000
  0
VERTEX
  8
0
  6
CONTINUOUS
 10
2.969120
 20
1.354320
  0
VERTEX
  8
0
  6
CONTINUOUS
 10
2.972640
 20
2.101880
  0
VERTEX
  8
0
  6
CONTINUOUS
 10
3.026320
 20
2.114640
  0
VERTEX
  8
0
  6
CONTINUOUS
 10
3.022800
 20
1.366640
  0
VERTEX
  8
0
  6
CONTINUOUS
 10
2.969120
 20
1.354320
  0
SEQEND
  8
0
  0
SOLID
  8
0
 62
    15
 10
3.022800
 20
1.366640
 11
3.026320
 21
2.114640
 12
3.083960
 22
1.371040
 13
3.087480
 23
2.118600
  0
POLYLINE
  8
0
  6
CONTINUOUS
 66
     1
 40
0.000000
 41
0.000000
  0
VERTEX
  8
0
  6
CONTINUOUS
 10
3.022800
 20
1.366640
  0
VERTEX
  8
0
  6
CONTINUOUS
 10
3.026320
 20
2.114640
  0
VERTEX
  8
0
  6
CONTINUOUS
 10
3.087480
 20
2.118600
  0
VERTEX
  8
0
  6
CONTINUOUS
 10
3.083960
 20
1.371040
  0
VERTEX
  8
0
  6
CONTINUOUS
 10
3.022800
 20
1.366640
  0
SEQEND
  8
0
  0
SOLID
  8
0
 62
    15
 10
3.083960
 20
1.482360
 11
3.087480
 21
2.229920
 12
3.215960
 22
1.482360
 13
3.219040
 23
2.229920
  0
POLYLINE
  8
0
  6
CONTINUOUS
 66
     1
 40
0.000000
 41
0.000000
  0
VERTEX
  8
0
  6
CONTINUOUS
 10
3.083960
 20
1.482360
  0
VERTEX
  8
0
  6
CONTINUOUS
 10
3.087480
 20
2.229920
  0
VERTEX
  8
0
  6
CONTINUOUS
 10
3.219040
 20
2.229920
  0
VERTEX
  8
0
  6
CONTINUOUS
 10
3.215960
 20
1.482360
  0
VERTEX
  8
0
  6
CONTINUOUS
 10
3.083960
 20
1.482360
  0
SEQEND
  8
0
  0
SOLID
  8
0
 62
    15
 10
3.215960
 20
1.482360
 11
3.219040
 21
2.229920
 12
3.217720
 22
1.532080
 13
3.220800
 23
2.279640
  0
POLYLINE
  8
0
  6
CONTINUOUS
 66
     1
 40
0.000000
 41
0.000000
  0
VERTEX
  8
0
  6
CONTINUOUS
 10
3.215960
 20
1.482360
  0
VERTEX
  8
0
  6
CONTINUOUS
 10
3.219040
 20
2.229920
  0
VERTEX
  8
0
  6
CONTINUOUS
 10
3.220800
 20
2.279640
  0
VERTEX
  8
0
  6
CONTINUOUS
 10
3.217720
 20
1.532080
  0
VERTEX
  8
0
  6
CONTINUOUS
 10
3.215960
 20
1.482360
  0
SEQEND
  8
0
  0
SOLID
  8
0
 62
    15
 10
3.217720
 20
1.532080
 11
3.220800
 21
2.279640
 12
3.223000
 22
1.571680
 13
3.226520
 23
2.319240
  0
POLYLINE
  8
0
  6
CONTINUOUS
 66
     1
 40
0.000000
 41
0.000000
  0
VERTEX
  8
0
  6
CONTINUOUS
 10
3.217720
 20
1.532080
  0
VERTEX
  8
0
  6
CONTINUOUS
 10
3.220800
 20
2.279640
  0
VERTEX
  8
0
  6
CONTINUOUS
 10
3.226520
 20
2.319240
  0
VERTEX
  8
0
  6
CONTINUOUS
 10
3.223000
 20
1.571680
  0
VERTEX
  8
0
  6
CONTINUOUS
 10
3.217720
 20
1.532080
  0
SEQEND
  8
0
  0
SOLID
  8
0
 62
    15
 10
3.223000
 20
1.571680
 11
3.226520
 21
2.319240
 12
3.232240
 22
1.602480
 13
3.235320
 23
2.350040
  0
POLYLINE
  8
0
  6
CONTINUOUS
 66
     1
 40
0.000000
 41
0.000000
  0
VERTEX
  8
0
  6
CONTINUOUS
 10
3.223000
 20
1.571680
  0
VERTEX
  8
0
  6
CONTINUOUS
 10
3.226520
 20
2.319240
  0
VERTEX
  8
0
  6
CONTINUOUS
 10
3.235320
 20
2.350040
  0
VERTEX
  8
0
  6
CONTINUOUS
 10
3.232240
 20
1.602480
  0
VERTEX
  8
0
  6
CONTINUOUS
 10
3.223000
 20
1.571680
  0
SEQEND
  8
0
  0
SOLID
  8
0
 62
    15
 10
3.232240
 20
1.602480
 11
3.235320
 21
2.350040
 12
3.245000
 22
1.627560
 13
3.248520
 23
2.375120
  0
POLYLINE
  8
0
  6
CONTINUOUS
 66
     1
 40
0.000000
 41
0.000000
  0
VERTEX
  8
0
  6
CONTINUOUS
 10
3.232240
 20
1.602480
  0
VERTEX
  8
0
  6
CONTINUOUS
 10
3.235320
 20
2.350040
  0
VERTEX
  8
0
  6
CONTINUOUS
 10
3.248520
 20
2.375120
  0
VERTEX
  8
0
  6
CONTINUOUS
 10
3.245000
 20
1.627560
  0
VERTEX
  8
0
  6
CONTINUOUS
 10
3.232240
 20
1.602480
  0
SEQEND
  8
0
  0
SOLID
  8
0
 62
    15
 10
3.245000
 20
1.627560
 11
3.248520
 21
2.375120
 12
3.282840
 22
1.670240
 13
3.286360
 23
2.417800
  0
POLYLINE
  8
0
  6
CONTINUOUS
 66
     1
 40
0.000000
 41
0.000000
  0
VERTEX
  8
0
  6
CONTINUOUS
 10
3.245000
 20
1.627560
  0
VERTEX
  8
0
  6
CONTINUOUS
 10
3.248520
 20
2.375120
  0
VERTEX
  8
0
  6
CONTINUOUS
 10
3.286360
 20
2.417800
  0
VERTEX
  8
0
  6
CONTINUOUS
 10
3.282840
 20
1.670240
  0
VERTEX
  8
0
  6
CONTINUOUS
 10
3.245000
 20
1.627560
  0
SEQEND
  8
0
  0
SOLID
  8
0
 62
    15
 10
3.282840
 20
1.670240
 11
3.286360
 21
2.417800
 12
3.295160
 22
1.680800
 13
3.298240
 23
2.428360
  0
POLYLINE
  8
0
  6
CONTINUOUS
 66
     1
 40
0.000000
 41
0.000000
  0
VERTEX
  8
0
  6
CONTINUOUS
 10
3.282840
 20
1.670240
  0
VERTEX
  8
0
  6
CONTINUOUS
 10
3.286360
 20
2.417800
  0
VERTEX
  8
0
  6
CONTINUOUS
 10
3.298240
 20
2.428360
  0
VERTEX
  8
0
  6
CONTINUOUS
 10
3.295160
 20
1.680800
  0
VERTEX
  8
0
  6
CONTINUOUS
 10
3.282840
 20
1.670240
  0
SEQEND
  8
0
  0
SOLID
  8
0
 62
    15
 10
3.295160
 20
1.680800
 11
3.298240
 21
2.428360
 12
3.307920
 22
1.692240
 13
3.311440
 23
2.439800
  0
POLYLINE
  8
0
  6
CONTINUOUS
 66
     1
 40
0.000000
 41
0.000000
  0
VERTEX
  8
0
  6
CONTINUOUS
 10
3.295160
 20
1.680800
  0
VERTEX
  8
0
  6
CONTINUOUS
 10
3.298240
 20
2.428360
  0
VERTEX
  8
0
  6
CONTINUOUS
 10
3.311440
 20
2.439800
  0
VERTEX
  8
0
  6
CONTINUOUS
 10
3.307920
 20
1.692240
  0
VERTEX
  8
0
  6
CONTINUOUS
 10
3.295160
 20
1.680800
  0
SEQEND
  8
0
  0
SOLID
  8
0
 62
    15
 10
3.307920
 20
1.692240
 11
3.311440
 21
2.439800
 12
3.337400
 22
1.718640
 13
3.340920
 23
2.466200
  0
POLYLINE
  8
0
  6
CONTINUOUS
 66
     1
 40
0.000000
 41
0.000000
  0
VERTEX
  8
0
  6
CONTINUOUS
 10
3.307920
 20
1.692240
  0
VERTEX
  8
0
  6
CONTINUOUS
 10
3.311440
 20
2.439800
  0
VERTEX
  8
0
  6
CONTINUOUS
 10
3.340920
 20
2.466200
  0
VERTEX
  8
0
  6
CONTINUOUS
 10
3.337400
 20
1.718640
  0
VERTEX
  8
0
  6
CONTINUOUS
 10
3.307920
 20
1.692240
  0
SEQEND
  8
0
  0
SOLID
  8
0
 62
    15
 10
3.337400
 20
1.718640
 11
3.340920
 21
2.466200
 12
3.355880
 22
1.736240
 13
3.359400
 23
2.483800
  0
POLYLINE
  8
0
  6
CONTINUOUS
 66
     1
 40
0.000000
 41
0.000000
  0
VERTEX
  8
0
  6
CONTINUOUS
 10
3.337400
 20
1.718640
  0
VERTEX
  8
0
  6
CONTINUOUS
 10
3.340920
 20
2.466200
  0
VERTEX
  8
0
  6
CONTINUOUS
 10
3.359400
 20
2.483800
  0
VERTEX
  8
0
  6
CONTINUOUS
 10
3.355880
 20
1.736240
  0
VERTEX
  8
0
  6
CONTINUOUS
 10
3.337400
 20
1.718640
  0
SEQEND
  8
0
  0
SOLID
  8
0
 62
    15
 10
3.355880
 20
1.736240
 11
3.359400
 21
2.483800
 12
3.377440
 22
1.758240
 13
3.380960
 23
2.505800
  0
POLYLINE
  8
0
  6
CONTINUOUS
 66
     1
 40
0.000000
 41
0.000000
  0
VERTEX
  8
0
  6
CONTINUOUS
 10
3.355880
 20
1.736240
  0
VERTEX
  8
0
  6
CONTINUOUS
 10
3.359400
 20
2.483800
  0
VERTEX
  8
0
  6
CONTINUOUS
 10
3.380960
 20
2.505800
  0
VERTEX
  8
0
  6
CONTINUOUS
 10
3.377440
 20
1.758240
  0
VERTEX
  8
0
  6
CONTINUOUS
 10
3.355880
 20
1.736240
  0
SEQEND
  8
0
  0
SOLID
  8
0
 62
    15
 10
3.377440
 20
1.758240
 11
3.380960
 21
2.505800
 12
3.423200
 22
1.815000
 13
3.426280
 23
2.562560
  0
POLYLINE
  8
0
  6
CONTINUOUS
 66
     1
 40
0.000000
 41
0.000000
  0
VERTEX
  8
0
  6
CONTINUOUS
 10
3.377440
 20
1.758240
  0
VERTEX
  8
0
  6
CONTINUOUS
 10
3.380960
 20
2.505800
  0
VERTEX
  8
0
  6
CONTINUOUS
 10
3.426280
 20
2.562560
  0
VERTEX
  8
0
  6
CONTINUOUS
 10
3.423200
 20
1.815000
  0
VERTEX
  8
0
  6
CONTINUOUS
 10
3.377440
 20
1.758240
  0
SEQEND
  8
0
  0
SOLID
  8
0
 62
    15
 10
3.423200
 20
1.815000
 11
3.426280
 21
2.562560
 12
3.460160
 22
1.886720
 13
3.463680
 23
2.634280
  0
POLYLINE
  8
0
  6
CONTINUOUS
 66
     1
 40
0.000000
 41
0.000000
  0
VERTEX
  8
0
  6
CONTINUOUS
 10
3.423200
 20
1.815000
  0
VERTEX
  8
0
  6
CONTINUOUS
 10
3.426280
 20
2.562560
  0
VERTEX
  8
0
  6
CONTINUOUS
 10
3.463680
 20
2.634280
  0
VERTEX
  8
0
  6
CONTINUOUS
 10
3.460160
 20
1.886720
  0
VERTEX
  8
0
  6
CONTINUOUS
 10
3.423200
 20
1.815000
  0
SEQEND
  8
0
  0
SOLID
  8
0
 62
    15
 10
3.460160
 20
1.886720
 11
3.463680
 21
2.634280
 12
3.471600
 22
1.927200
 13
3.474680
 23
2.674760
  0
POLYLINE
  8
0
  6
CONTINUOUS
 66
     1
 40
0.000000
 41
0.000000
  0
VERTEX
  8
0
  6
CONTINUOUS
 10
3.460160
 20
1.886720
  0
VERTEX
  8
0
  6
CONTINUOUS
 10
3.463680
 20
2.634280
  0
VERTEX
  8
0
  6
CONTINUOUS
 10
3.474680
 20
2.674760
  0
VERTEX
  8
0
  6
CONTINUOUS
 10
3.471600
 20
1.927200
  0
VERTEX
  8
0
  6
CONTINUOUS
 10
3.460160
 20
1.886720
  0
SEQEND
  8
0
  0
SOLID
  8
0
 62
    15
 10
3.471600
 20
1.927200
 11
3.474680
 21
2.674760
 12
3.475560
 22
1.970320
 13
3.479080
 23
2.717880
  0
POLYLINE
  8
0
  6
CONTINUOUS
 66
     1
 40
0.000000
 41
0.000000
  0
VERTEX
  8
0
  6
CONTINUOUS
 10
3.471600
 20
1.927200
  0
VERTEX
  8
0
  6
CONTINUOUS
 10
3.474680
 20
2.674760
  0
VERTEX
  8
0
  6
CONTINUOUS
 10
3.479080
 20
2.717880
  0
VERTEX
  8
0
  6
CONTINUOUS
 10
3.475560
 20
1.970320
  0
VERTEX
  8
0
  6
CONTINUOUS
 10
3.471600
 20
1.927200
  0
SEQEND
  8
0
  0
SOLID
  8
0
 62
    15
 10
3.475560
 20
1.970320
 11
3.479080
 21
2.717880
 12
3.592600
 22
1.970320
 13
3.596120
 23
2.717880
  0
POLYLINE
  8
0
  6
CONTINUOUS
 66
     1
 40
0.000000
 41
0.000000
  0
VERTEX
  8
0
  6
CONTINUOUS
 10
3.475560
 20
1.970320
  0
VERTEX
  8
0
  6
CONTINUOUS
 10
3.479080
 20
2.717880
  0
VERTEX
  8
0
  6
CONTINUOUS
 10
3.596120
 20
2.717880
  0
VERTEX
  8
0
  6
CONTINUOUS
 10
3.592600
 20
1.970320
  0
VERTEX
  8
0
  6
CONTINUOUS
 10
3.475560
 20
1.970320
  0
SEQEND
  8
0
  0
SOLID
  8
0
 62
    15
 10
3.592600
 20
1.970320
 11
3.596120
 21
2.717880
 12
3.597880
 22
2.036320
 13
3.601400
 23
2.783880
  0
POLYLINE
  8
0
  6
CONTINUOUS
 66
     1
 40
0.000000
 41
0.000000
  0
VERTEX
  8
0
  6
CONTINUOUS
 10
3.592600
 20
1.970320
  0
VERTEX
  8
0
  6
CONTINUOUS
 10
3.596120
 20
2.717880
  0
VERTEX
  8
0
  6
CONTINUOUS
 10
3.601400
 20
2.783880
  0
VERTEX
  8
0
  6
CONTINUOUS
 10
3.597880
 20
2.036320
  0
VERTEX
  8
0
  6
CONTINUOUS
 10
3.592600
 20
1.970320
  0
SEQEND
  8
0
  0
SOLID
  8
0
 62
    15
 10
3.597880
 20
2.036320
 11
3.601400
 21
2.783880
 12
3.612840
 22
2.092640
 13
3.616360
 23
2.840200
  0
POLYLINE
  8
0
  6
CONTINUOUS
 66
     1
 40
0.000000
 41
0.000000
  0
VERTEX
  8
0
  6
CONTINUOUS
 10
3.597880
 20
2.036320
  0
VERTEX
  8
0
  6
CONTINUOUS
 10
3.601400
 20
2.783880
  0
VERTEX
  8
0
  6
CONTINUOUS
 10
3.616360
 20
2.840200
  0
VERTEX
  8
0
  6
CONTINUOUS
 10
3.612840
 20
2.092640
  0
VERTEX
  8
0
  6
CONTINUOUS
 10
3.597880
 20
2.036320
  0
SEQEND
  8
0
  0
SOLID
  8
0
 62
    15
 10
3.612840
 20
2.092640
 11
3.616360
 21
2.840200
 12
3.636160
 22
2.139280
 13
3.639680
 23
2.886840
  0
POLYLINE
  8
0
  6
CONTINUOUS
 66
     1
 40
0.000000
 41
0.000000
  0
VERTEX
  8
0
  6
CONTINUOUS
 10
3.612840
 20
2.092640
  0
VERTEX
  8
0
  6
CONTINUOUS
 10
3.616360
 20
2.840200
  0
VERTEX
  8
0
  6
CONTINUOUS
 10
3.639680
 20
2.886840
  0
VERTEX
  8
0
  6
CONTINUOUS
 10
3.636160
 20
2.139280
  0
VERTEX
  8
0
  6
CONTINUOUS
 10
3.612840
 20
2.092640
  0
SEQEND
  8
0
  0
SOLID
  8
0
 62
    15
 10
3.636160
 20
2.139280
 11
3.639680
 21
2.886840
 12
3.666080
 22
2.176680
 13
3.669600
 23
2.924240
  0
POLYLINE
  8
0
  6
CONTINUOUS
 66
     1
 40
0.000000
 41
0.000000
  0
VERTEX
  8
0
  6
CONTINUOUS
 10
3.636160
 20
2.139280
  0
VERTEX
  8
0
  6
CONTINUOUS
 10
3.639680
 20
2.886840
  0
VERTEX
  8
0
  6
CONTINUOUS
 10
3.669600
 20
2.924240
  0
VERTEX
  8
0
  6
CONTINUOUS
 10
3.666080
 20
2.176680
  0
VERTEX
  8
0
  6
CONTINUOUS
 10
3.636160
 20
2.139280
  0
SEQEND
  8
0
  0
SOLID
  8
0
 62
    15
 10
4.511760
 20
1.691800
 11
4.515280
 21
2.439360
 12
4.511760
 22
1.594560
 13
4.515280
 23
2.342120
  0
POLYLINE
  8
0
  6
CONTINUOUS
 66
     1
 40
0.000000
 41
0.000000
  0
VERTEX
  8
0
  6
CONTINUOUS
 10
4.511760
 20
1.691800
  0
VERTEX
  8
0
  6
CONTINUOUS
 10
4.515280
 20
2.439360
  0
VERTEX
  8
0
  6
CONTINUOUS
 10
4.515280
 20
2.342120
  0
VERTEX
  8
0
  6
CONTINUOUS
 10
4.511760
 20
1.594560
  0
VERTEX
  8
0
  6
CONTINUOUS
 10
4.511760
 20
1.691800
  0
SEQEND
  8
0
  0
SOLID
  8
0
 62
    15
 10
3.701720
 20
2.205280
 11
3.705240
 21
2.952840
 12
3.741760
 22
2.225520
 13
3.745280
 23
2.973080
  0
POLYLINE
  8
0
  6
CONTINUOUS
 66
     1
 40
0.000000
 41
0.000000
  0
VERTEX
  8
0
  6
CONTINUOUS
 10
3.701720
 20
2.205280
  0
VERTEX
  8
0
  6
CONTINUOUS
 10
3.705240
 20
2.952840
  0
VERTEX
  8
0
  6
CONTINUOUS
 10
3.745280
 20
2.973080
  0
VERTEX
  8
0
  6
CONTINUOUS
 10
3.741760
 20
2.225520
  0
VERTEX
  8
0
  6
CONTINUOUS
 10
3.701720
 20
2.205280
  0
SEQEND
  8
0
  0
SOLID
  8
0
 62
    15
 10
3.741760
 20
2.225520
 11
3.745280
 21
2.973080
 12
3.784000
 22
2.237400
 13
3.787520
 23
2.984960
  0
POLYLINE
  8
0
  6
CONTINUOUS
 66
     1
 40
0.000000
 41
0.000000
  0
VERTEX
  8
0
  6
CONTINUOUS
 10
3.741760
 20
2.225520
  0
VERTEX
  8
0
  6
CONTINUOUS
 10
3.745280
 20
2.973080
  0
VERTEX
  8
0
  6
CONTINUOUS
 10
3.787520
 20
2.984960
  0
VERTEX
  8
0
  6
CONTINUOUS
 10
3.784000
 20
2.237400
  0
VERTEX
  8
0
  6
CONTINUOUS
 10
3.741760
 20
2.225520
  0
SEQEND
  8
0
  0
SOLID
  8
0
 62
    15
 10
3.784000
 20
2.237400
 11
3.787520
 21
2.984960
 12
3.828000
 22
2.240920
 13
3.831520
 23
2.988920
  0
POLYLINE
  8
0
  6
CONTINUOUS
 66
     1
 40
0.000000
 41
0.000000
  0
VERTEX
  8
0
  6
CONTINUOUS
 10
3.784000
 20
2.237400
  0
VERTEX
  8
0
  6
CONTINUOUS
 10
3.787520
 20
2.984960
  0
VERTEX
  8
0
  6
CONTINUOUS
 10
3.831520
 20
2.988920
  0
VERTEX
  8
0
  6
CONTINUOUS
 10
3.828000
 20
2.240920
  0
VERTEX
  8
0
  6
CONTINUOUS
 10
3.784000
 20
2.237400
  0
SEQEND
  8
0
  0
SOLID
  8
0
 62
    15
 10
3.828000
 20
2.240920
 11
3.831520
 21
2.988920
 12
3.872000
 22
2.237400
 13
3.875520
 23
2.984960
  0
POLYLINE
  8
0
  6
CONTINUOUS
 66
     1
 40
0.000000
 41
0.000000
  0
VERTEX
  8
0
  6
CONTINUOUS
 10
3.828000
 20
2.240920
  0
VERTEX
  8
0
  6
CONTINUOUS
 10
3.831520
 20
2.988920
  0
VERTEX
  8
0
  6
CONTINUOUS
 10
3.875520
 20
2.984960
  0
VERTEX
  8
0
  6
CONTINUOUS
 10
3.872000
 20
2.237400
  0
VERTEX
  8
0
  6
CONTINUOUS
 10
3.828000
 20
2.240920
  0
SEQEND
  8
0
  0
SOLID
  8
0
 62
    15
 10
3.872000
 20
2.237400
 11
3.875520
 21
2.984960
 12
3.914680
 22
2.226400
 13
3.918200
 23
2.973960
  0
POLYLINE
  8
0
  6
CONTINUOUS
 66
     1
 40
0.000000
 41
0.000000
  0
VERTEX
  8
0
  6
CONTINUOUS
 10
3.872000
 20
2.237400
  0
VERTEX
  8
0
  6
CONTINUOUS
 10
3.875520
 20
2.984960
  0
VERTEX
  8
0
  6
CONTINUOUS
 10
3.918200
 20
2.973960
  0
VERTEX
  8
0
  6
CONTINUOUS
 10
3.914680
 20
2.226400
  0
VERTEX
  8
0
  6
CONTINUOUS
 10
3.872000
 20
2.237400
  0
SEQEND
  8
0
  0
SOLID
  8
0
 62
    15
 10
3.914680
 20
2.226400
 11
3.918200
 21
2.973960
 12
3.954280
 22
2.208360
 13
3.957800
 23
2.955920
  0
POLYLINE
  8
0
  6
CONTINUOUS
 66
     1
 40
0.000000
 41
0.000000
  0
VERTEX
  8
0
  6
CONTINUOUS
 10
3.914680
 20
2.226400
  0
VERTEX
  8
0
  6
CONTINUOUS
 10
3.918200
 20
2.973960
  0
VERTEX
  8
0
  6
CONTINUOUS
 10
3.957800
 20
2.955920
  0
VERTEX
  8
0
  6
CONTINUOUS
 10
3.954280
 20
2.208360
  0
VERTEX
  8
0
  6
CONTINUOUS
 10
3.914680
 20
2.226400
  0
SEQEND
  8
0
  0
SOLID
  8
0
 62
    15
 10
3.954280
 20
2.208360
 11
3.957800
 21
2.955920
 12
3.989920
 22
2.183280
 13
3.993440
 23
2.931280
  0
POLYLINE
  8
0
  6
CONTINUOUS
 66
     1
 40
0.000000
 41
0.000000
  0
VERTEX
  8
0
  6
CONTINUOUS
 10
3.954280
 20
2.208360
  0
VERTEX
  8
0
  6
CONTINUOUS
 10
3.957800
 20
2.955920
  0
VERTEX
  8
0
  6
CONTINUOUS
 10
3.993440
 20
2.931280
  0
VERTEX
  8
0
  6
CONTINUOUS
 10
3.989920
 20
2.183280
  0
VERTEX
  8
0
  6
CONTINUOUS
 10
3.954280
 20
2.208360
  0
SEQEND
  8
0
  0
SOLID
  8
0
 62
    15
 10
3.989920
 20
2.183280
 11
3.993440
 21
2.931280
 12
4.020280
 22
2.152480
 13
4.023800
 23
2.900040
  0
POLYLINE
  8
0
  6
CONTINUOUS
 66
     1
 40
0.000000
 41
0.000000
  0
VERTEX
  8
0
  6
CONTINUOUS
 10
3.989920
 20
2.183280
  0
VERTEX
  8
0
  6
CONTINUOUS
 10
3.993440
 20
2.931280
  0
VERTEX
  8
0
  6
CONTINUOUS
 10
4.023800
 20
2.900040
  0
VERTEX
  8
0
  6
CONTINUOUS
 10
4.020280
 20
2.152480
  0
VERTEX
  8
0
  6
CONTINUOUS
 10
3.989920
 20
2.183280
  0
SEQEND
  8
0
  0
SOLID
  8
0
 62
    15
 10
4.020280
 20
2.152480
 11
4.023800
 21
2.900040
 12
4.043600
 22
2.115080
 13
4.046680
 23
2.862640
  0
POLYLINE
  8
0
  6
CONTINUOUS
 66
     1
 40
0.000000
 41
0.000000
  0
VERTEX
  8
0
  6
CONTINUOUS
 10
4.020280
 20
2.152480
  0
VERTEX
  8
0
  6
CONTINUOUS
 10
4.023800
 20
2.900040
  0
VERTEX
  8
0
  6
CONTINUOUS
 10
4.046680
 20
2.862640
  0
VERTEX
  8
0
  6
CONTINUOUS
 10
4.043600
 20
2.115080
  0
VERTEX
  8
0
  6
CONTINUOUS
 10
4.020280
 20
2.152480
  0
SEQEND
  8
0
  0
SOLID
  8
0
 62
    15
 10
4.043600
 20
2.115080
 11
4.046680
 21
2.862640
 12
4.058560
 22
2.072400
 13
4.061640
 23
2.819960
  0
POLYLINE
  8
0
  6
CONTINUOUS
 66
     1
 40
0.000000
 41
0.000000
  0
VERTEX
  8
0
  6
CONTINUOUS
 10
4.043600
 20
2.115080
  0
VERTEX
  8
0
  6
CONTINUOUS
 10
4.046680
 20
2.862640
  0
VERTEX
  8
0
  6
CONTINUOUS
 10
4.061640
 20
2.819960
  0
VERTEX
  8
0
  6
CONTINUOUS
 10
4.058560
 20
2.072400
  0
VERTEX
  8
0
  6
CONTINUOUS
 10
4.043600
 20
2.115080
  0
SEQEND
  8
0
  0
SOLID
  8
0
 62
    15
 10
4.058560
 20
2.072400
 11
4.061640
 21
2.819960
 12
4.063840
 22
2.024000
 13
4.066920
 23
2.771560
  0
POLYLINE
  8
0
  6
CONTINUOUS
 66
     1
 40
0.000000
 41
0.000000
  0
VERTEX
  8
0
  6
CONTINUOUS
 10
4.058560
 20
2.072400
  0
VERTEX
  8
0
  6
CONTINUOUS
 10
4.061640
 20
2.819960
  0
VERTEX
  8
0
  6
CONTINUOUS
 10
4.066920
 20
2.771560
  0
VERTEX
  8
0
  6
CONTINUOUS
 10
4.063840
 20
2.024000
  0
VERTEX
  8
0
  6
CONTINUOUS
 10
4.058560
 20
2.072400
  0
SEQEND
  8
0
  0
SOLID
  8
0
 62
    15
 10
4.171200
 20
1.958440
 11
4.174720
 21
2.706000
 12
4.174720
 22
1.945240
 13
4.178240
 23
2.692800
  0
POLYLINE
  8
0
  6
CONTINUOUS
 66
     1
 40
0.000000
 41
0.000000
  0
VERTEX
  8
0
  6
CONTINUOUS
 10
4.171200
 20
1.958440
  0
VERTEX
  8
0
  6
CONTINUOUS
 10
4.174720
 20
2.706000
  0
VERTEX
  8
0
  6
CONTINUOUS
 10
4.178240
 20
2.692800
  0
VERTEX
  8
0
  6
CONTINUOUS
 10
4.174720
 20
1.945240
  0
VERTEX
  8
0
  6
CONTINUOUS
 10
4.171200
 20
1.958440
  0
SEQEND
  8
0
  0
SOLID
  8
0
 62
    15
 10
4.171200
 20
2.024000
 11
4.174720
 21
2.771560
 12
4.171200
 22
1.958440
 13
4.174720
 23
2.706000
  0
POLYLINE
  8
0
  6
CONTINUOUS
 66
     1
 40
0.000000
 41
0.000000
  0
VERTEX
  8
0
  6
CONTINUOUS
 10
4.171200
 20
2.024000
  0
VERTEX
  8
0
  6
CONTINUOUS
 10
4.174720
 20
2.771560
  0
VERTEX
  8
0
  6
CONTINUOUS
 10
4.174720
 20
2.706000
  0
VERTEX
  8
0
  6
CONTINUOUS
 10
4.171200
 20
1.958440
  0
VERTEX
  8
0
  6
CONTINUOUS
 10
4.171200
 20
2.024000
  0
SEQEND
  8
0
  0
SOLID
  8
0
 62
    15
 10
4.063840
 20
2.024000
 11
4.066920
 21
2.771560
 12
4.171200
 22
2.024000
 13
4.174720
 23
2.771560
  0
POLYLINE
  8
0
  6
CONTINUOUS
 66
     1
 40
0.000000
 41
0.000000
  0
VERTEX
  8
0
  6
CONTINUOUS
 10
4.063840
 20
2.024000
  0
VERTEX
  8
0
  6
CONTINUOUS
 10
4.066920
 20
2.771560
  0
VERTEX
  8
0
  6
CONTINUOUS
 10
4.174720
 20
2.771560
  0
VERTEX
  8
0
  6
CONTINUOUS
 10
4.171200
 20
2.024000
  0
VERTEX
  8
0
  6
CONTINUOUS
 10
4.063840
 20
2.024000
  0
SEQEND
  8
0
  0
SOLID
  8
0
 62
    15
 10
4.174720
 20
1.945240
 11
4.178240
 21
2.692800
 12
4.186160
 22
1.932480
 13
4.189680
 23
2.680040
  0
POLYLINE
  8
0
  6
CONTINUOUS
 66
     1
 40
0.000000
 41
0.000000
  0
VERTEX
  8
0
  6
CONTINUOUS
 10
4.174720
 20
1.945240
  0
VERTEX
  8
0
  6
CONTINUOUS
 10
4.178240
 20
2.692800
  0
VERTEX
  8
0
  6
CONTINUOUS
 10
4.189680
 20
2.680040
  0
VERTEX
  8
0
  6
CONTINUOUS
 10
4.186160
 20
1.932480
  0
VERTEX
  8
0
  6
CONTINUOUS
 10
4.174720
 20
1.945240
  0
SEQEND
  8
0
  0
SOLID
  8
0
 62
    15
 10
4.186160
 20
1.932480
 11
4.189680
 21
2.680040
 12
4.207720
 22
1.922800
 13
4.211240
 23
2.670360
  0
POLYLINE
  8
0
  6
CONTINUOUS
 66
     1
 40
0.000000
 41
0.000000
  0
VERTEX
  8
0
  6
CONTINUOUS
 10
4.186160
 20
1.932480
  0
VERTEX
  8
0
  6
CONTINUOUS
 10
4.189680
 20
2.680040
  0
VERTEX
  8
0
  6
CONTINUOUS
 10
4.211240
 20
2.670360
  0
VERTEX
  8
0
  6
CONTINUOUS
 10
4.207720
 20
1.922800
  0
VERTEX
  8
0
  6
CONTINUOUS
 10
4.186160
 20
1.932480
  0
SEQEND
  8
0
  0
SOLID
  8
0
 62
    15
 10
4.207720
 20
1.922800
 11
4.211240
 21
2.670360
 12
4.241600
 22
1.918840
 13
4.245120
 23
2.666400
  0
POLYLINE
  8
0
  6
CONTINUOUS
 66
     1
 40
0.000000
 41
0.000000
  0
VERTEX
  8
0
  6
CONTINUOUS
 10
4.207720
 20
1.922800
  0
VERTEX
  8
0
  6
CONTINUOUS
 10
4.211240
 20
2.670360
  0
VERTEX
  8
0
  6
CONTINUOUS
 10
4.245120
 20
2.666400
  0
VERTEX
  8
0
  6
CONTINUOUS
 10
4.241600
 20
1.918840
  0
VERTEX
  8
0
  6
CONTINUOUS
 10
4.207720
 20
1.922800
  0
SEQEND
  8
0
  0
SOLID
  8
0
 62
    15
 10
4.241600
 20
1.918840
 11
4.245120
 21
2.666400
 12
4.261400
 22
1.914880
 13
4.264920
 23
2.662440
  0
POLYLINE
  8
0
  6
CONTINUOUS
 66
     1
 40
0.000000
 41
0.000000
  0
VERTEX
  8
0
  6
CONTINUOUS
 10
4.241600
 20
1.918840
  0
VERTEX
  8
0
  6
CONTINUOUS
 10
4.245120
 20
2.666400
  0
VERTEX
  8
0
  6
CONTINUOUS
 10
4.264920
 20
2.662440
  0
VERTEX
  8
0
  6
CONTINUOUS
 10
4.261400
 20
1.914880
  0
VERTEX
  8
0
  6
CONTINUOUS
 10
4.241600
 20
1.918840
  0
SEQEND
  8
0
  0
SOLID
  8
0
 62
    15
 10
4.261400
 20
1.914880
 11
4.264920
 21
2.662440
 12
4.279880
 22
1.905200
 13
4.283400
 23
2.652760
  0
POLYLINE
  8
0
  6
CONTINUOUS
 66
     1
 40
0.000000
 41
0.000000
  0
VERTEX
  8
0
  6
CONTINUOUS
 10
4.261400
 20
1.914880
  0
VERTEX
  8
0
  6
CONTINUOUS
 10
4.264920
 20
2.662440
  0
VERTEX
  8
0
  6
CONTINUOUS
 10
4.283400
 20
2.652760
  0
VERTEX
  8
0
  6
CONTINUOUS
 10
4.279880
 20
1.905200
  0
VERTEX
  8
0
  6
CONTINUOUS
 10
4.261400
 20
1.914880
  0
SEQEND
  8
0
  0
SOLID
  8
0
 62
    15
 10
4.279880
 20
1.905200
 11
4.283400
 21
2.652760
 12
4.313760
 22
1.872640
 13
4.317280
 23
2.620200
  0
POLYLINE
  8
0
  6
CONTINUOUS
 66
     1
 40
0.000000
 41
0.000000
  0
VERTEX
  8
0
  6
CONTINUOUS
 10
4.279880
 20
1.905200
  0
VERTEX
  8
0
  6
CONTINUOUS
 10
4.283400
 20
2.652760
  0
VERTEX
  8
0
  6
CONTINUOUS
 10
4.317280
 20
2.620200
  0
VERTEX
  8
0
  6
CONTINUOUS
 10
4.313760
 20
1.872640
  0
VERTEX
  8
0
  6
CONTINUOUS
 10
4.279880
 20
1.905200
  0
SEQEND
  8
0
  0
SOLID
  8
0
 62
    15
 10
4.313760
 20
1.872640
 11
4.317280
 21
2.620200
 12
4.340600
 22
1.834800
 13
4.343680
 23
2.582360
  0
POLYLINE
  8
0
  6
CONTINUOUS
 66
     1
 40
0.000000
 41
0.000000
  0
VERTEX
  8
0
  6
CONTINUOUS
 10
4.313760
 20
1.872640
  0
VERTEX
  8
0
  6
CONTINUOUS
 10
4.317280
 20
2.620200
  0
VERTEX
  8
0
  6
CONTINUOUS
 10
4.343680
 20
2.582360
  0
VERTEX
  8
0
  6
CONTINUOUS
 10
4.340600
 20
1.834800
  0
VERTEX
  8
0
  6
CONTINUOUS
 10
4.313760
 20
1.872640
  0
SEQEND
  8
0
  0
SOLID
  8
0
 62
    15
 10
4.340600
 20
1.834800
 11
4.343680
 21
2.582360
 12
4.350720
 22
1.817640
 13
4.354240
 23
2.565200
  0
POLYLINE
  8
0
  6
CONTINUOUS
 66
     1
 40
0.000000
 41
0.000000
  0
VERTEX
  8
0
  6
CONTINUOUS
 10
4.340600
 20
1.834800
  0
VERTEX
  8
0
  6
CONTINUOUS
 10
4.343680
 20
2.582360
  0
VERTEX
  8
0
  6
CONTINUOUS
 10
4.354240
 20
2.565200
  0
VERTEX
  8
0
  6
CONTINUOUS
 10
4.350720
 20
1.817640
  0
VERTEX
  8
0
  6
CONTINUOUS
 10
4.340600
 20
1.834800
  0
SEQEND
  8
0
  0
SOLID
  8
0
 62
    15
 10
4.350720
 20
1.817640
 11
4.354240
 21
2.565200
 12
4.358640
 22
1.804000
 13
4.362160
 23
2.551560
  0
POLYLINE
  8
0
  6
CONTINUOUS
 66
     1
 40
0.000000
 41
0.000000
  0
VERTEX
  8
0
  6
CONTINUOUS
 10
4.350720
 20
1.817640
  0
VERTEX
  8
0
  6
CONTINUOUS
 10
4.354240
 20
2.565200
  0
VERTEX
  8
0
  6
CONTINUOUS
 10
4.362160
 20
2.551560
  0
VERTEX
  8
0
  6
CONTINUOUS
 10
4.358640
 20
1.804000
  0
VERTEX
  8
0
  6
CONTINUOUS
 10
4.350720
 20
1.817640
  0
SEQEND
  8
0
  0
SOLID
  8
0
 62
    15
 10
4.358640
 20
1.804000
 11
4.362160
 21
2.551560
 12
4.367880
 22
1.790360
 13
4.371400
 23
2.538360
  0
POLYLINE
  8
0
  6
CONTINUOUS
 66
     1
 40
0.000000
 41
0.000000
  0
VERTEX
  8
0
  6
CONTINUOUS
 10
4.358640
 20
1.804000
  0
VERTEX
  8
0
  6
CONTINUOUS
 10
4.362160
 20
2.551560
  0
VERTEX
  8
0
  6
CONTINUOUS
 10
4.371400
 20
2.538360
  0
VERTEX
  8
0
  6
CONTINUOUS
 10
4.367880
 20
1.790360
  0
VERTEX
  8
0
  6
CONTINUOUS
 10
4.358640
 20
1.804000
  0
SEQEND
  8
0
  0
SOLID
  8
0
 62
    15
 10
4.367880
 20
1.790360
 11
4.371400
 21
2.538360
 12
4.381960
 22
1.774080
 13
4.385480
 23
2.521640
  0
POLYLINE
  8
0
  6
CONTINUOUS
 66
     1
 40
0.000000
 41
0.000000
  0
VERTEX
  8
0
  6
CONTINUOUS
 10
4.367880
 20
1.790360
  0
VERTEX
  8
0
  6
CONTINUOUS
 10
4.371400
 20
2.538360
  0
VERTEX
  8
0
  6
CONTINUOUS
 10
4.385480
 20
2.521640
  0
VERTEX
  8
0
  6
CONTINUOUS
 10
4.381960
 20
1.774080
  0
VERTEX
  8
0
  6
CONTINUOUS
 10
4.367880
 20
1.790360
  0
SEQEND
  8
0
  0
SOLID
  8
0
 62
    15
 10
4.381960
 20
1.774080
 11
4.385480
 21
2.521640
 12
4.420240
 22
1.737120
 13
4.423760
 23
2.485120
  0
POLYLINE
  8
0
  6
CONTINUOUS
 66
     1
 40
0.000000
 41
0.000000
  0
VERTEX
  8
0
  6
CONTINUOUS
 10
4.381960
 20
1.774080
  0
VERTEX
  8
0
  6
CONTINUOUS
 10
4.385480
 20
2.521640
  0
VERTEX
  8
0
  6
CONTINUOUS
 10
4.423760
 20
2.485120
  0
VERTEX
  8
0
  6
CONTINUOUS
 10
4.420240
 20
1.737120
  0
VERTEX
  8
0
  6
CONTINUOUS
 10
4.381960
 20
1.774080
  0
SEQEND
  8
0
  0
SOLID
  8
0
 62
    15
 10
4.420240
 20
1.737120
 11
4.423760
 21
2.485120
 12
4.465560
 22
1.705880
 13
4.469080
 23
2.453440
  0
POLYLINE
  8
0
  6
CONTINUOUS
 66
     1
 40
0.000000
 41
0.000000
  0
VERTEX
  8
0
  6
CONTINUOUS
 10
4.420240
 20
1.737120
  0
VERTEX
  8
0
  6
CONTINUOUS
 10
4.423760
 20
2.485120
  0
VERTEX
  8
0
  6
CONTINUOUS
 10
4.469080
 20
2.453440
  0
VERTEX
  8
0
  6
CONTINUOUS
 10
4.465560
 20
1.705880
  0
VERTEX
  8
0
  6
CONTINUOUS
 10
4.420240
 20
1.737120
  0
SEQEND
  8
0
  0
SOLID
  8
0
 62
    15
 10
4.465560
 20
1.705880
 11
4.469080
 21
2.453440
 12
4.488880
 22
1.695760
 13
4.492400
 23
2.443320
  0
POLYLINE
  8
0
  6
CONTINUOUS
 66
     1
 40
0.000000
 41
0.000000
  0
VERTEX
  8
0
  6
CONTINUOUS
 10
4.465560
 20
1.705880
  0
VERTEX
  8
0
  6
CONTINUOUS
 10
4.469080
 20
2.453440
  0
VERTEX
  8
0
  6
CONTINUOUS
 10
4.492400
 20
2.443320
  0
VERTEX
  8
0
  6
CONTINUOUS
 10
4.488880
 20
1.695760
  0
VERTEX
  8
0
  6
CONTINUOUS
 10
4.465560
 20
1.705880
  0
SEQEND
  8
0
  0
SOLID
  8
0
 62
    15
 10
4.488880
 20
1.695760
 11
4.492400
 21
2.443320
 12
4.510880
 22
1.691800
 13
4.513960
 23
2.439360
  0
POLYLINE
  8
0
  6
CONTINUOUS
 66
     1
 40
0.000000
 41
0.000000
  0
VERTEX
  8
0
  6
CONTINUOUS
 10
4.488880
 20
1.695760
  0
VERTEX
  8
0
  6
CONTINUOUS
 10
4.492400
 20
2.443320
  0
VERTEX
  8
0
  6
CONTINUOUS
 10
4.513960
 20
2.439360
  0
VERTEX
  8
0
  6
CONTINUOUS
 10
4.510880
 20
1.691800
  0
VERTEX
  8
0
  6
CONTINUOUS
 10
4.488880
 20
1.695760
  0
SEQEND
  8
0
  0
SOLID
  8
0
 62
    15
 10
4.510880
 20
1.691800
 11
4.513960
 21
2.439360
 12
4.511760
 22
1.691800
 13
4.515280
 23
2.439360
  0
POLYLINE
  8
0
  6
CONTINUOUS
 66
     1
 40
0.000000
 41
0.000000
  0
VERTEX
  8
0
  6
CONTINUOUS
 10
4.510880
 20
1.691800
  0
VERTEX
  8
0
  6
CONTINUOUS
 10
4.513960
 20
2.439360
  0
VERTEX
  8
0
  6
CONTINUOUS
 10
4.515280
 20
2.439360
  0
VERTEX
  8
0
  6
CONTINUOUS
 10
4.511760
 20
1.691800
  0
VERTEX
  8
0
  6
CONTINUOUS
 10
4.510880
 20
1.691800
  0
SEQEND
  8
0
  0
POLYLINE
  8
0
  6
CONTINUOUS
 66
     1
 40
0.000000
 41
0.000000
  0
VERTEX
  8
0
  6
CONTINUOUS
 10
4.511760
 20
1.691800
  0
VERTEX
  8
0
  6
CONTINUOUS
 10
4.511760
 20
1.594560
  0
VERTEX
  8
0
  6
CONTINUOUS
 10
4.037440
 20
1.594560
  0
VERTEX
  8
0
  6
CONTINUOUS
 10
4.037440
 20
1.092520
  0
VERTEX
  8
0
  6
CONTINUOUS
 10
2.824360
 20
1.092520
  0
VERTEX
  8
0
  6
CONTINUOUS
 10
2.825680
 20
1.158960
  0
VERTEX
  8
0
  6
CONTINUOUS
 10
2.836680
 20
1.216160
  0
VERTEX
  8
0
  6
CONTINUOUS
 10
2.856920
 20
1.264120
  0
VERTEX
  8
0
  6
CONTINUOUS
 10
2.885960
 20
1.302840
  0
VERTEX
  8
0
  6
CONTINUOUS
 10
2.923360
 20
1.332760
  0
VERTEX
  8
0
  6
CONTINUOUS
 10
2.969120
 20
1.354320
  0
VERTEX
  8
0
  6
CONTINUOUS
 10
3.022800
 20
1.366640
  0
VERTEX
  8
0
  6
CONTINUOUS
 10
3.083960
 20
1.371040
  0
VERTEX
  8
0
  6
CONTINUOUS
 10
3.083960
 20
1.482360
  0
VERTEX
  8
0
  6
CONTINUOUS
 10
3.215960
 20
1.482360
  0
VERTEX
  8
0
  6
CONTINUOUS
 10
3.217720
 20
1.532080
  0
VERTEX
  8
0
  6
CONTINUOUS
 10
3.223000
 20
1.571680
  0
VERTEX
  8
0
  6
CONTINUOUS
 10
3.232240
 20
1.602480
  0
VERTEX
  8
0
  6
CONTINUOUS
 10
3.245000
 20
1.627560
  0
VERTEX
  8
0
  6
CONTINUOUS
 10
3.282840
 20
1.670240
  0
VERTEX
  8
0
  6
CONTINUOUS
 10
3.355880
 20
1.736240
  0
VERTEX
  8
0
  6
CONTINUOUS
 10
3.377440
 20
1.758240
  0
VERTEX
  8
0
  6
CONTINUOUS
 10
3.423200
 20
1.815000
  0
VERTEX
  8
0
  6
CONTINUOUS
 10
3.460160
 20
1.886720
  0
VERTEX
  8
0
  6
CONTINUOUS
 10
3.471600
 20
1.927200
  0
VERTEX
  8
0
  6
CONTINUOUS
 10
3.475560
 20
1.970320
  0
VERTEX
  8
0
  6
CONTINUOUS
 10
3.592600
 20
1.970320
  0
VERTEX
  8
0
  6
CONTINUOUS
 10
3.597880
 20
2.036320
  0
VERTEX
  8
0
  6
CONTINUOUS
 10
3.612840
 20
2.092640
  0
VERTEX
  8
0
  6
CONTINUOUS
 10
3.636160
 20
2.139280
  0
VERTEX
  8
0
  6
CONTINUOUS
 10
3.666080
 20
2.176680
  0
VERTEX
  8
0
  6
CONTINUOUS
 10
3.701720
 20
2.205280
  0
VERTEX
  8
0
  6
CONTINUOUS
 10
3.741760
 20
2.225520
  0
VERTEX
  8
0
  6
CONTINUOUS
 10
3.784000
 20
2.237400
  0
VERTEX
  8
0
  6
CONTINUOUS
 10
3.828000
 20
2.240920
  0
VERTEX
  8
0
  6
CONTINUOUS
 10
3.872000
 20
2.237400
  0
VERTEX
  8
0
  6
CONTINUOUS
 10
3.914680
 20
2.226400
  0
VERTEX
  8
0
  6
CONTINUOUS
 10
3.954280
 20
2.208360
  0
VERTEX
  8
0
  6
CONTINUOUS
 10
3.989920
 20
2.183280
  0
VERTEX
  8
0
  6
CONTINUOUS
 10
4.020280
 20
2.152480
  0
VERTEX
  8
0
  6
CONTINUOUS
 10
4.043600
 20
2.115080
  0
VERTEX
  8
0
  6
CONTINUOUS
 10
4.058560
 20
2.072400
  0
VERTEX
  8
0
  6
CONTINUOUS
 10
4.063840
 20
2.024000
  0
VERTEX
  8
0
  6
CONTINUOUS
 10
4.171200
 20
2.024000
  0
VERTEX
  8
0
  6
CONTINUOUS
 10
4.171200
 20
1.958440
  0
VERTEX
  8
0
  6
CONTINUOUS
 10
4.174720
 20
1.945240
  0
VERTEX
  8
0
  6
CONTINUOUS
 10
4.186160
 20
1.932480
  0
VERTEX
  8
0
  6
CONTINUOUS
 10
4.207720
 20
1.922800
  0
VERTEX
  8
0
  6
CONTINUOUS
 10
4.241600
 20
1.918840
  0
VERTEX
  8
0
  6
CONTINUOUS
 10
4.261400
 20
1.914880
  0
VERTEX
  8
0
  6
CONTINUOUS
 10
4.279880
 20
1.905200
  0
VERTEX
  8
0
  6
CONTINUOUS
 10
4.313760
 20
1.872640
  0
VERTEX
  8
0
  6
CONTINUOUS
 10
4.340600
 20
1.834800
  0
VERTEX
  8
0
  6
CONTINUOUS
 10
4.367880
 20
1.790360
  0
VERTEX
  8
0
  6
CONTINUOUS
 10
4.381960
 20
1.774080
  0
VERTEX
  8
0
  6
CONTINUOUS
 10
4.420240
 20
1.737120
  0
VERTEX
  8
0
  6
CONTINUOUS
 10
4.465560
 20
1.705880
  0
VERTEX
  8
0
  6
CONTINUOUS
 10
4.488880
 20
1.695760
  0
VERTEX
  8
0
  6
CONTINUOUS
 10
4.511760
 20
1.691800
  0
SEQEND
  8
0
  0
TEXT
  8
0
 10
3.043040
 20
0.881320
 40
0.138114
  1
BA  841A,B,C&D
 41
1.000000
  7
SN0
 71
     0
 72
     5
 11
4.297181
 21
0.881320
  0
TEXT
  8
0
 10
3.053160
 20
0.689920
 40
0.138114
  1
1-1/8" x 1-11/16"
 41
1.000000
  7
SN0
 71
     0
 72
     5
 11
4.284893
 21
0.689920
  0
POLYLINE
  8
0
  6
CONTINUOUS
 66
     1
 40
0.014080
 41
0.014080
  0
VERTEX
  8
0
  6
CONTINUOUS
 10
6.458760
 20
2.315720
  0
VERTEX
  8
0
  6
CONTINUOUS
 10
6.448200
 20
2.317040
  0
VERTEX
  8
0
  6
CONTINUOUS
 10
6.425320
 20
2.324080
  0
VERTEX
  8
0
  6
CONTINUOUS
 10
6.390560
 20
2.344320
  0
VERTEX
  8
0
  6
CONTINUOUS
 10
6.368120
 20
2.361040
  0
VERTEX
  8
0
  6
CONTINUOUS
 10
6.329840
 20
2.398000
  0
VERTEX
  8
0
  6
CONTINUOUS
 10
6.310480
 20
2.421760
  0
VERTEX
  8
0
  6
CONTINUOUS
 10
6.276160
 20
2.477640
  0
VERTEX
  8
0
  6
CONTINUOUS
 10
6.254160
 20
2.505800
  0
VERTEX
  8
0
  6
CONTINUOUS
 10
6.237000
 20
2.522080
  0
VERTEX
  8
0
  6
CONTINUOUS
 10
6.218960
 20
2.534840
  0
VERTEX
  8
0
  6
CONTINUOUS
 10
6.199600
 20
2.541880
  0
VERTEX
  8
0
  6
CONTINUOUS
 10
6.163080
 20
2.544960
  0
VERTEX
  8
0
  6
CONTINUOUS
 10
6.143720
 20
2.551120
  0
VERTEX
  8
0
  6
CONTINUOUS
 10
6.130520
 20
2.559480
  0
VERTEX
  8
0
  6
CONTINUOUS
 10
6.123040
 20
2.569160
  0
VERTEX
  8
0
  6
CONTINUOUS
 10
6.119520
 20
2.582360
  0
VERTEX
  8
0
  6
CONTINUOUS
 10
6.119520
 20
2.647920
  0
VERTEX
  8
0
  6
CONTINUOUS
 10
6.011720
 20
2.647920
  0
VERTEX
  8
0
  6
CONTINUOUS
 10
6.010400
 20
2.672560
  0
VERTEX
  8
0
  6
CONTINUOUS
 10
6.006440
 20
2.696320
  0
VERTEX
  8
0
  6
CONTINUOUS
 10
6.000280
 20
2.718320
  0
VERTEX
  8
0
  6
CONTINUOUS
 10
5.991480
 20
2.739000
  0
VERTEX
  8
0
  6
CONTINUOUS
 10
5.980920
 20
2.758360
  0
VERTEX
  8
0
  6
CONTINUOUS
 10
5.968160
 20
2.776400
  0
VERTEX
  8
0
  6
CONTINUOUS
 10
5.954080
 20
2.792680
  0
VERTEX
  8
0
  6
CONTINUOUS
 10
5.921080
 20
2.820400
  0
VERTEX
  8
0
  6
CONTINUOUS
 10
5.902600
 20
2.832280
  0
VERTEX
  8
0
  6
CONTINUOUS
 10
5.862560
 20
2.850320
  0
VERTEX
  8
0
  6
CONTINUOUS
 10
5.820320
 20
2.861320
  0
VERTEX
  8
0
  6
CONTINUOUS
 10
5.776320
 20
2.865280
  0
VERTEX
  8
0
  6
CONTINUOUS
 10
5.732320
 20
2.861320
  0
VERTEX
  8
0
  6
CONTINUOUS
 10
5.710760
 20
2.856480
  0
VERTEX
  8
0
  6
CONTINUOUS
 10
5.669400
 20
2.840640
  0
VERTEX
  8
0
  6
CONTINUOUS
 10
5.640800
 20
2.823040
  0
VERTEX
  8
0
  6
CONTINUOUS
 10
5.622760
 20
2.808960
  0
VERTEX
  8
0
  6
CONTINUOUS
 10
5.598560
 20
2.783000
  0
VERTEX
  8
0
  6
CONTINUOUS
 10
5.577880
 20
2.752640
  0
VERTEX
  8
0
  6
CONTINUOUS
 10
5.561160
 20
2.716560
  0
VERTEX
  8
0
  6
CONTINUOUS
 10
5.552360
 20
2.689720
  0
VERTEX
  8
0
  6
CONTINUOUS
 10
5.544000
 20
2.644840
  0
VERTEX
  8
0
  6
CONTINUOUS
 10
5.541360
 20
2.611840
  0
VERTEX
  8
0
  6
CONTINUOUS
 10
5.540920
 20
2.594240
  0
VERTEX
  8
0
  6
CONTINUOUS
 10
5.423880
 20
2.594240
  0
VERTEX
  8
0
  6
CONTINUOUS
 10
5.423000
 20
2.572240
  0
VERTEX
  8
0
  6
CONTINUOUS
 10
5.419920
 20
2.551120
  0
VERTEX
  8
0
  6
CONTINUOUS
 10
5.415080
 20
2.530440
  0
VERTEX
  8
0
  6
CONTINUOUS
 10
5.400560
 20
2.491720
  0
VERTEX
  8
0
  6
CONTINUOUS
 10
5.382080
 20
2.455640
  0
VERTEX
  8
0
  6
CONTINUOUS
 10
5.348640
 20
2.408560
  0
VERTEX
  8
0
  6
CONTINUOUS
 10
5.314760
 20
2.370720
  0
VERTEX
  8
0
  6
CONTINUOUS
 10
5.270320
 20
2.328920
  0
VERTEX
  8
0
  6
CONTINUOUS
 10
5.220160
 20
2.283600
  0
VERTEX
  8
0
  6
CONTINUOUS
 10
5.201240
 20
2.262920
  0
VERTEX
  8
0
  6
CONTINUOUS
 10
5.186280
 20
2.239600
  0
VERTEX
  8
0
  6
CONTINUOUS
 10
5.175280
 20
2.211880
  0
VERTEX
  8
0
  6
CONTINUOUS
 10
5.170880
 20
2.195600
  0
VERTEX
  8
0
  6
CONTINUOUS
 10
5.165600
 20
2.156440
  0
VERTEX
  8
0
  6
CONTINUOUS
 10
5.163840
 20
2.106280
  0
VERTEX
  8
0
  6
CONTINUOUS
 10
5.032280
 20
2.106280
  0
VERTEX
  8
0
  6
CONTINUOUS
 10
5.032280
 20
1.994960
  0
VERTEX
  8
0
  6
CONTINUOUS
 10
4.985640
 20
1.992760
  0
VERTEX
  8
0
  6
CONTINUOUS
 10
4.942960
 20
1.985720
  0
VERTEX
  8
0
  6
CONTINUOUS
 10
4.905120
 20
1.973400
  0
VERTEX
  8
0
  6
CONTINUOUS
 10
4.882240
 20
1.962840
  0
VERTEX
  8
0
  6
CONTINUOUS
 10
4.851440
 20
1.943040
  0
VERTEX
  8
0
  6
CONTINUOUS
 10
4.825920
 20
1.917960
  0
VERTEX
  8
0
  6
CONTINUOUS
 10
4.804800
 20
1.888040
  0
VERTEX
  8
0
  6
CONTINUOUS
 10
4.788960
 20
1.852840
  0
VERTEX
  8
0
  6
CONTINUOUS
 10
4.781040
 20
1.826440
  0
VERTEX
  8
0
  6
CONTINUOUS
 10
4.774000
 20
1.782880
  0
VERTEX
  8
0
  6
CONTINUOUS
 10
4.772240
 20
1.750760
  0
VERTEX
  8
0
  6
CONTINUOUS
 10
4.772680
 20
1.716440
  0
VERTEX
  8
0
  6
CONTINUOUS
 10
5.985760
 20
1.716440
  0
VERTEX
  8
0
  6
CONTINUOUS
 10
5.985760
 20
2.218920
  0
VERTEX
  8
0
  6
CONTINUOUS
 10
6.460080
 20
2.218920
  0
VERTEX
  8
0
  6
CONTINUOUS
 10
6.460080
 20
2.315720
  0
VERTEX
  8
0
  6
CONTINUOUS
 10
6.458760
 20
2.315720
  0
SEQEND
  8
0
  0
TEXT
  8
0
 10
4.957920
 20
1.490280
 40
0.138114
  1
BA  841A,B,C&D
 41
1.000000
  7
SN0
 71
     0
 72
     5
 11
6.212061
 21
1.490280
  0
TEXT
  8
0
 10
4.968480
 20
1.298440
 40
0.138114
  1
1-1/8" x 1-11/16"
 41
1.000000
  7
SN0
 71
     0
 72
     5
 11
6.200213
 21
1.298440
  0
ENDSEC
  0
EOF
