  0
SECTION
  2
HEADER
  9
$ACADVER
  1
AC1006
  9
$EXTMIN
 10
3.554320
 20
0.674960
  9
$EXTMAX
 10
6.563920
 20
3.435080
  9
$LTSCALE
 40
0.044000
  9
$PDMODE
 70
    35
  9
$PDSIZE
 40
0.035200
  0
ENDSEC
  0
SECTION
  2
TABLES
  0
TABLE
  2
LTYPE
 70
     9
  0
LTYPE
  2
CONTINUOUS
 70
    64
  3
Solid line
 72
    65
 73
     0
 40
0.000000
  0
LTYPE
  2
DASHED
 70
    64
  3
__ __ __ __ __ __ __ __ __ __ __ __ __ __ __
 72
    65
 73
     2
 40
0.000330
 49
0.000220
 49
-0.000110
  0
LTYPE
  2
HIDDEN
 70
    64
  3
 _ _ _ _ _ _ _ _ _ _ _ _ _ _ _ _ _ _ _ _ _ _
 72
    65
 73
     2
 40
0.000165
 49
0.000110
 49
-0.000055
  0
LTYPE
  2
CENTER
 70
    64
  3
____ _ ____ _ ____ _ ____ _ ____ _ ____ _ ____
 72
    65
 73
     4
 40
0.000880
 49
0.000550
 49
-0.000110
 49
0.000110
 49
-0.000110
  0
LTYPE
  2
PHANTOM
 70
    64
  3
_____ _ _ _____ _ _ _____ _ _ _____ _ _ ____
 72
    65
 73
     6
 40
0.001100
 49
0.000550
 49
-0.000110
 49
0.000110
 49
-0.000110
 49
0.000110
 49
-0.000110
  0
LTYPE
  2
DOT
 70
    64
  3
...............................................
 72
    65
 73
     2
 40
0.000110
 49
0.000000
 49
-0.000110
  0
LTYPE
  2
DASHDOT
 70
    64
  3
__ . __ . __ . __ . __ . __ . __ . __ . __ . __
 72
    65
 73
     4
 40
0.000440
 49
0.000220
 49
-0.000110
 49
0.000000
 49
-0.000110
  0
LTYPE
  2
BORDER
 70
    64
  3
__ __ . __ __ . __ __ . __ __ . __ __ . __ __
 72
    65
 73
     6
 40
0.000770
 49
0.000220
 49
-0.000110
 49
0.000220
 49
-0.000110
 49
0.000000
 49
-0.000110
  0
LTYPE
  2
DIVIDE
 70
    64
  3
__ . . __ . . __ . . __ . . __ . . __ . . __
 72
    65
 73
     6
 40
0.000550
 49
0.000220
 49
-0.000110
 49
0.000000
 49
-0.000110
 49
0.000000
 49
-0.000110
  0
LTYPE
  2
DOTDOT
 70
    64
  3
 . .  . .  . .  . .  . .  . . 
 72
    65
 73
     5
 40
0.000242
 49
-0.000110
 49
0.000000
 49
-0.000110
 49
0.000000
 49
-0.000110
  0
ENDTAB
  0
TABLE
  2
STYLE
 70
     2
  0
STYLE
 70
     0
  2
SN0
 40
0.000000
 41
0.000440
 50
0.000000
 71
     0
 42
0.000000
  3
ROMAND
  0
STYLE
 70
    68
  2
SV0
 40
0.000000
 41
0.000440
 50
0.000000
 71
     0
 42
0.000000
  3
ROMAND
  0
ENDTAB
  0
TABLE
  2
LAYER
 70
     3
  0
LAYER
  2
FOREGROUND
 70
    64
 62
     7
  6
CONTINUOUS
  0
LAYER
  2
BACKGROUND
 70
    65
 62
    -7
  6
CONTINUOUS
  0
LAYER
  2
0
 70
    64
 62
     7
  6
CONTINUOUS
  0
ENDTAB
  0
ENDSEC
  0
SECTION
  2
ENTITIES
  0
POLYLINE
  8
FOREGROUND
  6
CONTINUOUS
 66
     1
 40
0.000000
 41
0.000000
  0
VERTEX
  8
FOREGROUND
  6
CONTINUOUS
 10
0.000000
 20
4.110040
  0
VERTEX
  8
FOREGROUND
  6
CONTINUOUS
 10
8.499920
 20
4.110040
  0
VERTEX
  8
FOREGROUND
  6
CONTINUOUS
 10
8.499920
 20
-6.889960
  0
VERTEX
  8
FOREGROUND
  6
CONTINUOUS
 10
0.000000
 20
-6.889960
  0
VERTEX
  8
FOREGROUND
  6
CONTINUOUS
 10
0.000000
 20
4.110040
  0
SEQEND
  8
0
  0
POLYLINE
  8
FOREGROUND
  6
CONTINUOUS
 66
     1
 40
0.000000
 41
0.000000
  0
VERTEX
  8
FOREGROUND
  6
CONTINUOUS
 10
0.000000
 20
4.110040
  0
VERTEX
  8
FOREGROUND
  6
CONTINUOUS
 10
8.499920
 20
4.110040
  0
VERTEX
  8
FOREGROUND
  6
CONTINUOUS
 10
8.499920
 20
-6.889960
  0
VERTEX
  8
FOREGROUND
  6
CONTINUOUS
 10
0.000000
 20
-6.889960
  0
VERTEX
  8
FOREGROUND
  6
CONTINUOUS
 10
0.000000
 20
4.110040
  0
SEQEND
  8
0
  0
SOLID
  8
0
 62
    15
 10
4.386360
 20
2.241800
 11
4.387240
 21
2.989800
 12
4.431240
 22
2.228160
 13
4.432120
 23
2.976160
  0
POLYLINE
  8
0
  6
CONTINUOUS
 66
     1
 40
0.000000
 41
0.000000
  0
VERTEX
  8
0
  6
CONTINUOUS
 10
4.386360
 20
2.241800
  0
VERTEX
  8
0
  6
CONTINUOUS
 10
4.387240
 20
2.989800
  0
VERTEX
  8
0
  6
CONTINUOUS
 10
4.432120
 20
2.976160
  0
VERTEX
  8
0
  6
CONTINUOUS
 10
4.431240
 20
2.228160
  0
VERTEX
  8
0
  6
CONTINUOUS
 10
4.386360
 20
2.241800
  0
SEQEND
  8
0
  0
SOLID
  8
0
 62
    15
 10
4.007960
 20
2.612720
 11
4.008840
 21
3.360720
 12
4.026880
 22
2.554640
 13
4.027760
 23
3.302640
  0
POLYLINE
  8
0
  6
CONTINUOUS
 66
     1
 40
0.000000
 41
0.000000
  0
VERTEX
  8
0
  6
CONTINUOUS
 10
4.007960
 20
2.612720
  0
VERTEX
  8
0
  6
CONTINUOUS
 10
4.008840
 20
3.360720
  0
VERTEX
  8
0
  6
CONTINUOUS
 10
4.027760
 20
3.302640
  0
VERTEX
  8
0
  6
CONTINUOUS
 10
4.026880
 20
2.554640
  0
VERTEX
  8
0
  6
CONTINUOUS
 10
4.007960
 20
2.612720
  0
SEQEND
  8
0
  0
SOLID
  8
0
 62
    15
 10
4.026880
 20
2.554640
 11
4.027760
 21
3.302640
 12
4.054160
 22
2.501400
 13
4.055040
 23
3.249400
  0
POLYLINE
  8
0
  6
CONTINUOUS
 66
     1
 40
0.000000
 41
0.000000
  0
VERTEX
  8
0
  6
CONTINUOUS
 10
4.026880
 20
2.554640
  0
VERTEX
  8
0
  6
CONTINUOUS
 10
4.027760
 20
3.302640
  0
VERTEX
  8
0
  6
CONTINUOUS
 10
4.055040
 20
3.249400
  0
VERTEX
  8
0
  6
CONTINUOUS
 10
4.054160
 20
2.501400
  0
VERTEX
  8
0
  6
CONTINUOUS
 10
4.026880
 20
2.554640
  0
SEQEND
  8
0
  0
SOLID
  8
0
 62
    15
 10
4.054160
 20
2.501400
 11
4.055040
 21
3.249400
 12
4.090240
 22
2.454320
 13
4.091120
 23
3.202760
  0
POLYLINE
  8
0
  6
CONTINUOUS
 66
     1
 40
0.000000
 41
0.000000
  0
VERTEX
  8
0
  6
CONTINUOUS
 10
4.054160
 20
2.501400
  0
VERTEX
  8
0
  6
CONTINUOUS
 10
4.055040
 20
3.249400
  0
VERTEX
  8
0
  6
CONTINUOUS
 10
4.091120
 20
3.202760
  0
VERTEX
  8
0
  6
CONTINUOUS
 10
4.090240
 20
2.454320
  0
VERTEX
  8
0
  6
CONTINUOUS
 10
4.054160
 20
2.501400
  0
SEQEND
  8
0
  0
SOLID
  8
0
 62
    15
 10
4.090240
 20
2.454320
 11
4.091120
 21
3.202760
 12
4.136000
 22
2.415160
 13
4.136440
 23
3.163600
  0
POLYLINE
  8
0
  6
CONTINUOUS
 66
     1
 40
0.000000
 41
0.000000
  0
VERTEX
  8
0
  6
CONTINUOUS
 10
4.090240
 20
2.454320
  0
VERTEX
  8
0
  6
CONTINUOUS
 10
4.091120
 20
3.202760
  0
VERTEX
  8
0
  6
CONTINUOUS
 10
4.136440
 20
3.163600
  0
VERTEX
  8
0
  6
CONTINUOUS
 10
4.136000
 20
2.415160
  0
VERTEX
  8
0
  6
CONTINUOUS
 10
4.090240
 20
2.454320
  0
SEQEND
  8
0
  0
SOLID
  8
0
 62
    15
 10
4.136000
 20
2.415160
 11
4.136440
 21
3.163600
 12
4.191440
 22
2.385240
 13
4.192320
 23
3.133240
  0
POLYLINE
  8
0
  6
CONTINUOUS
 66
     1
 40
0.000000
 41
0.000000
  0
VERTEX
  8
0
  6
CONTINUOUS
 10
4.136000
 20
2.415160
  0
VERTEX
  8
0
  6
CONTINUOUS
 10
4.136440
 20
3.163600
  0
VERTEX
  8
0
  6
CONTINUOUS
 10
4.192320
 20
3.133240
  0
VERTEX
  8
0
  6
CONTINUOUS
 10
4.191440
 20
2.385240
  0
VERTEX
  8
0
  6
CONTINUOUS
 10
4.136000
 20
2.415160
  0
SEQEND
  8
0
  0
SOLID
  8
0
 62
    15
 10
4.191440
 20
2.385240
 11
4.192320
 21
3.133240
 12
4.257880
 22
2.365880
 13
4.258760
 23
3.113880
  0
POLYLINE
  8
0
  6
CONTINUOUS
 66
     1
 40
0.000000
 41
0.000000
  0
VERTEX
  8
0
  6
CONTINUOUS
 10
4.191440
 20
2.385240
  0
VERTEX
  8
0
  6
CONTINUOUS
 10
4.192320
 20
3.133240
  0
VERTEX
  8
0
  6
CONTINUOUS
 10
4.258760
 20
3.113880
  0
VERTEX
  8
0
  6
CONTINUOUS
 10
4.257880
 20
2.365880
  0
VERTEX
  8
0
  6
CONTINUOUS
 10
4.191440
 20
2.385240
  0
SEQEND
  8
0
  0
SOLID
  8
0
 62
    15
 10
4.335760
 20
2.246640
 11
4.336640
 21
2.994640
 12
4.386360
 22
2.241800
 13
4.387240
 23
2.989800
  0
POLYLINE
  8
0
  6
CONTINUOUS
 66
     1
 40
0.000000
 41
0.000000
  0
VERTEX
  8
0
  6
CONTINUOUS
 10
4.335760
 20
2.246640
  0
VERTEX
  8
0
  6
CONTINUOUS
 10
4.336640
 20
2.994640
  0
VERTEX
  8
0
  6
CONTINUOUS
 10
4.387240
 20
2.989800
  0
VERTEX
  8
0
  6
CONTINUOUS
 10
4.386360
 20
2.241800
  0
VERTEX
  8
0
  6
CONTINUOUS
 10
4.335760
 20
2.246640
  0
SEQEND
  8
0
  0
SOLID
  8
0
 62
    15
 10
4.335760
 20
2.358400
 11
4.336640
 21
3.106400
 12
4.335760
 22
2.246640
 13
4.336640
 23
2.994640
  0
POLYLINE
  8
0
  6
CONTINUOUS
 66
     1
 40
0.000000
 41
0.000000
  0
VERTEX
  8
0
  6
CONTINUOUS
 10
4.335760
 20
2.358400
  0
VERTEX
  8
0
  6
CONTINUOUS
 10
4.336640
 20
3.106400
  0
VERTEX
  8
0
  6
CONTINUOUS
 10
4.336640
 20
2.994640
  0
VERTEX
  8
0
  6
CONTINUOUS
 10
4.335760
 20
2.246640
  0
VERTEX
  8
0
  6
CONTINUOUS
 10
4.335760
 20
2.358400
  0
SEQEND
  8
0
  0
SOLID
  8
0
 62
    15
 10
4.327400
 20
1.928080
 11
4.328280
 21
2.676520
 12
4.327400
 22
1.178320
 13
4.328280
 23
1.926320
  0
POLYLINE
  8
0
  6
CONTINUOUS
 66
     1
 40
0.000000
 41
0.000000
  0
VERTEX
  8
0
  6
CONTINUOUS
 10
4.327400
 20
1.928080
  0
VERTEX
  8
0
  6
CONTINUOUS
 10
4.328280
 20
2.676520
  0
VERTEX
  8
0
  6
CONTINUOUS
 10
4.328280
 20
1.926320
  0
VERTEX
  8
0
  6
CONTINUOUS
 10
4.327400
 20
1.178320
  0
VERTEX
  8
0
  6
CONTINUOUS
 10
4.327400
 20
1.928080
  0
SEQEND
  8
0
  0
SOLID
  8
0
 62
    15
 10
3.996520
 20
2.674760
 11
3.997400
 21
3.422760
 12
4.007960
 22
2.612720
 13
4.008840
 23
3.360720
  0
POLYLINE
  8
0
  6
CONTINUOUS
 66
     1
 40
0.000000
 41
0.000000
  0
VERTEX
  8
0
  6
CONTINUOUS
 10
3.996520
 20
2.674760
  0
VERTEX
  8
0
  6
CONTINUOUS
 10
3.997400
 20
3.422760
  0
VERTEX
  8
0
  6
CONTINUOUS
 10
4.008840
 20
3.360720
  0
VERTEX
  8
0
  6
CONTINUOUS
 10
4.007960
 20
2.612720
  0
VERTEX
  8
0
  6
CONTINUOUS
 10
3.996520
 20
2.674760
  0
SEQEND
  8
0
  0
SOLID
  8
0
 62
    15
 10
4.431240
 20
2.228160
 11
4.432120
 21
2.976160
 12
4.469960
 22
2.205280
 13
4.470840
 23
2.953280
  0
POLYLINE
  8
0
  6
CONTINUOUS
 66
     1
 40
0.000000
 41
0.000000
  0
VERTEX
  8
0
  6
CONTINUOUS
 10
4.431240
 20
2.228160
  0
VERTEX
  8
0
  6
CONTINUOUS
 10
4.432120
 20
2.976160
  0
VERTEX
  8
0
  6
CONTINUOUS
 10
4.470840
 20
2.953280
  0
VERTEX
  8
0
  6
CONTINUOUS
 10
4.469960
 20
2.205280
  0
VERTEX
  8
0
  6
CONTINUOUS
 10
4.431240
 20
2.228160
  0
SEQEND
  8
0
  0
SOLID
  8
0
 62
    15
 10
4.469960
 20
2.205280
 11
4.470840
 21
2.953280
 12
4.502520
 22
2.172280
 13
4.503400
 23
2.920280
  0
POLYLINE
  8
0
  6
CONTINUOUS
 66
     1
 40
0.000000
 41
0.000000
  0
VERTEX
  8
0
  6
CONTINUOUS
 10
4.469960
 20
2.205280
  0
VERTEX
  8
0
  6
CONTINUOUS
 10
4.470840
 20
2.953280
  0
VERTEX
  8
0
  6
CONTINUOUS
 10
4.503400
 20
2.920280
  0
VERTEX
  8
0
  6
CONTINUOUS
 10
4.502520
 20
2.172280
  0
VERTEX
  8
0
  6
CONTINUOUS
 10
4.469960
 20
2.205280
  0
SEQEND
  8
0
  0
SOLID
  8
0
 62
    15
 10
4.502520
 20
2.172280
 11
4.503400
 21
2.920280
 12
4.528920
 22
2.128720
 13
4.529360
 23
2.877160
  0
POLYLINE
  8
0
  6
CONTINUOUS
 66
     1
 40
0.000000
 41
0.000000
  0
VERTEX
  8
0
  6
CONTINUOUS
 10
4.502520
 20
2.172280
  0
VERTEX
  8
0
  6
CONTINUOUS
 10
4.503400
 20
2.920280
  0
VERTEX
  8
0
  6
CONTINUOUS
 10
4.529360
 20
2.877160
  0
VERTEX
  8
0
  6
CONTINUOUS
 10
4.528920
 20
2.128720
  0
VERTEX
  8
0
  6
CONTINUOUS
 10
4.502520
 20
2.172280
  0
SEQEND
  8
0
  0
SOLID
  8
0
 62
    15
 10
4.528920
 20
2.128720
 11
4.529360
 21
2.877160
 12
4.547840
 22
2.074160
 13
4.548720
 23
2.822160
  0
POLYLINE
  8
0
  6
CONTINUOUS
 66
     1
 40
0.000000
 41
0.000000
  0
VERTEX
  8
0
  6
CONTINUOUS
 10
4.528920
 20
2.128720
  0
VERTEX
  8
0
  6
CONTINUOUS
 10
4.529360
 20
2.877160
  0
VERTEX
  8
0
  6
CONTINUOUS
 10
4.548720
 20
2.822160
  0
VERTEX
  8
0
  6
CONTINUOUS
 10
4.547840
 20
2.074160
  0
VERTEX
  8
0
  6
CONTINUOUS
 10
4.528920
 20
2.128720
  0
SEQEND
  8
0
  0
SOLID
  8
0
 62
    15
 10
4.547840
 20
2.074160
 11
4.548720
 21
2.822160
 12
4.560160
 22
2.007720
 13
4.560600
 23
2.755720
  0
POLYLINE
  8
0
  6
CONTINUOUS
 66
     1
 40
0.000000
 41
0.000000
  0
VERTEX
  8
0
  6
CONTINUOUS
 10
4.547840
 20
2.074160
  0
VERTEX
  8
0
  6
CONTINUOUS
 10
4.548720
 20
2.822160
  0
VERTEX
  8
0
  6
CONTINUOUS
 10
4.560600
 20
2.755720
  0
VERTEX
  8
0
  6
CONTINUOUS
 10
4.560160
 20
2.007720
  0
VERTEX
  8
0
  6
CONTINUOUS
 10
4.547840
 20
2.074160
  0
SEQEND
  8
0
  0
SOLID
  8
0
 62
    15
 10
4.560160
 20
2.007720
 11
4.560600
 21
2.755720
 12
4.565000
 22
1.928080
 13
4.565440
 23
2.676520
  0
POLYLINE
  8
0
  6
CONTINUOUS
 66
     1
 40
0.000000
 41
0.000000
  0
VERTEX
  8
0
  6
CONTINUOUS
 10
4.560160
 20
2.007720
  0
VERTEX
  8
0
  6
CONTINUOUS
 10
4.560600
 20
2.755720
  0
VERTEX
  8
0
  6
CONTINUOUS
 10
4.565440
 20
2.676520
  0
VERTEX
  8
0
  6
CONTINUOUS
 10
4.565000
 20
1.928080
  0
VERTEX
  8
0
  6
CONTINUOUS
 10
4.560160
 20
2.007720
  0
SEQEND
  8
0
  0
SOLID
  8
0
 62
    15
 10
4.257880
 20
2.365880
 11
4.258760
 21
3.113880
 12
4.335760
 22
2.358400
 13
4.336640
 23
3.106400
  0
POLYLINE
  8
0
  6
CONTINUOUS
 66
     1
 40
0.000000
 41
0.000000
  0
VERTEX
  8
0
  6
CONTINUOUS
 10
4.257880
 20
2.365880
  0
VERTEX
  8
0
  6
CONTINUOUS
 10
4.258760
 20
3.113880
  0
VERTEX
  8
0
  6
CONTINUOUS
 10
4.336640
 20
3.106400
  0
VERTEX
  8
0
  6
CONTINUOUS
 10
4.335760
 20
2.358400
  0
VERTEX
  8
0
  6
CONTINUOUS
 10
4.257880
 20
2.365880
  0
SEQEND
  8
0
  0
SOLID
  8
0
 62
    15
 10
3.555200
 20
2.676520
 11
3.555640
 21
3.424520
 12
3.996080
 22
2.676520
 13
3.996960
 23
3.424520
  0
POLYLINE
  8
0
  6
CONTINUOUS
 66
     1
 40
0.000000
 41
0.000000
  0
VERTEX
  8
0
  6
CONTINUOUS
 10
3.555200
 20
2.676520
  0
VERTEX
  8
0
  6
CONTINUOUS
 10
3.555640
 20
3.424520
  0
VERTEX
  8
0
  6
CONTINUOUS
 10
3.996960
 20
3.424520
  0
VERTEX
  8
0
  6
CONTINUOUS
 10
3.996080
 20
2.676520
  0
VERTEX
  8
0
  6
CONTINUOUS
 10
3.555200
 20
2.676520
  0
SEQEND
  8
0
  0
SOLID
  8
0
 62
    15
 10
3.996080
 20
2.676520
 11
3.996960
 21
3.424520
 12
3.996520
 22
2.674760
 13
3.997400
 23
3.422760
  0
POLYLINE
  8
0
  6
CONTINUOUS
 66
     1
 40
0.000000
 41
0.000000
  0
VERTEX
  8
0
  6
CONTINUOUS
 10
3.996080
 20
2.676520
  0
VERTEX
  8
0
  6
CONTINUOUS
 10
3.996960
 20
3.424520
  0
VERTEX
  8
0
  6
CONTINUOUS
 10
3.997400
 20
3.422760
  0
VERTEX
  8
0
  6
CONTINUOUS
 10
3.996520
 20
2.674760
  0
VERTEX
  8
0
  6
CONTINUOUS
 10
3.996080
 20
2.676520
  0
SEQEND
  8
0
  0
POLYLINE
  8
0
  6
CONTINUOUS
 66
     1
 40
0.000000
 41
0.000000
  0
VERTEX
  8
0
  6
CONTINUOUS
 10
3.996520
 20
2.674760
  0
VERTEX
  8
0
  6
CONTINUOUS
 10
4.007960
 20
2.612720
  0
VERTEX
  8
0
  6
CONTINUOUS
 10
4.026880
 20
2.554640
  0
VERTEX
  8
0
  6
CONTINUOUS
 10
4.054160
 20
2.501400
  0
VERTEX
  8
0
  6
CONTINUOUS
 10
4.090240
 20
2.454320
  0
VERTEX
  8
0
  6
CONTINUOUS
 10
4.136000
 20
2.415160
  0
VERTEX
  8
0
  6
CONTINUOUS
 10
4.191440
 20
2.385240
  0
VERTEX
  8
0
  6
CONTINUOUS
 10
4.257880
 20
2.365880
  0
VERTEX
  8
0
  6
CONTINUOUS
 10
4.335760
 20
2.358400
  0
VERTEX
  8
0
  6
CONTINUOUS
 10
4.335760
 20
2.246640
  0
VERTEX
  8
0
  6
CONTINUOUS
 10
4.386360
 20
2.241800
  0
VERTEX
  8
0
  6
CONTINUOUS
 10
4.431240
 20
2.228160
  0
VERTEX
  8
0
  6
CONTINUOUS
 10
4.469960
 20
2.205280
  0
VERTEX
  8
0
  6
CONTINUOUS
 10
4.502520
 20
2.172280
  0
VERTEX
  8
0
  6
CONTINUOUS
 10
4.528920
 20
2.128720
  0
VERTEX
  8
0
  6
CONTINUOUS
 10
4.547840
 20
2.074160
  0
VERTEX
  8
0
  6
CONTINUOUS
 10
4.560160
 20
2.007720
  0
VERTEX
  8
0
  6
CONTINUOUS
 10
4.565000
 20
1.928080
  0
VERTEX
  8
0
  6
CONTINUOUS
 10
4.327400
 20
1.928080
  0
VERTEX
  8
0
  6
CONTINUOUS
 10
4.327400
 20
1.178320
  0
VERTEX
  8
0
  6
CONTINUOUS
 10
3.555200
 20
1.178320
  0
VERTEX
  8
0
  6
CONTINUOUS
 10
3.555200
 20
2.676520
  0
VERTEX
  8
0
  6
CONTINUOUS
 10
3.996080
 20
2.676520
  0
VERTEX
  8
0
  6
CONTINUOUS
 10
3.996520
 20
2.674760
  0
SEQEND
  8
0
  0
TEXT
  8
0
 10
3.763760
 20
0.910800
 40
0.138083
  1
BA  840
 41
1.000000
  7
SN0
 71
     0
 72
     5
 11
4.354093
 21
0.910800
  0
TEXT
  8
0
 10
3.677520
 20
0.719400
 40
0.138083
  1
1" x 1-1/2"
 41
1.000000
  7
SN0
 71
     0
 72
     5
 11
4.440153
 21
0.719400
  0
POLYLINE
  8
0
  6
CONTINUOUS
 66
     1
 40
0.014080
 41
0.014080
  0
VERTEX
  8
0
  6
CONTINUOUS
 10
5.988400
 20
3.425400
  0
VERTEX
  8
0
  6
CONTINUOUS
 10
5.993240
 20
3.394160
  0
VERTEX
  8
0
  6
CONTINUOUS
 10
5.999840
 20
3.363800
  0
VERTEX
  8
0
  6
CONTINUOUS
 10
6.008200
 20
3.333880
  0
VERTEX
  8
0
  6
CONTINUOUS
 10
6.024480
 20
3.291640
  0
VERTEX
  8
0
  6
CONTINUOUS
 10
6.038120
 20
3.265240
  0
VERTEX
  8
0
  6
CONTINUOUS
 10
6.062760
 20
3.227840
  0
VERTEX
  8
0
  6
CONTINUOUS
 10
6.092240
 20
3.194840
  0
VERTEX
  8
0
  6
CONTINUOUS
 10
6.115120
 20
3.175040
  0
VERTEX
  8
0
  6
CONTINUOUS
 10
6.154280
 20
3.149960
  0
VERTEX
  8
0
  6
CONTINUOUS
 10
6.183320
 20
3.136320
  0
VERTEX
  8
0
  6
CONTINUOUS
 10
6.215000
 20
3.125320
  0
VERTEX
  8
0
  6
CONTINUOUS
 10
6.249760
 20
3.116960
  0
VERTEX
  8
0
  6
CONTINUOUS
 10
6.287160
 20
3.111680
  0
VERTEX
  8
0
  6
CONTINUOUS
 10
6.327640
 20
3.109480
  0
VERTEX
  8
0
  6
CONTINUOUS
 10
6.327640
 20
2.997720
  0
VERTEX
  8
0
  6
CONTINUOUS
 10
6.353600
 20
2.996400
  0
VERTEX
  8
0
  6
CONTINUOUS
 10
6.390120
 20
2.990240
  0
VERTEX
  8
0
  6
CONTINUOUS
 10
6.423120
 20
2.979240
  0
VERTEX
  8
0
  6
CONTINUOUS
 10
6.453040
 20
2.962960
  0
VERTEX
  8
0
  6
CONTINUOUS
 10
6.479000
 20
2.940960
  0
VERTEX
  8
0
  6
CONTINUOUS
 10
6.501440
 20
2.913680
  0
VERTEX
  8
0
  6
CONTINUOUS
 10
6.514640
 20
2.891680
  0
VERTEX
  8
0
  6
CONTINUOUS
 10
6.530920
 20
2.854280
  0
VERTEX
  8
0
  6
CONTINUOUS
 10
6.543240
 20
2.809840
  0
VERTEX
  8
0
  6
CONTINUOUS
 10
6.549400
 20
2.776400
  0
VERTEX
  8
0
  6
CONTINUOUS
 10
6.555120
 20
2.720520
  0
VERTEX
  8
0
  6
CONTINUOUS
 10
6.556440
 20
2.679160
  0
VERTEX
  8
0
  6
CONTINUOUS
 10
6.319280
 20
2.679160
  0
VERTEX
  8
0
  6
CONTINUOUS
 10
6.319280
 20
1.929400
  0
VERTEX
  8
0
  6
CONTINUOUS
 10
5.547080
 20
1.929400
  0
VERTEX
  8
0
  6
CONTINUOUS
 10
5.547080
 20
3.427600
  0
VERTEX
  8
0
  6
CONTINUOUS
 10
5.987960
 20
3.427600
  0
VERTEX
  8
0
  6
CONTINUOUS
 10
5.988400
 20
3.425400
  0
SEQEND
  8
0
  0
ENDSEC
  0
EOF
