  0
SECTION
  2
HEADER
  9
$ACADVER
  1
AC1006
  9
$EXTMIN
 10
2.461800
 20
0.577280
  9
$EXTMAX
 10
7.025920
 20
4.053720
  9
$LTSCALE
 40
0.044000
  9
$PDMODE
 70
    35
  9
$PDSIZE
 40
0.035200
  0
ENDSEC
  0
SECTION
  2
TABLES
  0
TABLE
  2
LTYPE
 70
     9
  0
LTYPE
  2
CONTINUOUS
 70
    64
  3
Solid line
 72
    65
 73
     0
 40
0.000000
  0
LTYPE
  2
DASHED
 70
    64
  3
__ __ __ __ __ __ __ __ __ __ __ __ __ __ __
 72
    65
 73
     2
 40
0.000330
 49
0.000220
 49
-0.000110
  0
LTYPE
  2
HIDDEN
 70
    64
  3
 _ _ _ _ _ _ _ _ _ _ _ _ _ _ _ _ _ _ _ _ _ _
 72
    65
 73
     2
 40
0.000165
 49
0.000110
 49
-0.000055
  0
LTYPE
  2
CENTER
 70
    64
  3
____ _ ____ _ ____ _ ____ _ ____ _ ____ _ ____
 72
    65
 73
     4
 40
0.000880
 49
0.000550
 49
-0.000110
 49
0.000110
 49
-0.000110
  0
LTYPE
  2
PHANTOM
 70
    64
  3
_____ _ _ _____ _ _ _____ _ _ _____ _ _ ____
 72
    65
 73
     6
 40
0.001100
 49
0.000550
 49
-0.000110
 49
0.000110
 49
-0.000110
 49
0.000110
 49
-0.000110
  0
LTYPE
  2
DOT
 70
    64
  3
...............................................
 72
    65
 73
     2
 40
0.000110
 49
0.000000
 49
-0.000110
  0
LTYPE
  2
DASHDOT
 70
    64
  3
__ . __ . __ . __ . __ . __ . __ . __ . __ . __
 72
    65
 73
     4
 40
0.000440
 49
0.000220
 49
-0.000110
 49
0.000000
 49
-0.000110
  0
LTYPE
  2
BORDER
 70
    64
  3
__ __ . __ __ . __ __ . __ __ . __ __ . __ __
 72
    65
 73
     6
 40
0.000770
 49
0.000220
 49
-0.000110
 49
0.000220
 49
-0.000110
 49
0.000000
 49
-0.000110
  0
LTYPE
  2
DIVIDE
 70
    64
  3
__ . . __ . . __ . . __ . . __ . . __ . . __
 72
    65
 73
     6
 40
0.000550
 49
0.000220
 49
-0.000110
 49
0.000000
 49
-0.000110
 49
0.000000
 49
-0.000110
  0
LTYPE
  2
DOTDOT
 70
    64
  3
 . .  . .  . .  . .  . .  . . 
 72
    65
 73
     5
 40
0.000242
 49
-0.000110
 49
0.000000
 49
-0.000110
 49
0.000000
 49
-0.000110
  0
ENDTAB
  0
TABLE
  2
STYLE
 70
     2
  0
STYLE
 70
     0
  2
SN0
 40
0.000000
 41
0.000440
 50
0.000000
 71
     0
 42
0.000000
  3
ROMAND
  0
STYLE
 70
    68
  2
SV0
 40
0.000000
 41
0.000440
 50
0.000000
 71
     0
 42
0.000000
  3
ROMAND
  0
ENDTAB
  0
TABLE
  2
LAYER
 70
     3
  0
LAYER
  2
FOREGROUND
 70
    64
 62
     7
  6
CONTINUOUS
  0
LAYER
  2
BACKGROUND
 70
    65
 62
    -7
  6
CONTINUOUS
  0
LAYER
  2
0
 70
    64
 62
     7
  6
CONTINUOUS
  0
ENDTAB
  0
ENDSEC
  0
SECTION
  2
ENTITIES
  0
POLYLINE
  8
FOREGROUND
  6
CONTINUOUS
 66
     1
 40
0.000000
 41
0.000000
  0
VERTEX
  8
FOREGROUND
  6
CONTINUOUS
 10
0.000000
 20
4.631000
  0
VERTEX
  8
FOREGROUND
  6
CONTINUOUS
 10
8.499920
 20
4.631000
  0
VERTEX
  8
FOREGROUND
  6
CONTINUOUS
 10
8.499920
 20
-6.369000
  0
VERTEX
  8
FOREGROUND
  6
CONTINUOUS
 10
0.000000
 20
-6.369000
  0
VERTEX
  8
FOREGROUND
  6
CONTINUOUS
 10
0.000000
 20
4.631000
  0
SEQEND
  8
0
  0
POLYLINE
  8
FOREGROUND
  6
CONTINUOUS
 66
     1
 40
0.000000
 41
0.000000
  0
VERTEX
  8
FOREGROUND
  6
CONTINUOUS
 10
0.000000
 20
4.631000
  0
VERTEX
  8
FOREGROUND
  6
CONTINUOUS
 10
8.499920
 20
4.631000
  0
VERTEX
  8
FOREGROUND
  6
CONTINUOUS
 10
8.499920
 20
-6.369000
  0
VERTEX
  8
FOREGROUND
  6
CONTINUOUS
 10
0.000000
 20
-6.369000
  0
VERTEX
  8
FOREGROUND
  6
CONTINUOUS
 10
0.000000
 20
4.631000
  0
SEQEND
  8
0
  0
SOLID
  8
0
 62
    15
 10
6.590320
 20
1.373680
 11
6.594280
 21
2.118160
 12
6.623320
 22
1.373680
 13
6.627720
 23
2.118160
  0
POLYLINE
  8
0
  6
CONTINUOUS
 66
     1
 40
0.000000
 41
0.000000
  0
VERTEX
  8
0
  6
CONTINUOUS
 10
6.590320
 20
1.373680
  0
VERTEX
  8
0
  6
CONTINUOUS
 10
6.594280
 20
2.118160
  0
VERTEX
  8
0
  6
CONTINUOUS
 10
6.627720
 20
2.118160
  0
VERTEX
  8
0
  6
CONTINUOUS
 10
6.623320
 20
1.373680
  0
VERTEX
  8
0
  6
CONTINUOUS
 10
6.590320
 20
1.373680
  0
SEQEND
  8
0
  0
SOLID
  8
0
 62
    15
 10
3.208040
 20
1.826440
 11
3.212000
 21
2.570920
 12
3.261280
 22
1.824240
 13
3.265240
 23
2.568720
  0
POLYLINE
  8
0
  6
CONTINUOUS
 66
     1
 40
0.000000
 41
0.000000
  0
VERTEX
  8
0
  6
CONTINUOUS
 10
3.208040
 20
1.826440
  0
VERTEX
  8
0
  6
CONTINUOUS
 10
3.212000
 20
2.570920
  0
VERTEX
  8
0
  6
CONTINUOUS
 10
3.265240
 20
2.568720
  0
VERTEX
  8
0
  6
CONTINUOUS
 10
3.261280
 20
1.824240
  0
VERTEX
  8
0
  6
CONTINUOUS
 10
3.208040
 20
1.826440
  0
SEQEND
  8
0
  0
SOLID
  8
0
 62
    15
 10
3.261280
 20
1.824240
 11
3.265240
 21
2.568720
 12
3.306160
 22
1.820720
 13
3.310120
 23
2.564760
  0
POLYLINE
  8
0
  6
CONTINUOUS
 66
     1
 40
0.000000
 41
0.000000
  0
VERTEX
  8
0
  6
CONTINUOUS
 10
3.261280
 20
1.824240
  0
VERTEX
  8
0
  6
CONTINUOUS
 10
3.265240
 20
2.568720
  0
VERTEX
  8
0
  6
CONTINUOUS
 10
3.310120
 20
2.564760
  0
VERTEX
  8
0
  6
CONTINUOUS
 10
3.306160
 20
1.820720
  0
VERTEX
  8
0
  6
CONTINUOUS
 10
3.261280
 20
1.824240
  0
SEQEND
  8
0
  0
SOLID
  8
0
 62
    15
 10
3.306160
 20
1.820720
 11
3.310120
 21
2.564760
 12
3.343560
 22
1.813240
 13
3.347520
 23
2.557280
  0
POLYLINE
  8
0
  6
CONTINUOUS
 66
     1
 40
0.000000
 41
0.000000
  0
VERTEX
  8
0
  6
CONTINUOUS
 10
3.306160
 20
1.820720
  0
VERTEX
  8
0
  6
CONTINUOUS
 10
3.310120
 20
2.564760
  0
VERTEX
  8
0
  6
CONTINUOUS
 10
3.347520
 20
2.557280
  0
VERTEX
  8
0
  6
CONTINUOUS
 10
3.343560
 20
1.813240
  0
VERTEX
  8
0
  6
CONTINUOUS
 10
3.306160
 20
1.820720
  0
SEQEND
  8
0
  0
SOLID
  8
0
 62
    15
 10
3.343560
 20
1.813240
 11
3.347520
 21
2.557280
 12
3.376120
 22
1.800040
 13
3.380520
 23
2.544520
  0
POLYLINE
  8
0
  6
CONTINUOUS
 66
     1
 40
0.000000
 41
0.000000
  0
VERTEX
  8
0
  6
CONTINUOUS
 10
3.343560
 20
1.813240
  0
VERTEX
  8
0
  6
CONTINUOUS
 10
3.347520
 20
2.557280
  0
VERTEX
  8
0
  6
CONTINUOUS
 10
3.380520
 20
2.544520
  0
VERTEX
  8
0
  6
CONTINUOUS
 10
3.376120
 20
1.800040
  0
VERTEX
  8
0
  6
CONTINUOUS
 10
3.343560
 20
1.813240
  0
SEQEND
  8
0
  0
SOLID
  8
0
 62
    15
 10
3.376120
 20
1.800040
 11
3.380520
 21
2.544520
 12
3.405600
 22
1.779800
 13
3.409560
 23
2.524280
  0
POLYLINE
  8
0
  6
CONTINUOUS
 66
     1
 40
0.000000
 41
0.000000
  0
VERTEX
  8
0
  6
CONTINUOUS
 10
3.376120
 20
1.800040
  0
VERTEX
  8
0
  6
CONTINUOUS
 10
3.380520
 20
2.544520
  0
VERTEX
  8
0
  6
CONTINUOUS
 10
3.409560
 20
2.524280
  0
VERTEX
  8
0
  6
CONTINUOUS
 10
3.405600
 20
1.779800
  0
VERTEX
  8
0
  6
CONTINUOUS
 10
3.376120
 20
1.800040
  0
SEQEND
  8
0
  0
SOLID
  8
0
 62
    15
 10
3.405600
 20
1.779800
 11
3.409560
 21
2.524280
 12
3.433760
 22
1.749880
 13
3.437720
 23
2.494360
  0
POLYLINE
  8
0
  6
CONTINUOUS
 66
     1
 40
0.000000
 41
0.000000
  0
VERTEX
  8
0
  6
CONTINUOUS
 10
3.405600
 20
1.779800
  0
VERTEX
  8
0
  6
CONTINUOUS
 10
3.409560
 20
2.524280
  0
VERTEX
  8
0
  6
CONTINUOUS
 10
3.437720
 20
2.494360
  0
VERTEX
  8
0
  6
CONTINUOUS
 10
3.433760
 20
1.749880
  0
VERTEX
  8
0
  6
CONTINUOUS
 10
3.405600
 20
1.779800
  0
SEQEND
  8
0
  0
SOLID
  8
0
 62
    15
 10
3.433760
 20
1.749880
 11
3.437720
 21
2.494360
 12
3.461920
 22
1.708960
 13
3.465880
 23
2.453440
  0
POLYLINE
  8
0
  6
CONTINUOUS
 66
     1
 40
0.000000
 41
0.000000
  0
VERTEX
  8
0
  6
CONTINUOUS
 10
3.433760
 20
1.749880
  0
VERTEX
  8
0
  6
CONTINUOUS
 10
3.437720
 20
2.494360
  0
VERTEX
  8
0
  6
CONTINUOUS
 10
3.465880
 20
2.453440
  0
VERTEX
  8
0
  6
CONTINUOUS
 10
3.461920
 20
1.708960
  0
VERTEX
  8
0
  6
CONTINUOUS
 10
3.433760
 20
1.749880
  0
SEQEND
  8
0
  0
SOLID
  8
0
 62
    15
 10
3.461920
 20
1.708960
 11
3.465880
 21
2.453440
 12
3.492280
 22
1.654840
 13
3.496240
 23
2.399320
  0
POLYLINE
  8
0
  6
CONTINUOUS
 66
     1
 40
0.000000
 41
0.000000
  0
VERTEX
  8
0
  6
CONTINUOUS
 10
3.461920
 20
1.708960
  0
VERTEX
  8
0
  6
CONTINUOUS
 10
3.465880
 20
2.453440
  0
VERTEX
  8
0
  6
CONTINUOUS
 10
3.496240
 20
2.399320
  0
VERTEX
  8
0
  6
CONTINUOUS
 10
3.492280
 20
1.654840
  0
VERTEX
  8
0
  6
CONTINUOUS
 10
3.461920
 20
1.708960
  0
SEQEND
  8
0
  0
SOLID
  8
0
 62
    15
 10
3.492280
 20
1.654840
 11
3.496240
 21
2.399320
 12
3.608000
 22
1.654840
 13
3.611960
 23
2.399320
  0
POLYLINE
  8
0
  6
CONTINUOUS
 66
     1
 40
0.000000
 41
0.000000
  0
VERTEX
  8
0
  6
CONTINUOUS
 10
3.492280
 20
1.654840
  0
VERTEX
  8
0
  6
CONTINUOUS
 10
3.496240
 20
2.399320
  0
VERTEX
  8
0
  6
CONTINUOUS
 10
3.611960
 20
2.399320
  0
VERTEX
  8
0
  6
CONTINUOUS
 10
3.608000
 20
1.654840
  0
VERTEX
  8
0
  6
CONTINUOUS
 10
3.492280
 20
1.654840
  0
SEQEND
  8
0
  0
SOLID
  8
0
 62
    15
 10
3.608000
 20
1.654840
 11
3.611960
 21
2.399320
 12
3.623840
 22
1.542200
 13
3.627800
 23
2.286680
  0
POLYLINE
  8
0
  6
CONTINUOUS
 66
     1
 40
0.000000
 41
0.000000
  0
VERTEX
  8
0
  6
CONTINUOUS
 10
3.608000
 20
1.654840
  0
VERTEX
  8
0
  6
CONTINUOUS
 10
3.611960
 20
2.399320
  0
VERTEX
  8
0
  6
CONTINUOUS
 10
3.627800
 20
2.286680
  0
VERTEX
  8
0
  6
CONTINUOUS
 10
3.623840
 20
1.542200
  0
VERTEX
  8
0
  6
CONTINUOUS
 10
3.608000
 20
1.654840
  0
SEQEND
  8
0
  0
SOLID
  8
0
 62
    15
 10
6.572720
 20
1.450240
 11
6.576680
 21
2.194280
 12
6.590320
 22
1.373680
 13
6.594280
 23
2.118160
  0
POLYLINE
  8
0
  6
CONTINUOUS
 66
     1
 40
0.000000
 41
0.000000
  0
VERTEX
  8
0
  6
CONTINUOUS
 10
6.572720
 20
1.450240
  0
VERTEX
  8
0
  6
CONTINUOUS
 10
6.576680
 20
2.194280
  0
VERTEX
  8
0
  6
CONTINUOUS
 10
6.594280
 20
2.118160
  0
VERTEX
  8
0
  6
CONTINUOUS
 10
6.590320
 20
1.373680
  0
VERTEX
  8
0
  6
CONTINUOUS
 10
6.572720
 20
1.450240
  0
SEQEND
  8
0
  0
SOLID
  8
0
 62
    15
 10
6.111600
 20
1.450240
 11
6.115560
 21
2.194280
 12
6.572720
 22
1.450240
 13
6.576680
 23
2.194280
  0
POLYLINE
  8
0
  6
CONTINUOUS
 66
     1
 40
0.000000
 41
0.000000
  0
VERTEX
  8
0
  6
CONTINUOUS
 10
6.111600
 20
1.450240
  0
VERTEX
  8
0
  6
CONTINUOUS
 10
6.115560
 20
2.194280
  0
VERTEX
  8
0
  6
CONTINUOUS
 10
6.576680
 20
2.194280
  0
VERTEX
  8
0
  6
CONTINUOUS
 10
6.572720
 20
1.450240
  0
VERTEX
  8
0
  6
CONTINUOUS
 10
6.111600
 20
1.450240
  0
SEQEND
  8
0
  0
SOLID
  8
0
 62
    15
 10
6.100160
 20
1.542200
 11
6.104120
 21
2.286680
 12
6.111600
 22
1.450240
 13
6.115560
 23
2.194280
  0
POLYLINE
  8
0
  6
CONTINUOUS
 66
     1
 40
0.000000
 41
0.000000
  0
VERTEX
  8
0
  6
CONTINUOUS
 10
6.100160
 20
1.542200
  0
VERTEX
  8
0
  6
CONTINUOUS
 10
6.104120
 20
2.286680
  0
VERTEX
  8
0
  6
CONTINUOUS
 10
6.115560
 20
2.194280
  0
VERTEX
  8
0
  6
CONTINUOUS
 10
6.111600
 20
1.450240
  0
VERTEX
  8
0
  6
CONTINUOUS
 10
6.100160
 20
1.542200
  0
SEQEND
  8
0
  0
SOLID
  8
0
 62
    15
 10
3.623840
 20
1.542200
 11
3.627800
 21
2.286680
 12
6.100160
 22
1.542200
 13
6.104120
 23
2.286680
  0
POLYLINE
  8
0
  6
CONTINUOUS
 66
     1
 40
0.000000
 41
0.000000
  0
VERTEX
  8
0
  6
CONTINUOUS
 10
3.623840
 20
1.542200
  0
VERTEX
  8
0
  6
CONTINUOUS
 10
3.627800
 20
2.286680
  0
VERTEX
  8
0
  6
CONTINUOUS
 10
6.104120
 20
2.286680
  0
VERTEX
  8
0
  6
CONTINUOUS
 10
6.100160
 20
1.542200
  0
VERTEX
  8
0
  6
CONTINUOUS
 10
3.623840
 20
1.542200
  0
SEQEND
  8
0
  0
SOLID
  8
0
 62
    15
 10
3.189120
 20
1.920600
 11
3.193080
 21
2.664640
 12
3.208040
 22
1.826440
 13
3.212000
 23
2.570920
  0
POLYLINE
  8
0
  6
CONTINUOUS
 66
     1
 40
0.000000
 41
0.000000
  0
VERTEX
  8
0
  6
CONTINUOUS
 10
3.189120
 20
1.920600
  0
VERTEX
  8
0
  6
CONTINUOUS
 10
3.193080
 20
2.664640
  0
VERTEX
  8
0
  6
CONTINUOUS
 10
3.212000
 20
2.570920
  0
VERTEX
  8
0
  6
CONTINUOUS
 10
3.208040
 20
1.826440
  0
VERTEX
  8
0
  6
CONTINUOUS
 10
3.189120
 20
1.920600
  0
SEQEND
  8
0
  0
SOLID
  8
0
 62
    15
 10
6.623320
 20
1.373680
 11
6.627720
 21
2.118160
 12
6.655440
 22
1.387760
 13
6.659400
 23
2.131800
  0
POLYLINE
  8
0
  6
CONTINUOUS
 66
     1
 40
0.000000
 41
0.000000
  0
VERTEX
  8
0
  6
CONTINUOUS
 10
6.623320
 20
1.373680
  0
VERTEX
  8
0
  6
CONTINUOUS
 10
6.627720
 20
2.118160
  0
VERTEX
  8
0
  6
CONTINUOUS
 10
6.659400
 20
2.131800
  0
VERTEX
  8
0
  6
CONTINUOUS
 10
6.655440
 20
1.387760
  0
VERTEX
  8
0
  6
CONTINUOUS
 10
6.623320
 20
1.373680
  0
SEQEND
  8
0
  0
SOLID
  8
0
 62
    15
 10
6.655440
 20
1.387760
 11
6.659400
 21
2.131800
 12
6.681840
 22
1.393040
 13
6.685800
 23
2.137520
  0
POLYLINE
  8
0
  6
CONTINUOUS
 66
     1
 40
0.000000
 41
0.000000
  0
VERTEX
  8
0
  6
CONTINUOUS
 10
6.655440
 20
1.387760
  0
VERTEX
  8
0
  6
CONTINUOUS
 10
6.659400
 20
2.131800
  0
VERTEX
  8
0
  6
CONTINUOUS
 10
6.685800
 20
2.137520
  0
VERTEX
  8
0
  6
CONTINUOUS
 10
6.681840
 20
1.393040
  0
VERTEX
  8
0
  6
CONTINUOUS
 10
6.655440
 20
1.387760
  0
SEQEND
  8
0
  0
SOLID
  8
0
 62
    15
 10
6.681840
 20
1.393040
 11
6.685800
 21
2.137520
 12
6.703840
 22
1.391280
 13
6.707800
 23
2.135760
  0
POLYLINE
  8
0
  6
CONTINUOUS
 66
     1
 40
0.000000
 41
0.000000
  0
VERTEX
  8
0
  6
CONTINUOUS
 10
6.681840
 20
1.393040
  0
VERTEX
  8
0
  6
CONTINUOUS
 10
6.685800
 20
2.137520
  0
VERTEX
  8
0
  6
CONTINUOUS
 10
6.707800
 20
2.135760
  0
VERTEX
  8
0
  6
CONTINUOUS
 10
6.703840
 20
1.391280
  0
VERTEX
  8
0
  6
CONTINUOUS
 10
6.681840
 20
1.393040
  0
SEQEND
  8
0
  0
SOLID
  8
0
 62
    15
 10
6.703840
 20
1.391280
 11
6.707800
 21
2.135760
 12
6.722760
 22
1.383800
 13
6.726720
 23
2.127840
  0
POLYLINE
  8
0
  6
CONTINUOUS
 66
     1
 40
0.000000
 41
0.000000
  0
VERTEX
  8
0
  6
CONTINUOUS
 10
6.703840
 20
1.391280
  0
VERTEX
  8
0
  6
CONTINUOUS
 10
6.707800
 20
2.135760
  0
VERTEX
  8
0
  6
CONTINUOUS
 10
6.726720
 20
2.127840
  0
VERTEX
  8
0
  6
CONTINUOUS
 10
6.722760
 20
1.383800
  0
VERTEX
  8
0
  6
CONTINUOUS
 10
6.703840
 20
1.391280
  0
SEQEND
  8
0
  0
SOLID
  8
0
 62
    15
 10
6.722760
 20
1.383800
 11
6.726720
 21
2.127840
 12
6.756200
 22
1.355200
 13
6.760160
 23
2.099680
  0
POLYLINE
  8
0
  6
CONTINUOUS
 66
     1
 40
0.000000
 41
0.000000
  0
VERTEX
  8
0
  6
CONTINUOUS
 10
6.722760
 20
1.383800
  0
VERTEX
  8
0
  6
CONTINUOUS
 10
6.726720
 20
2.127840
  0
VERTEX
  8
0
  6
CONTINUOUS
 10
6.760160
 20
2.099680
  0
VERTEX
  8
0
  6
CONTINUOUS
 10
6.756200
 20
1.355200
  0
VERTEX
  8
0
  6
CONTINUOUS
 10
6.722760
 20
1.383800
  0
SEQEND
  8
0
  0
SOLID
  8
0
 62
    15
 10
6.756200
 20
1.355200
 11
6.760160
 21
2.099680
 12
6.791400
 22
1.317360
 13
6.795800
 23
2.061400
  0
POLYLINE
  8
0
  6
CONTINUOUS
 66
     1
 40
0.000000
 41
0.000000
  0
VERTEX
  8
0
  6
CONTINUOUS
 10
6.756200
 20
1.355200
  0
VERTEX
  8
0
  6
CONTINUOUS
 10
6.760160
 20
2.099680
  0
VERTEX
  8
0
  6
CONTINUOUS
 10
6.795800
 20
2.061400
  0
VERTEX
  8
0
  6
CONTINUOUS
 10
6.791400
 20
1.317360
  0
VERTEX
  8
0
  6
CONTINUOUS
 10
6.756200
 20
1.355200
  0
SEQEND
  8
0
  0
SOLID
  8
0
 62
    15
 10
6.791400
 20
1.317360
 11
6.795800
 21
2.061400
 12
6.831000
 22
1.278640
 13
6.834960
 23
2.023120
  0
POLYLINE
  8
0
  6
CONTINUOUS
 66
     1
 40
0.000000
 41
0.000000
  0
VERTEX
  8
0
  6
CONTINUOUS
 10
6.791400
 20
1.317360
  0
VERTEX
  8
0
  6
CONTINUOUS
 10
6.795800
 20
2.061400
  0
VERTEX
  8
0
  6
CONTINUOUS
 10
6.834960
 20
2.023120
  0
VERTEX
  8
0
  6
CONTINUOUS
 10
6.831000
 20
1.278640
  0
VERTEX
  8
0
  6
CONTINUOUS
 10
6.791400
 20
1.317360
  0
SEQEND
  8
0
  0
SOLID
  8
0
 62
    15
 10
6.831000
 20
1.278640
 11
6.834960
 21
2.023120
 12
6.875880
 22
1.245640
 13
6.879840
 23
1.990120
  0
POLYLINE
  8
0
  6
CONTINUOUS
 66
     1
 40
0.000000
 41
0.000000
  0
VERTEX
  8
0
  6
CONTINUOUS
 10
6.831000
 20
1.278640
  0
VERTEX
  8
0
  6
CONTINUOUS
 10
6.834960
 20
2.023120
  0
VERTEX
  8
0
  6
CONTINUOUS
 10
6.879840
 20
1.990120
  0
VERTEX
  8
0
  6
CONTINUOUS
 10
6.875880
 20
1.245640
  0
VERTEX
  8
0
  6
CONTINUOUS
 10
6.831000
 20
1.278640
  0
SEQEND
  8
0
  0
SOLID
  8
0
 62
    15
 10
6.875880
 20
1.245640
 11
6.879840
 21
1.990120
 12
6.903160
 22
1.232440
 13
6.907120
 23
1.976920
  0
POLYLINE
  8
0
  6
CONTINUOUS
 66
     1
 40
0.000000
 41
0.000000
  0
VERTEX
  8
0
  6
CONTINUOUS
 10
6.875880
 20
1.245640
  0
VERTEX
  8
0
  6
CONTINUOUS
 10
6.879840
 20
1.990120
  0
VERTEX
  8
0
  6
CONTINUOUS
 10
6.907120
 20
1.976920
  0
VERTEX
  8
0
  6
CONTINUOUS
 10
6.903160
 20
1.232440
  0
VERTEX
  8
0
  6
CONTINUOUS
 10
6.875880
 20
1.245640
  0
SEQEND
  8
0
  0
SOLID
  8
0
 62
    15
 10
6.903160
 20
1.232440
 11
6.907120
 21
1.976920
 12
6.935720
 22
1.222320
 13
6.939680
 23
1.966800
  0
POLYLINE
  8
0
  6
CONTINUOUS
 66
     1
 40
0.000000
 41
0.000000
  0
VERTEX
  8
0
  6
CONTINUOUS
 10
6.903160
 20
1.232440
  0
VERTEX
  8
0
  6
CONTINUOUS
 10
6.907120
 20
1.976920
  0
VERTEX
  8
0
  6
CONTINUOUS
 10
6.939680
 20
1.966800
  0
VERTEX
  8
0
  6
CONTINUOUS
 10
6.935720
 20
1.222320
  0
VERTEX
  8
0
  6
CONTINUOUS
 10
6.903160
 20
1.232440
  0
SEQEND
  8
0
  0
SOLID
  8
0
 62
    15
 10
6.935720
 20
1.222320
 11
6.939680
 21
1.966800
 12
6.974440
 22
1.216160
 13
6.978400
 23
1.960200
  0
POLYLINE
  8
0
  6
CONTINUOUS
 66
     1
 40
0.000000
 41
0.000000
  0
VERTEX
  8
0
  6
CONTINUOUS
 10
6.935720
 20
1.222320
  0
VERTEX
  8
0
  6
CONTINUOUS
 10
6.939680
 20
1.966800
  0
VERTEX
  8
0
  6
CONTINUOUS
 10
6.978400
 20
1.960200
  0
VERTEX
  8
0
  6
CONTINUOUS
 10
6.974440
 20
1.216160
  0
VERTEX
  8
0
  6
CONTINUOUS
 10
6.935720
 20
1.222320
  0
SEQEND
  8
0
  0
SOLID
  8
0
 62
    15
 10
7.020200
 20
1.213520
 11
7.024160
 21
1.958000
 12
7.020200
 22
1.041920
 13
7.024160
 23
1.785960
  0
POLYLINE
  8
0
  6
CONTINUOUS
 66
     1
 40
0.000000
 41
0.000000
  0
VERTEX
  8
0
  6
CONTINUOUS
 10
7.020200
 20
1.213520
  0
VERTEX
  8
0
  6
CONTINUOUS
 10
7.024160
 20
1.958000
  0
VERTEX
  8
0
  6
CONTINUOUS
 10
7.024160
 20
1.785960
  0
VERTEX
  8
0
  6
CONTINUOUS
 10
7.020200
 20
1.041920
  0
VERTEX
  8
0
  6
CONTINUOUS
 10
7.020200
 20
1.213520
  0
SEQEND
  8
0
  0
SOLID
  8
0
 62
    15
 10
6.974440
 20
1.216160
 11
6.978400
 21
1.960200
 12
7.020200
 22
1.213520
 13
7.024160
 23
1.958000
  0
POLYLINE
  8
0
  6
CONTINUOUS
 66
     1
 40
0.000000
 41
0.000000
  0
VERTEX
  8
0
  6
CONTINUOUS
 10
6.974440
 20
1.216160
  0
VERTEX
  8
0
  6
CONTINUOUS
 10
6.978400
 20
1.960200
  0
VERTEX
  8
0
  6
CONTINUOUS
 10
7.024160
 20
1.958000
  0
VERTEX
  8
0
  6
CONTINUOUS
 10
7.020200
 20
1.213520
  0
VERTEX
  8
0
  6
CONTINUOUS
 10
6.974440
 20
1.216160
  0
SEQEND
  8
0
  0
SOLID
  8
0
 62
    15
 10
2.471040
 20
1.921480
 11
2.475000
 21
2.665960
 12
3.187360
 22
1.921480
 13
3.191760
 23
2.665960
  0
POLYLINE
  8
0
  6
CONTINUOUS
 66
     1
 40
0.000000
 41
0.000000
  0
VERTEX
  8
0
  6
CONTINUOUS
 10
2.471040
 20
1.921480
  0
VERTEX
  8
0
  6
CONTINUOUS
 10
2.475000
 20
2.665960
  0
VERTEX
  8
0
  6
CONTINUOUS
 10
3.191760
 20
2.665960
  0
VERTEX
  8
0
  6
CONTINUOUS
 10
3.187360
 20
1.921480
  0
VERTEX
  8
0
  6
CONTINUOUS
 10
2.471040
 20
1.921480
  0
SEQEND
  8
0
  0
SOLID
  8
0
 62
    15
 10
3.187360
 20
1.921480
 11
3.191760
 21
2.665960
 12
3.189120
 22
1.920600
 13
3.193080
 23
2.664640
  0
POLYLINE
  8
0
  6
CONTINUOUS
 66
     1
 40
0.000000
 41
0.000000
  0
VERTEX
  8
0
  6
CONTINUOUS
 10
3.187360
 20
1.921480
  0
VERTEX
  8
0
  6
CONTINUOUS
 10
3.191760
 20
2.665960
  0
VERTEX
  8
0
  6
CONTINUOUS
 10
3.193080
 20
2.664640
  0
VERTEX
  8
0
  6
CONTINUOUS
 10
3.189120
 20
1.920600
  0
VERTEX
  8
0
  6
CONTINUOUS
 10
3.187360
 20
1.921480
  0
SEQEND
  8
0
  0
POLYLINE
  8
0
  6
CONTINUOUS
 66
     1
 40
0.000000
 41
0.000000
  0
VERTEX
  8
0
  6
CONTINUOUS
 10
3.189120
 20
1.920600
  0
VERTEX
  8
0
  6
CONTINUOUS
 10
3.208040
 20
1.826440
  0
VERTEX
  8
0
  6
CONTINUOUS
 10
3.261280
 20
1.824240
  0
VERTEX
  8
0
  6
CONTINUOUS
 10
3.306160
 20
1.820720
  0
VERTEX
  8
0
  6
CONTINUOUS
 10
3.343560
 20
1.813240
  0
VERTEX
  8
0
  6
CONTINUOUS
 10
3.376120
 20
1.800040
  0
VERTEX
  8
0
  6
CONTINUOUS
 10
3.405600
 20
1.779800
  0
VERTEX
  8
0
  6
CONTINUOUS
 10
3.433760
 20
1.749880
  0
VERTEX
  8
0
  6
CONTINUOUS
 10
3.461920
 20
1.708960
  0
VERTEX
  8
0
  6
CONTINUOUS
 10
3.492280
 20
1.654840
  0
VERTEX
  8
0
  6
CONTINUOUS
 10
3.608000
 20
1.654840
  0
VERTEX
  8
0
  6
CONTINUOUS
 10
3.623840
 20
1.542200
  0
VERTEX
  8
0
  6
CONTINUOUS
 10
6.100160
 20
1.542200
  0
VERTEX
  8
0
  6
CONTINUOUS
 10
6.111600
 20
1.450240
  0
VERTEX
  8
0
  6
CONTINUOUS
 10
6.572720
 20
1.450240
  0
VERTEX
  8
0
  6
CONTINUOUS
 10
6.590320
 20
1.373680
  0
VERTEX
  8
0
  6
CONTINUOUS
 10
6.623320
 20
1.373680
  0
VERTEX
  8
0
  6
CONTINUOUS
 10
6.655440
 20
1.387760
  0
VERTEX
  8
0
  6
CONTINUOUS
 10
6.681840
 20
1.393040
  0
VERTEX
  8
0
  6
CONTINUOUS
 10
6.703840
 20
1.391280
  0
VERTEX
  8
0
  6
CONTINUOUS
 10
6.722760
 20
1.383800
  0
VERTEX
  8
0
  6
CONTINUOUS
 10
6.756200
 20
1.355200
  0
VERTEX
  8
0
  6
CONTINUOUS
 10
6.791400
 20
1.317360
  0
VERTEX
  8
0
  6
CONTINUOUS
 10
6.831000
 20
1.278640
  0
VERTEX
  8
0
  6
CONTINUOUS
 10
6.875880
 20
1.245640
  0
VERTEX
  8
0
  6
CONTINUOUS
 10
6.903160
 20
1.232440
  0
VERTEX
  8
0
  6
CONTINUOUS
 10
6.935720
 20
1.222320
  0
VERTEX
  8
0
  6
CONTINUOUS
 10
6.974440
 20
1.216160
  0
VERTEX
  8
0
  6
CONTINUOUS
 10
7.020200
 20
1.213520
  0
VERTEX
  8
0
  6
CONTINUOUS
 10
7.020200
 20
1.041920
  0
VERTEX
  8
0
  6
CONTINUOUS
 10
2.471040
 20
1.041920
  0
VERTEX
  8
0
  6
CONTINUOUS
 10
2.471040
 20
1.921480
  0
VERTEX
  8
0
  6
CONTINUOUS
 10
3.187360
 20
1.921480
  0
VERTEX
  8
0
  6
CONTINUOUS
 10
3.189120
 20
1.920600
  0
SEQEND
  8
0
  0
TEXT
  8
0
 10
4.451920
 20
0.813120
 40
0.138070
  1
BA  839
 41
1.000000
  7
SN0
 71
     0
 72
     5
 11
5.042289
 21
0.813120
  0
TEXT
  8
0
 10
4.249960
 20
0.621720
 40
0.138070
  1
7/8" x 4-9/16"
 41
1.000000
  7
SN0
 71
     0
 72
     5
 11
5.243797
 21
0.621720
  0
POLYLINE
  8
0
  6
CONTINUOUS
 66
     1
 40
0.014080
 41
0.014080
  0
VERTEX
  8
0
  6
CONTINUOUS
 10
3.187800
 20
4.044920
  0
VERTEX
  8
0
  6
CONTINUOUS
 10
3.206720
 20
3.951200
  0
VERTEX
  8
0
  6
CONTINUOUS
 10
3.283280
 20
3.947240
  0
VERTEX
  8
0
  6
CONTINUOUS
 10
3.324200
 20
3.941960
  0
VERTEX
  8
0
  6
CONTINUOUS
 10
3.358960
 20
3.932280
  0
VERTEX
  8
0
  6
CONTINUOUS
 10
3.374800
 20
3.924800
  0
VERTEX
  8
0
  6
CONTINUOUS
 10
3.404280
 20
3.904560
  0
VERTEX
  8
0
  6
CONTINUOUS
 10
3.425400
 20
3.883000
  0
VERTEX
  8
0
  6
CONTINUOUS
 10
3.453120
 20
3.845160
  0
VERTEX
  8
0
  6
CONTINUOUS
 10
3.490960
 20
3.779600
  0
VERTEX
  8
0
  6
CONTINUOUS
 10
3.606240
 20
3.779600
  0
VERTEX
  8
0
  6
CONTINUOUS
 10
3.622520
 20
3.666960
  0
VERTEX
  8
0
  6
CONTINUOUS
 10
6.098400
 20
3.666960
  0
VERTEX
  8
0
  6
CONTINUOUS
 10
6.110280
 20
3.574560
  0
VERTEX
  8
0
  6
CONTINUOUS
 10
6.571400
 20
3.574560
  0
VERTEX
  8
0
  6
CONTINUOUS
 10
6.589000
 20
3.498440
  0
VERTEX
  8
0
  6
CONTINUOUS
 10
6.622000
 20
3.498440
  0
VERTEX
  8
0
  6
CONTINUOUS
 10
6.654120
 20
3.512080
  0
VERTEX
  8
0
  6
CONTINUOUS
 10
6.667760
 20
3.516040
  0
VERTEX
  8
0
  6
CONTINUOUS
 10
6.680520
 20
3.517800
  0
VERTEX
  8
0
  6
CONTINUOUS
 10
6.702520
 20
3.516040
  0
VERTEX
  8
0
  6
CONTINUOUS
 10
6.721440
 20
3.508120
  0
VERTEX
  8
0
  6
CONTINUOUS
 10
6.738600
 20
3.495800
  0
VERTEX
  8
0
  6
CONTINUOUS
 10
6.809440
 20
3.421880
  0
VERTEX
  8
0
  6
CONTINUOUS
 10
6.850800
 20
3.385800
  0
VERTEX
  8
0
  6
CONTINUOUS
 10
6.874560
 20
3.369960
  0
VERTEX
  8
0
  6
CONTINUOUS
 10
6.901840
 20
3.357200
  0
VERTEX
  8
0
  6
CONTINUOUS
 10
6.934400
 20
3.347080
  0
VERTEX
  8
0
  6
CONTINUOUS
 10
6.952880
 20
3.343120
  0
VERTEX
  8
0
  6
CONTINUOUS
 10
6.995120
 20
3.338720
  0
VERTEX
  8
0
  6
CONTINUOUS
 10
7.018880
 20
3.338280
  0
VERTEX
  8
0
  6
CONTINUOUS
 10
7.018880
 20
3.166240
  0
VERTEX
  8
0
  6
CONTINUOUS
 10
2.469280
 20
3.166240
  0
VERTEX
  8
0
  6
CONTINUOUS
 10
2.469280
 20
4.046240
  0
VERTEX
  8
0
  6
CONTINUOUS
 10
3.186040
 20
4.046240
  0
VERTEX
  8
0
  6
CONTINUOUS
 10
3.187800
 20
4.044920
  0
SEQEND
  8
0
  0
ENDSEC
  0
EOF
