  0
SECTION
  2
HEADER
  9
$ACADVER
  1
AC1006
  9
$EXTMIN
 10
1.276440
 20
0.568040
  9
$EXTMAX
 10
6.783480
 20
3.345320
  9
$LTSCALE
 40
0.044000
  9
$PDMODE
 70
    35
  9
$PDSIZE
 40
0.035200
  0
ENDSEC
  0
SECTION
  2
TABLES
  0
TABLE
  2
LTYPE
 70
     9
  0
LTYPE
  2
CONTINUOUS
 70
    64
  3
Solid line
 72
    65
 73
     0
 40
0.000000
  0
LTYPE
  2
DASHED
 70
    64
  3
__ __ __ __ __ __ __ __ __ __ __ __ __ __ __
 72
    65
 73
     2
 40
0.000330
 49
0.000220
 49
-0.000110
  0
LTYPE
  2
HIDDEN
 70
    64
  3
 _ _ _ _ _ _ _ _ _ _ _ _ _ _ _ _ _ _ _ _ _ _
 72
    65
 73
     2
 40
0.000165
 49
0.000110
 49
-0.000055
  0
LTYPE
  2
CENTER
 70
    64
  3
____ _ ____ _ ____ _ ____ _ ____ _ ____ _ ____
 72
    65
 73
     4
 40
0.000880
 49
0.000550
 49
-0.000110
 49
0.000110
 49
-0.000110
  0
LTYPE
  2
PHANTOM
 70
    64
  3
_____ _ _ _____ _ _ _____ _ _ _____ _ _ ____
 72
    65
 73
     6
 40
0.001100
 49
0.000550
 49
-0.000110
 49
0.000110
 49
-0.000110
 49
0.000110
 49
-0.000110
  0
LTYPE
  2
DOT
 70
    64
  3
...............................................
 72
    65
 73
     2
 40
0.000110
 49
0.000000
 49
-0.000110
  0
LTYPE
  2
DASHDOT
 70
    64
  3
__ . __ . __ . __ . __ . __ . __ . __ . __ . __
 72
    65
 73
     4
 40
0.000440
 49
0.000220
 49
-0.000110
 49
0.000000
 49
-0.000110
  0
LTYPE
  2
BORDER
 70
    64
  3
__ __ . __ __ . __ __ . __ __ . __ __ . __ __
 72
    65
 73
     6
 40
0.000770
 49
0.000220
 49
-0.000110
 49
0.000220
 49
-0.000110
 49
0.000000
 49
-0.000110
  0
LTYPE
  2
DIVIDE
 70
    64
  3
__ . . __ . . __ . . __ . . __ . . __ . . __
 72
    65
 73
     6
 40
0.000550
 49
0.000220
 49
-0.000110
 49
0.000000
 49
-0.000110
 49
0.000000
 49
-0.000110
  0
LTYPE
  2
DOTDOT
 70
    64
  3
 . .  . .  . .  . .  . .  . . 
 72
    65
 73
     5
 40
0.000242
 49
-0.000110
 49
0.000000
 49
-0.000110
 49
0.000000
 49
-0.000110
  0
ENDTAB
  0
TABLE
  2
STYLE
 70
     2
  0
STYLE
 70
     0
  2
SN0
 40
0.000000
 41
0.000440
 50
0.000000
 71
     0
 42
0.000000
  3
ROMAND
  0
STYLE
 70
    68
  2
SV0
 40
0.000000
 41
0.000440
 50
0.000000
 71
     0
 42
0.000000
  3
ROMAND
  0
ENDTAB
  0
TABLE
  2
LAYER
 70
     3
  0
LAYER
  2
FOREGROUND
 70
    64
 62
     7
  6
CONTINUOUS
  0
LAYER
  2
BACKGROUND
 70
    65
 62
    -7
  6
CONTINUOUS
  0
LAYER
  2
0
 70
    64
 62
     7
  6
CONTINUOUS
  0
ENDTAB
  0
ENDSEC
  0
SECTION
  2
ENTITIES
  0
POLYLINE
  8
FOREGROUND
  6
CONTINUOUS
 66
     1
 40
0.000000
 41
0.000000
  0
VERTEX
  8
FOREGROUND
  6
CONTINUOUS
 10
0.000000
 20
3.913360
  0
VERTEX
  8
FOREGROUND
  6
CONTINUOUS
 10
8.499920
 20
3.913360
  0
VERTEX
  8
FOREGROUND
  6
CONTINUOUS
 10
8.499920
 20
-7.086640
  0
VERTEX
  8
FOREGROUND
  6
CONTINUOUS
 10
0.000000
 20
-7.086640
  0
VERTEX
  8
FOREGROUND
  6
CONTINUOUS
 10
0.000000
 20
3.913360
  0
SEQEND
  8
0
  0
POLYLINE
  8
FOREGROUND
  6
CONTINUOUS
 66
     1
 40
0.000000
 41
0.000000
  0
VERTEX
  8
FOREGROUND
  6
CONTINUOUS
 10
0.000000
 20
3.913360
  0
VERTEX
  8
FOREGROUND
  6
CONTINUOUS
 10
8.499920
 20
3.913360
  0
VERTEX
  8
FOREGROUND
  6
CONTINUOUS
 10
8.499920
 20
-7.086640
  0
VERTEX
  8
FOREGROUND
  6
CONTINUOUS
 10
0.000000
 20
-7.086640
  0
VERTEX
  8
FOREGROUND
  6
CONTINUOUS
 10
0.000000
 20
3.913360
  0
SEQEND
  8
0
  0
SOLID
  8
0
 62
    15
 10
2.807640
 20
1.555840
 11
3.468520
 21
1.932920
 12
3.226080
 22
1.555840
 13
3.886960
 23
1.932920
  0
POLYLINE
  8
0
  6
CONTINUOUS
 66
     1
 40
0.000000
 41
0.000000
  0
VERTEX
  8
0
  6
CONTINUOUS
 10
2.807640
 20
1.555840
  0
VERTEX
  8
0
  6
CONTINUOUS
 10
3.468520
 20
1.932920
  0
VERTEX
  8
0
  6
CONTINUOUS
 10
3.886960
 20
1.932920
  0
VERTEX
  8
0
  6
CONTINUOUS
 10
3.226080
 20
1.555840
  0
VERTEX
  8
0
  6
CONTINUOUS
 10
2.807640
 20
1.555840
  0
SEQEND
  8
0
  0
SOLID
  8
0
 62
    15
 10
3.184280
 20
2.854720
 11
3.845160
 21
3.231800
 12
3.184280
 22
2.735920
 13
3.845160
 23
3.113000
  0
POLYLINE
  8
0
  6
CONTINUOUS
 66
     1
 40
0.000000
 41
0.000000
  0
VERTEX
  8
0
  6
CONTINUOUS
 10
3.184280
 20
2.854720
  0
VERTEX
  8
0
  6
CONTINUOUS
 10
3.845160
 20
3.231800
  0
VERTEX
  8
0
  6
CONTINUOUS
 10
3.845160
 20
3.113000
  0
VERTEX
  8
0
  6
CONTINUOUS
 10
3.184280
 20
2.735920
  0
VERTEX
  8
0
  6
CONTINUOUS
 10
3.184280
 20
2.854720
  0
SEQEND
  8
0
  0
SOLID
  8
0
 62
    15
 10
3.184280
 20
2.735920
 11
3.845160
 21
3.113000
 12
3.306160
 22
2.735920
 13
3.967040
 23
3.113000
  0
POLYLINE
  8
0
  6
CONTINUOUS
 66
     1
 40
0.000000
 41
0.000000
  0
VERTEX
  8
0
  6
CONTINUOUS
 10
3.184280
 20
2.735920
  0
VERTEX
  8
0
  6
CONTINUOUS
 10
3.845160
 20
3.113000
  0
VERTEX
  8
0
  6
CONTINUOUS
 10
3.967040
 20
3.113000
  0
VERTEX
  8
0
  6
CONTINUOUS
 10
3.306160
 20
2.735920
  0
VERTEX
  8
0
  6
CONTINUOUS
 10
3.184280
 20
2.735920
  0
SEQEND
  8
0
  0
SOLID
  8
0
 62
    15
 10
2.806320
 20
2.382600
 11
3.467200
 21
2.759680
 12
2.806320
 22
1.555400
 13
3.467200
 23
1.932480
  0
POLYLINE
  8
0
  6
CONTINUOUS
 66
     1
 40
0.000000
 41
0.000000
  0
VERTEX
  8
0
  6
CONTINUOUS
 10
2.806320
 20
2.382600
  0
VERTEX
  8
0
  6
CONTINUOUS
 10
3.467200
 20
2.759680
  0
VERTEX
  8
0
  6
CONTINUOUS
 10
3.467200
 20
1.932480
  0
VERTEX
  8
0
  6
CONTINUOUS
 10
2.806320
 20
1.555400
  0
VERTEX
  8
0
  6
CONTINUOUS
 10
2.806320
 20
2.382600
  0
SEQEND
  8
0
  0
SOLID
  8
0
 62
    15
 10
3.306160
 20
2.470160
 11
3.967040
 21
2.847240
 12
3.306160
 22
2.456520
 13
3.967040
 23
2.833600
  0
POLYLINE
  8
0
  6
CONTINUOUS
 66
     1
 40
0.000000
 41
0.000000
  0
VERTEX
  8
0
  6
CONTINUOUS
 10
3.306160
 20
2.470160
  0
VERTEX
  8
0
  6
CONTINUOUS
 10
3.967040
 20
2.847240
  0
VERTEX
  8
0
  6
CONTINUOUS
 10
3.967040
 20
2.833600
  0
VERTEX
  8
0
  6
CONTINUOUS
 10
3.306160
 20
2.456520
  0
VERTEX
  8
0
  6
CONTINUOUS
 10
3.306160
 20
2.470160
  0
SEQEND
  8
0
  0
SOLID
  8
0
 62
    15
 10
3.306160
 20
2.456520
 11
3.967040
 21
2.833600
 12
3.305720
 22
2.442000
 13
3.966600
 23
2.819080
  0
POLYLINE
  8
0
  6
CONTINUOUS
 66
     1
 40
0.000000
 41
0.000000
  0
VERTEX
  8
0
  6
CONTINUOUS
 10
3.306160
 20
2.456520
  0
VERTEX
  8
0
  6
CONTINUOUS
 10
3.967040
 20
2.833600
  0
VERTEX
  8
0
  6
CONTINUOUS
 10
3.966600
 20
2.819080
  0
VERTEX
  8
0
  6
CONTINUOUS
 10
3.305720
 20
2.442000
  0
VERTEX
  8
0
  6
CONTINUOUS
 10
3.306160
 20
2.456520
  0
SEQEND
  8
0
  0
SOLID
  8
0
 62
    15
 10
3.305720
 20
2.442000
 11
3.966600
 21
2.819080
 12
3.298240
 22
2.413840
 13
3.959120
 23
2.790920
  0
POLYLINE
  8
0
  6
CONTINUOUS
 66
     1
 40
0.000000
 41
0.000000
  0
VERTEX
  8
0
  6
CONTINUOUS
 10
3.305720
 20
2.442000
  0
VERTEX
  8
0
  6
CONTINUOUS
 10
3.966600
 20
2.819080
  0
VERTEX
  8
0
  6
CONTINUOUS
 10
3.959120
 20
2.790920
  0
VERTEX
  8
0
  6
CONTINUOUS
 10
3.298240
 20
2.413840
  0
VERTEX
  8
0
  6
CONTINUOUS
 10
3.305720
 20
2.442000
  0
SEQEND
  8
0
  0
SOLID
  8
0
 62
    15
 10
3.298240
 20
2.413840
 11
3.959120
 21
2.790920
 12
3.274480
 22
2.391840
 13
3.935360
 23
2.768920
  0
POLYLINE
  8
0
  6
CONTINUOUS
 66
     1
 40
0.000000
 41
0.000000
  0
VERTEX
  8
0
  6
CONTINUOUS
 10
3.298240
 20
2.413840
  0
VERTEX
  8
0
  6
CONTINUOUS
 10
3.959120
 20
2.790920
  0
VERTEX
  8
0
  6
CONTINUOUS
 10
3.935360
 20
2.768920
  0
VERTEX
  8
0
  6
CONTINUOUS
 10
3.274480
 20
2.391840
  0
VERTEX
  8
0
  6
CONTINUOUS
 10
3.298240
 20
2.413840
  0
SEQEND
  8
0
  0
SOLID
  8
0
 62
    15
 10
3.306160
 20
2.735920
 11
3.967040
 21
3.113000
 12
3.306160
 22
2.470160
 13
3.967040
 23
2.847240
  0
POLYLINE
  8
0
  6
CONTINUOUS
 66
     1
 40
0.000000
 41
0.000000
  0
VERTEX
  8
0
  6
CONTINUOUS
 10
3.306160
 20
2.735920
  0
VERTEX
  8
0
  6
CONTINUOUS
 10
3.967040
 20
3.113000
  0
VERTEX
  8
0
  6
CONTINUOUS
 10
3.967040
 20
2.847240
  0
VERTEX
  8
0
  6
CONTINUOUS
 10
3.306160
 20
2.470160
  0
VERTEX
  8
0
  6
CONTINUOUS
 10
3.306160
 20
2.735920
  0
SEQEND
  8
0
  0
SOLID
  8
0
 62
    15
 10
2.806320
 20
1.555400
 11
3.467200
 21
1.932480
 12
2.807640
 22
1.555840
 13
3.468520
 23
1.932920
  0
POLYLINE
  8
0
  6
CONTINUOUS
 66
     1
 40
0.000000
 41
0.000000
  0
VERTEX
  8
0
  6
CONTINUOUS
 10
2.806320
 20
1.555400
  0
VERTEX
  8
0
  6
CONTINUOUS
 10
3.467200
 20
1.932480
  0
VERTEX
  8
0
  6
CONTINUOUS
 10
3.468520
 20
1.932920
  0
VERTEX
  8
0
  6
CONTINUOUS
 10
2.807640
 20
1.555840
  0
VERTEX
  8
0
  6
CONTINUOUS
 10
2.806320
 20
1.555400
  0
SEQEND
  8
0
  0
SOLID
  8
0
 62
    15
 10
1.276880
 20
2.854720
 11
1.938200
 21
3.231800
 12
3.184280
 22
2.854720
 13
3.845160
 23
3.231800
  0
POLYLINE
  8
0
  6
CONTINUOUS
 66
     1
 40
0.000000
 41
0.000000
  0
VERTEX
  8
0
  6
CONTINUOUS
 10
1.276880
 20
2.854720
  0
VERTEX
  8
0
  6
CONTINUOUS
 10
1.938200
 20
3.231800
  0
VERTEX
  8
0
  6
CONTINUOUS
 10
3.845160
 20
3.231800
  0
VERTEX
  8
0
  6
CONTINUOUS
 10
3.184280
 20
2.854720
  0
VERTEX
  8
0
  6
CONTINUOUS
 10
1.276880
 20
2.854720
  0
SEQEND
  8
0
  0
SOLID
  8
0
 62
    15
 10
3.226080
 20
1.555840
 11
3.886960
 21
1.932920
 12
3.254680
 22
1.553200
 13
3.916000
 23
1.930280
  0
POLYLINE
  8
0
  6
CONTINUOUS
 66
     1
 40
0.000000
 41
0.000000
  0
VERTEX
  8
0
  6
CONTINUOUS
 10
3.226080
 20
1.555840
  0
VERTEX
  8
0
  6
CONTINUOUS
 10
3.886960
 20
1.932920
  0
VERTEX
  8
0
  6
CONTINUOUS
 10
3.916000
 20
1.930280
  0
VERTEX
  8
0
  6
CONTINUOUS
 10
3.254680
 20
1.553200
  0
VERTEX
  8
0
  6
CONTINUOUS
 10
3.226080
 20
1.555840
  0
SEQEND
  8
0
  0
SOLID
  8
0
 62
    15
 10
3.254680
 20
1.553200
 11
3.916000
 21
1.930280
 12
3.275800
 22
1.547040
 13
3.936680
 23
1.924120
  0
POLYLINE
  8
0
  6
CONTINUOUS
 66
     1
 40
0.000000
 41
0.000000
  0
VERTEX
  8
0
  6
CONTINUOUS
 10
3.254680
 20
1.553200
  0
VERTEX
  8
0
  6
CONTINUOUS
 10
3.916000
 20
1.930280
  0
VERTEX
  8
0
  6
CONTINUOUS
 10
3.936680
 20
1.924120
  0
VERTEX
  8
0
  6
CONTINUOUS
 10
3.275800
 20
1.547040
  0
VERTEX
  8
0
  6
CONTINUOUS
 10
3.254680
 20
1.553200
  0
SEQEND
  8
0
  0
SOLID
  8
0
 62
    15
 10
3.275800
 20
1.547040
 11
3.936680
 21
1.924120
 12
3.299560
 22
1.525040
 13
3.960440
 23
1.902120
  0
POLYLINE
  8
0
  6
CONTINUOUS
 66
     1
 40
0.000000
 41
0.000000
  0
VERTEX
  8
0
  6
CONTINUOUS
 10
3.275800
 20
1.547040
  0
VERTEX
  8
0
  6
CONTINUOUS
 10
3.936680
 20
1.924120
  0
VERTEX
  8
0
  6
CONTINUOUS
 10
3.960440
 20
1.902120
  0
VERTEX
  8
0
  6
CONTINUOUS
 10
3.299560
 20
1.525040
  0
VERTEX
  8
0
  6
CONTINUOUS
 10
3.275800
 20
1.547040
  0
SEQEND
  8
0
  0
SOLID
  8
0
 62
    15
 10
3.299560
 20
1.525040
 11
3.960440
 21
1.902120
 12
3.307040
 22
1.496440
 13
3.967920
 23
1.873520
  0
POLYLINE
  8
0
  6
CONTINUOUS
 66
     1
 40
0.000000
 41
0.000000
  0
VERTEX
  8
0
  6
CONTINUOUS
 10
3.299560
 20
1.525040
  0
VERTEX
  8
0
  6
CONTINUOUS
 10
3.960440
 20
1.902120
  0
VERTEX
  8
0
  6
CONTINUOUS
 10
3.967920
 20
1.873520
  0
VERTEX
  8
0
  6
CONTINUOUS
 10
3.307040
 20
1.496440
  0
VERTEX
  8
0
  6
CONTINUOUS
 10
3.299560
 20
1.525040
  0
SEQEND
  8
0
  0
SOLID
  8
0
 62
    15
 10
3.307040
 20
1.496440
 11
3.967920
 21
1.873520
 12
3.307480
 22
1.481920
 13
3.968360
 23
1.859000
  0
POLYLINE
  8
0
  6
CONTINUOUS
 66
     1
 40
0.000000
 41
0.000000
  0
VERTEX
  8
0
  6
CONTINUOUS
 10
3.307040
 20
1.496440
  0
VERTEX
  8
0
  6
CONTINUOUS
 10
3.967920
 20
1.873520
  0
VERTEX
  8
0
  6
CONTINUOUS
 10
3.968360
 20
1.859000
  0
VERTEX
  8
0
  6
CONTINUOUS
 10
3.307480
 20
1.481920
  0
VERTEX
  8
0
  6
CONTINUOUS
 10
3.307040
 20
1.496440
  0
SEQEND
  8
0
  0
SOLID
  8
0
 62
    15
 10
3.307480
 20
1.481920
 11
3.968360
 21
1.859000
 12
3.307480
 22
1.468280
 13
3.968360
 23
1.845360
  0
POLYLINE
  8
0
  6
CONTINUOUS
 66
     1
 40
0.000000
 41
0.000000
  0
VERTEX
  8
0
  6
CONTINUOUS
 10
3.307480
 20
1.481920
  0
VERTEX
  8
0
  6
CONTINUOUS
 10
3.968360
 20
1.859000
  0
VERTEX
  8
0
  6
CONTINUOUS
 10
3.968360
 20
1.845360
  0
VERTEX
  8
0
  6
CONTINUOUS
 10
3.307480
 20
1.468280
  0
VERTEX
  8
0
  6
CONTINUOUS
 10
3.307480
 20
1.481920
  0
SEQEND
  8
0
  0
SOLID
  8
0
 62
    15
 10
3.185600
 20
1.202960
 11
3.846480
 21
1.580040
 12
3.185600
 22
1.084160
 13
3.846480
 23
1.461240
  0
POLYLINE
  8
0
  6
CONTINUOUS
 66
     1
 40
0.000000
 41
0.000000
  0
VERTEX
  8
0
  6
CONTINUOUS
 10
3.185600
 20
1.202960
  0
VERTEX
  8
0
  6
CONTINUOUS
 10
3.846480
 20
1.580040
  0
VERTEX
  8
0
  6
CONTINUOUS
 10
3.846480
 20
1.461240
  0
VERTEX
  8
0
  6
CONTINUOUS
 10
3.185600
 20
1.084160
  0
VERTEX
  8
0
  6
CONTINUOUS
 10
3.185600
 20
1.202960
  0
SEQEND
  8
0
  0
SOLID
  8
0
 62
    15
 10
3.307480
 20
1.468280
 11
3.968360
 21
1.845360
 12
3.307480
 22
1.202960
 13
3.968360
 23
1.580040
  0
POLYLINE
  8
0
  6
CONTINUOUS
 66
     1
 40
0.000000
 41
0.000000
  0
VERTEX
  8
0
  6
CONTINUOUS
 10
3.307480
 20
1.468280
  0
VERTEX
  8
0
  6
CONTINUOUS
 10
3.968360
 20
1.845360
  0
VERTEX
  8
0
  6
CONTINUOUS
 10
3.968360
 20
1.580040
  0
VERTEX
  8
0
  6
CONTINUOUS
 10
3.307480
 20
1.202960
  0
VERTEX
  8
0
  6
CONTINUOUS
 10
3.307480
 20
1.468280
  0
SEQEND
  8
0
  0
SOLID
  8
0
 62
    15
 10
1.914000
 20
1.084160
 11
2.575320
 21
1.461240
 12
2.005080
 22
1.084160
 13
2.665960
 23
1.461240
  0
POLYLINE
  8
0
  6
CONTINUOUS
 66
     1
 40
0.000000
 41
0.000000
  0
VERTEX
  8
0
  6
CONTINUOUS
 10
1.914000
 20
1.084160
  0
VERTEX
  8
0
  6
CONTINUOUS
 10
2.575320
 20
1.461240
  0
VERTEX
  8
0
  6
CONTINUOUS
 10
2.665960
 20
1.461240
  0
VERTEX
  8
0
  6
CONTINUOUS
 10
2.005080
 20
1.084160
  0
VERTEX
  8
0
  6
CONTINUOUS
 10
1.914000
 20
1.084160
  0
SEQEND
  8
0
  0
POLYLINE
  8
0
  6
CONTINUOUS
 66
     1
 40
0.000000
 41
0.000000
  0
VERTEX
  8
0
  6
CONTINUOUS
 10
2.005080
 20
1.084160
  0
VERTEX
  8
0
  6
CONTINUOUS
 10
1.276880
 20
1.084160
  0
VERTEX
  8
0
  6
CONTINUOUS
 10
1.276880
 20
2.854720
  0
VERTEX
  8
0
  6
CONTINUOUS
 10
3.184280
 20
2.854720
  0
VERTEX
  8
0
  6
CONTINUOUS
 10
3.184280
 20
2.735920
  0
VERTEX
  8
0
  6
CONTINUOUS
 10
3.306160
 20
2.735920
  0
VERTEX
  8
0
  6
CONTINUOUS
 10
3.306160
 20
2.470160
  0
VERTEX
  8
0
  6
CONTINUOUS
 10
3.306160
 20
2.456520
  0
VERTEX
  8
0
  6
CONTINUOUS
 10
3.305720
 20
2.442000
  0
VERTEX
  8
0
  6
CONTINUOUS
 10
3.298240
 20
2.413840
  0
VERTEX
  8
0
  6
CONTINUOUS
 10
3.274480
 20
2.391840
  0
VERTEX
  8
0
  6
CONTINUOUS
 10
3.253360
 20
2.385240
  0
VERTEX
  8
0
  6
CONTINUOUS
 10
3.224760
 20
2.382600
  0
VERTEX
  8
0
  6
CONTINUOUS
 10
2.806320
 20
2.382600
  0
VERTEX
  8
0
  6
CONTINUOUS
 10
2.806320
 20
1.555400
  0
VERTEX
  8
0
  6
CONTINUOUS
 10
2.807640
 20
1.555840
  0
VERTEX
  8
0
  6
CONTINUOUS
 10
3.226080
 20
1.555840
  0
VERTEX
  8
0
  6
CONTINUOUS
 10
3.254680
 20
1.553200
  0
VERTEX
  8
0
  6
CONTINUOUS
 10
3.275800
 20
1.547040
  0
VERTEX
  8
0
  6
CONTINUOUS
 10
3.299560
 20
1.525040
  0
VERTEX
  8
0
  6
CONTINUOUS
 10
3.307040
 20
1.496440
  0
VERTEX
  8
0
  6
CONTINUOUS
 10
3.307480
 20
1.481920
  0
VERTEX
  8
0
  6
CONTINUOUS
 10
3.307480
 20
1.468280
  0
VERTEX
  8
0
  6
CONTINUOUS
 10
3.307480
 20
1.202960
  0
VERTEX
  8
0
  6
CONTINUOUS
 10
3.185600
 20
1.202960
  0
VERTEX
  8
0
  6
CONTINUOUS
 10
3.185600
 20
1.084160
  0
VERTEX
  8
0
  6
CONTINUOUS
 10
1.914000
 20
1.084160
  0
VERTEX
  8
0
  6
CONTINUOUS
 10
2.005080
 20
1.084160
  0
SEQEND
  8
0
  0
TEXT
  8
0
 10
2.326720
 20
0.803000
 40
0.138071
  1
BA  838
 41
1.000000
  7
SN0
 71
     0
 72
     5
 11
2.917075
 21
0.803000
  0
TEXT
  8
0
 10
2.240040
 20
0.611160
 40
0.138071
  1
1-3/4" x 2"
 41
1.000000
  7
SN0
 71
     0
 72
     5
 11
3.002490
 21
0.611160
  0
POLYLINE
  8
0
  6
CONTINUOUS
 66
     1
 40
0.014080
 41
0.014080
  0
VERTEX
  8
0
  6
CONTINUOUS
 10
5.474040
 20
1.567280
  0
VERTEX
  8
0
  6
CONTINUOUS
 10
4.745840
 20
1.567280
  0
VERTEX
  8
0
  6
CONTINUOUS
 10
4.745840
 20
3.337840
  0
VERTEX
  8
0
  6
CONTINUOUS
 10
5.381640
 20
3.337840
  0
VERTEX
  8
0
  6
CONTINUOUS
 10
6.653240
 20
3.337840
  0
VERTEX
  8
0
  6
CONTINUOUS
 10
6.653240
 20
3.219040
  0
VERTEX
  8
0
  6
CONTINUOUS
 10
6.774680
 20
3.219040
  0
VERTEX
  8
0
  6
CONTINUOUS
 10
6.774680
 20
2.953720
  0
VERTEX
  8
0
  6
CONTINUOUS
 10
6.774680
 20
2.940080
  0
VERTEX
  8
0
  6
CONTINUOUS
 10
6.774240
 20
2.925560
  0
VERTEX
  8
0
  6
CONTINUOUS
 10
6.772040
 20
2.911040
  0
VERTEX
  8
0
  6
CONTINUOUS
 10
6.769840
 20
2.904000
  0
VERTEX
  8
0
  6
CONTINUOUS
 10
6.767200
 20
2.896960
  0
VERTEX
  8
0
  6
CONTINUOUS
 10
6.762800
 20
2.890800
  0
VERTEX
  8
0
  6
CONTINUOUS
 10
6.757960
 20
2.884640
  0
VERTEX
  8
0
  6
CONTINUOUS
 10
6.751360
 20
2.879360
  0
VERTEX
  8
0
  6
CONTINUOUS
 10
6.743440
 20
2.874960
  0
VERTEX
  8
0
  6
CONTINUOUS
 10
6.733760
 20
2.871440
  0
VERTEX
  8
0
  6
CONTINUOUS
 10
6.722320
 20
2.868360
  0
VERTEX
  8
0
  6
CONTINUOUS
 10
6.709120
 20
2.866600
  0
VERTEX
  8
0
  6
CONTINUOUS
 10
6.701640
 20
2.866160
  0
VERTEX
  8
0
  6
CONTINUOUS
 10
6.693720
 20
2.866160
  0
VERTEX
  8
0
  6
CONTINUOUS
 10
6.274840
 20
2.866160
  0
VERTEX
  8
0
  6
CONTINUOUS
 10
6.274840
 20
2.038960
  0
VERTEX
  8
0
  6
CONTINUOUS
 10
6.695040
 20
2.038960
  0
VERTEX
  8
0
  6
CONTINUOUS
 10
6.702960
 20
2.038960
  0
VERTEX
  8
0
  6
CONTINUOUS
 10
6.710440
 20
2.038520
  0
VERTEX
  8
0
  6
CONTINUOUS
 10
6.723640
 20
2.036760
  0
VERTEX
  8
0
  6
CONTINUOUS
 10
6.735080
 20
2.033680
  0
VERTEX
  8
0
  6
CONTINUOUS
 10
6.744760
 20
2.030160
  0
VERTEX
  8
0
  6
CONTINUOUS
 10
6.752680
 20
2.025760
  0
VERTEX
  8
0
  6
CONTINUOUS
 10
6.759280
 20
2.020480
  0
VERTEX
  8
0
  6
CONTINUOUS
 10
6.764560
 20
2.014760
  0
VERTEX
  8
0
  6
CONTINUOUS
 10
6.768520
 20
2.008160
  0
VERTEX
  8
0
  6
CONTINUOUS
 10
6.771600
 20
2.001560
  0
VERTEX
  8
0
  6
CONTINUOUS
 10
6.773800
 20
1.994520
  0
VERTEX
  8
0
  6
CONTINUOUS
 10
6.776000
 20
1.980000
  0
VERTEX
  8
0
  6
CONTINUOUS
 10
6.776440
 20
1.965480
  0
VERTEX
  8
0
  6
CONTINUOUS
 10
6.776440
 20
1.951840
  0
VERTEX
  8
0
  6
CONTINUOUS
 10
6.776440
 20
1.686080
  0
VERTEX
  8
0
  6
CONTINUOUS
 10
6.654560
 20
1.686080
  0
VERTEX
  8
0
  6
CONTINUOUS
 10
6.654560
 20
1.567280
  0
VERTEX
  8
0
  6
CONTINUOUS
 10
5.382960
 20
1.567280
  0
VERTEX
  8
0
  6
CONTINUOUS
 10
5.474040
 20
1.567280
  0
SEQEND
  8
0
  0
ENDSEC
  0
EOF
