  0
SECTION
  2
HEADER
  9
$ACADVER
  1
AC1006
  9
$EXTMIN
 10
3.564440
 20
0.605880
  9
$EXTMAX
 10
6.559960
 20
2.973080
  9
$LTSCALE
 40
0.044000
  9
$PDMODE
 70
    35
  9
$PDSIZE
 40
0.035200
  0
ENDSEC
  0
SECTION
  2
TABLES
  0
TABLE
  2
LTYPE
 70
     9
  0
LTYPE
  2
CONTINUOUS
 70
    64
  3
Solid line
 72
    65
 73
     0
 40
0.000000
  0
LTYPE
  2
DASHED
 70
    64
  3
__ __ __ __ __ __ __ __ __ __ __ __ __ __ __
 72
    65
 73
     2
 40
0.000330
 49
0.000220
 49
-0.000110
  0
LTYPE
  2
HIDDEN
 70
    64
  3
 _ _ _ _ _ _ _ _ _ _ _ _ _ _ _ _ _ _ _ _ _ _
 72
    65
 73
     2
 40
0.000165
 49
0.000110
 49
-0.000055
  0
LTYPE
  2
CENTER
 70
    64
  3
____ _ ____ _ ____ _ ____ _ ____ _ ____ _ ____
 72
    65
 73
     4
 40
0.000880
 49
0.000550
 49
-0.000110
 49
0.000110
 49
-0.000110
  0
LTYPE
  2
PHANTOM
 70
    64
  3
_____ _ _ _____ _ _ _____ _ _ _____ _ _ ____
 72
    65
 73
     6
 40
0.001100
 49
0.000550
 49
-0.000110
 49
0.000110
 49
-0.000110
 49
0.000110
 49
-0.000110
  0
LTYPE
  2
DOT
 70
    64
  3
...............................................
 72
    65
 73
     2
 40
0.000110
 49
0.000000
 49
-0.000110
  0
LTYPE
  2
DASHDOT
 70
    64
  3
__ . __ . __ . __ . __ . __ . __ . __ . __ . __
 72
    65
 73
     4
 40
0.000440
 49
0.000220
 49
-0.000110
 49
0.000000
 49
-0.000110
  0
LTYPE
  2
BORDER
 70
    64
  3
__ __ . __ __ . __ __ . __ __ . __ __ . __ __
 72
    65
 73
     6
 40
0.000770
 49
0.000220
 49
-0.000110
 49
0.000220
 49
-0.000110
 49
0.000000
 49
-0.000110
  0
LTYPE
  2
DIVIDE
 70
    64
  3
__ . . __ . . __ . . __ . . __ . . __ . . __
 72
    65
 73
     6
 40
0.000550
 49
0.000220
 49
-0.000110
 49
0.000000
 49
-0.000110
 49
0.000000
 49
-0.000110
  0
LTYPE
  2
DOTDOT
 70
    64
  3
 . .  . .  . .  . .  . .  . . 
 72
    65
 73
     5
 40
0.000242
 49
-0.000110
 49
0.000000
 49
-0.000110
 49
0.000000
 49
-0.000110
  0
ENDTAB
  0
TABLE
  2
STYLE
 70
     2
  0
STYLE
 70
     0
  2
SN0
 40
0.000000
 41
0.000440
 50
0.000000
 71
     0
 42
0.000000
  3
ROMAND
  0
STYLE
 70
    68
  2
SV0
 40
0.000000
 41
0.000440
 50
0.000000
 71
     0
 42
0.000000
  3
ROMAND
  0
ENDTAB
  0
TABLE
  2
LAYER
 70
     3
  0
LAYER
  2
FOREGROUND
 70
    64
 62
     7
  6
CONTINUOUS
  0
LAYER
  2
BACKGROUND
 70
    65
 62
    -7
  6
CONTINUOUS
  0
LAYER
  2
0
 70
    64
 62
     7
  6
CONTINUOUS
  0
ENDTAB
  0
ENDSEC
  0
SECTION
  2
ENTITIES
  0
POLYLINE
  8
FOREGROUND
  6
CONTINUOUS
 66
     1
 40
0.000000
 41
0.000000
  0
VERTEX
  8
FOREGROUND
  6
CONTINUOUS
 10
0.000000
 20
3.578960
  0
VERTEX
  8
FOREGROUND
  6
CONTINUOUS
 10
8.499920
 20
3.578960
  0
VERTEX
  8
FOREGROUND
  6
CONTINUOUS
 10
8.499920
 20
-7.421040
  0
VERTEX
  8
FOREGROUND
  6
CONTINUOUS
 10
0.000000
 20
-7.421040
  0
VERTEX
  8
FOREGROUND
  6
CONTINUOUS
 10
0.000000
 20
3.578960
  0
SEQEND
  8
0
  0
POLYLINE
  8
FOREGROUND
  6
CONTINUOUS
 66
     1
 40
0.000000
 41
0.000000
  0
VERTEX
  8
FOREGROUND
  6
CONTINUOUS
 10
0.000000
 20
3.578960
  0
VERTEX
  8
FOREGROUND
  6
CONTINUOUS
 10
8.499920
 20
3.578960
  0
VERTEX
  8
FOREGROUND
  6
CONTINUOUS
 10
8.499920
 20
-7.421040
  0
VERTEX
  8
FOREGROUND
  6
CONTINUOUS
 10
0.000000
 20
-7.421040
  0
VERTEX
  8
FOREGROUND
  6
CONTINUOUS
 10
0.000000
 20
3.578960
  0
SEQEND
  8
0
  0
SOLID
  8
0
 62
    15
 10
4.278120
 20
1.782880
 11
4.921400
 21
2.151600
 12
4.322560
 22
1.739320
 13
4.965840
 23
2.108040
  0
POLYLINE
  8
0
  6
CONTINUOUS
 66
     1
 40
0.000000
 41
0.000000
  0
VERTEX
  8
0
  6
CONTINUOUS
 10
4.278120
 20
1.782880
  0
VERTEX
  8
0
  6
CONTINUOUS
 10
4.921400
 20
2.151600
  0
VERTEX
  8
0
  6
CONTINUOUS
 10
4.965840
 20
2.108040
  0
VERTEX
  8
0
  6
CONTINUOUS
 10
4.322560
 20
1.739320
  0
VERTEX
  8
0
  6
CONTINUOUS
 10
4.278120
 20
1.782880
  0
SEQEND
  8
0
  0
SOLID
  8
0
 62
    15
 10
3.564880
 20
2.603480
 11
4.208160
 21
2.972640
 12
3.868040
 22
2.603480
 13
4.511320
 23
2.972640
  0
POLYLINE
  8
0
  6
CONTINUOUS
 66
     1
 40
0.000000
 41
0.000000
  0
VERTEX
  8
0
  6
CONTINUOUS
 10
3.564880
 20
2.603480
  0
VERTEX
  8
0
  6
CONTINUOUS
 10
4.208160
 20
2.972640
  0
VERTEX
  8
0
  6
CONTINUOUS
 10
4.511320
 20
2.972640
  0
VERTEX
  8
0
  6
CONTINUOUS
 10
3.868040
 20
2.603480
  0
VERTEX
  8
0
  6
CONTINUOUS
 10
3.564880
 20
2.603480
  0
SEQEND
  8
0
  0
SOLID
  8
0
 62
     7
 10
3.868040
 20
2.603480
 11
4.511320
 21
2.972640
 12
3.868040
 22
2.389200
 13
4.511320
 23
2.757920
  0
POLYLINE
  8
0
  6
CONTINUOUS
 66
     1
 40
0.000000
 41
0.000000
  0
VERTEX
  8
0
  6
CONTINUOUS
 10
3.868040
 20
2.603480
  0
VERTEX
  8
0
  6
CONTINUOUS
 10
4.511320
 20
2.972640
  0
VERTEX
  8
0
  6
CONTINUOUS
 10
4.511320
 20
2.757920
  0
VERTEX
  8
0
  6
CONTINUOUS
 10
3.868040
 20
2.389200
  0
VERTEX
  8
0
  6
CONTINUOUS
 10
3.868040
 20
2.603480
  0
SEQEND
  8
0
  0
SOLID
  8
0
 62
    15
 10
3.868040
 20
2.389200
 11
4.511320
 21
2.757920
 12
3.961320
 22
2.389200
 13
4.604160
 23
2.757920
  0
POLYLINE
  8
0
  6
CONTINUOUS
 66
     1
 40
0.000000
 41
0.000000
  0
VERTEX
  8
0
  6
CONTINUOUS
 10
3.868040
 20
2.389200
  0
VERTEX
  8
0
  6
CONTINUOUS
 10
4.511320
 20
2.757920
  0
VERTEX
  8
0
  6
CONTINUOUS
 10
4.604160
 20
2.757920
  0
VERTEX
  8
0
  6
CONTINUOUS
 10
3.961320
 20
2.389200
  0
VERTEX
  8
0
  6
CONTINUOUS
 10
3.868040
 20
2.389200
  0
SEQEND
  8
0
  0
SOLID
  8
0
 62
     7
 10
3.961320
 20
2.389200
 11
4.604160
 21
2.757920
 12
3.968360
 22
2.314840
 13
4.611640
 23
2.683560
  0
POLYLINE
  8
0
  6
CONTINUOUS
 66
     1
 40
0.000000
 41
0.000000
  0
VERTEX
  8
0
  6
CONTINUOUS
 10
3.961320
 20
2.389200
  0
VERTEX
  8
0
  6
CONTINUOUS
 10
4.604160
 20
2.757920
  0
VERTEX
  8
0
  6
CONTINUOUS
 10
4.611640
 20
2.683560
  0
VERTEX
  8
0
  6
CONTINUOUS
 10
3.968360
 20
2.314840
  0
VERTEX
  8
0
  6
CONTINUOUS
 10
3.961320
 20
2.389200
  0
SEQEND
  8
0
  0
SOLID
  8
0
 62
     7
 10
3.968360
 20
2.314840
 11
4.611640
 21
2.683560
 12
3.980680
 22
2.241800
 13
4.623960
 23
2.610960
  0
POLYLINE
  8
0
  6
CONTINUOUS
 66
     1
 40
0.000000
 41
0.000000
  0
VERTEX
  8
0
  6
CONTINUOUS
 10
3.968360
 20
2.314840
  0
VERTEX
  8
0
  6
CONTINUOUS
 10
4.611640
 20
2.683560
  0
VERTEX
  8
0
  6
CONTINUOUS
 10
4.623960
 20
2.610960
  0
VERTEX
  8
0
  6
CONTINUOUS
 10
3.980680
 20
2.241800
  0
VERTEX
  8
0
  6
CONTINUOUS
 10
3.968360
 20
2.314840
  0
SEQEND
  8
0
  0
SOLID
  8
0
 62
     7
 10
3.980680
 20
2.241800
 11
4.623960
 21
2.610960
 12
4.000040
 22
2.169640
 13
4.643320
 23
2.538360
  0
POLYLINE
  8
0
  6
CONTINUOUS
 66
     1
 40
0.000000
 41
0.000000
  0
VERTEX
  8
0
  6
CONTINUOUS
 10
3.980680
 20
2.241800
  0
VERTEX
  8
0
  6
CONTINUOUS
 10
4.623960
 20
2.610960
  0
VERTEX
  8
0
  6
CONTINUOUS
 10
4.643320
 20
2.538360
  0
VERTEX
  8
0
  6
CONTINUOUS
 10
4.000040
 20
2.169640
  0
VERTEX
  8
0
  6
CONTINUOUS
 10
3.980680
 20
2.241800
  0
SEQEND
  8
0
  0
SOLID
  8
0
 62
     7
 10
4.000040
 20
2.169640
 11
4.643320
 21
2.538360
 12
4.028640
 22
2.096600
 13
4.671920
 23
2.465320
  0
POLYLINE
  8
0
  6
CONTINUOUS
 66
     1
 40
0.000000
 41
0.000000
  0
VERTEX
  8
0
  6
CONTINUOUS
 10
4.000040
 20
2.169640
  0
VERTEX
  8
0
  6
CONTINUOUS
 10
4.643320
 20
2.538360
  0
VERTEX
  8
0
  6
CONTINUOUS
 10
4.671920
 20
2.465320
  0
VERTEX
  8
0
  6
CONTINUOUS
 10
4.028640
 20
2.096600
  0
VERTEX
  8
0
  6
CONTINUOUS
 10
4.000040
 20
2.169640
  0
SEQEND
  8
0
  0
SOLID
  8
0
 62
     7
 10
4.028640
 20
2.096600
 11
4.671920
 21
2.465320
 12
4.069120
 22
2.022240
 13
4.711960
 23
2.390960
  0
POLYLINE
  8
0
  6
CONTINUOUS
 66
     1
 40
0.000000
 41
0.000000
  0
VERTEX
  8
0
  6
CONTINUOUS
 10
4.028640
 20
2.096600
  0
VERTEX
  8
0
  6
CONTINUOUS
 10
4.671920
 20
2.465320
  0
VERTEX
  8
0
  6
CONTINUOUS
 10
4.711960
 20
2.390960
  0
VERTEX
  8
0
  6
CONTINUOUS
 10
4.069120
 20
2.022240
  0
VERTEX
  8
0
  6
CONTINUOUS
 10
4.028640
 20
2.096600
  0
SEQEND
  8
0
  0
SOLID
  8
0
 62
     7
 10
4.069120
 20
2.022240
 11
4.711960
 21
2.390960
 12
4.122360
 22
1.945680
 13
4.765640
 23
2.314840
  0
POLYLINE
  8
0
  6
CONTINUOUS
 66
     1
 40
0.000000
 41
0.000000
  0
VERTEX
  8
0
  6
CONTINUOUS
 10
4.069120
 20
2.022240
  0
VERTEX
  8
0
  6
CONTINUOUS
 10
4.711960
 20
2.390960
  0
VERTEX
  8
0
  6
CONTINUOUS
 10
4.765640
 20
2.314840
  0
VERTEX
  8
0
  6
CONTINUOUS
 10
4.122360
 20
1.945680
  0
VERTEX
  8
0
  6
CONTINUOUS
 10
4.069120
 20
2.022240
  0
SEQEND
  8
0
  0
SOLID
  8
0
 62
     7
 10
4.122360
 20
1.945680
 11
4.765640
 21
2.314840
 12
4.154920
 22
1.906520
 13
4.798200
 23
2.275240
  0
POLYLINE
  8
0
  6
CONTINUOUS
 66
     1
 40
0.000000
 41
0.000000
  0
VERTEX
  8
0
  6
CONTINUOUS
 10
4.122360
 20
1.945680
  0
VERTEX
  8
0
  6
CONTINUOUS
 10
4.765640
 20
2.314840
  0
VERTEX
  8
0
  6
CONTINUOUS
 10
4.798200
 20
2.275240
  0
VERTEX
  8
0
  6
CONTINUOUS
 10
4.154920
 20
1.906520
  0
VERTEX
  8
0
  6
CONTINUOUS
 10
4.122360
 20
1.945680
  0
SEQEND
  8
0
  0
SOLID
  8
0
 62
    15
 10
4.154920
 20
1.906520
 11
4.798200
 21
2.275240
 12
4.191440
 22
1.866480
 13
4.834720
 23
2.235200
  0
POLYLINE
  8
0
  6
CONTINUOUS
 66
     1
 40
0.000000
 41
0.000000
  0
VERTEX
  8
0
  6
CONTINUOUS
 10
4.154920
 20
1.906520
  0
VERTEX
  8
0
  6
CONTINUOUS
 10
4.798200
 20
2.275240
  0
VERTEX
  8
0
  6
CONTINUOUS
 10
4.834720
 20
2.235200
  0
VERTEX
  8
0
  6
CONTINUOUS
 10
4.191440
 20
1.866480
  0
VERTEX
  8
0
  6
CONTINUOUS
 10
4.154920
 20
1.906520
  0
SEQEND
  8
0
  0
SOLID
  8
0
 62
    15
 10
4.191440
 20
1.866480
 11
4.834720
 21
2.235200
 12
4.232800
 22
1.825120
 13
4.875640
 23
2.193840
  0
POLYLINE
  8
0
  6
CONTINUOUS
 66
     1
 40
0.000000
 41
0.000000
  0
VERTEX
  8
0
  6
CONTINUOUS
 10
4.191440
 20
1.866480
  0
VERTEX
  8
0
  6
CONTINUOUS
 10
4.834720
 20
2.235200
  0
VERTEX
  8
0
  6
CONTINUOUS
 10
4.875640
 20
2.193840
  0
VERTEX
  8
0
  6
CONTINUOUS
 10
4.232800
 20
1.825120
  0
VERTEX
  8
0
  6
CONTINUOUS
 10
4.191440
 20
1.866480
  0
SEQEND
  8
0
  0
SOLID
  8
0
 62
    15
 10
4.232800
 20
1.825120
 11
4.875640
 21
2.193840
 12
4.278120
 22
1.782880
 13
4.921400
 23
2.151600
  0
POLYLINE
  8
0
  6
CONTINUOUS
 66
     1
 40
0.000000
 41
0.000000
  0
VERTEX
  8
0
  6
CONTINUOUS
 10
4.232800
 20
1.825120
  0
VERTEX
  8
0
  6
CONTINUOUS
 10
4.875640
 20
2.193840
  0
VERTEX
  8
0
  6
CONTINUOUS
 10
4.921400
 20
2.151600
  0
VERTEX
  8
0
  6
CONTINUOUS
 10
4.278120
 20
1.782880
  0
VERTEX
  8
0
  6
CONTINUOUS
 10
4.232800
 20
1.825120
  0
SEQEND
  8
0
  0
SOLID
  8
0
 62
    15
 10
4.300560
 20
1.205160
 11
4.943840
 21
1.573880
 12
4.300560
 22
1.083720
 13
4.943840
 23
1.452440
  0
POLYLINE
  8
0
  6
CONTINUOUS
 66
     1
 40
0.000000
 41
0.000000
  0
VERTEX
  8
0
  6
CONTINUOUS
 10
4.300560
 20
1.205160
  0
VERTEX
  8
0
  6
CONTINUOUS
 10
4.943840
 20
1.573880
  0
VERTEX
  8
0
  6
CONTINUOUS
 10
4.943840
 20
1.452440
  0
VERTEX
  8
0
  6
CONTINUOUS
 10
4.300560
 20
1.083720
  0
VERTEX
  8
0
  6
CONTINUOUS
 10
4.300560
 20
1.205160
  0
SEQEND
  8
0
  0
SOLID
  8
0
 62
     7
 10
4.322560
 20
1.739320
 11
4.965840
 21
2.108040
 12
4.359960
 22
1.694880
 13
5.003240
 23
2.063600
  0
POLYLINE
  8
0
  6
CONTINUOUS
 66
     1
 40
0.000000
 41
0.000000
  0
VERTEX
  8
0
  6
CONTINUOUS
 10
4.322560
 20
1.739320
  0
VERTEX
  8
0
  6
CONTINUOUS
 10
4.965840
 20
2.108040
  0
VERTEX
  8
0
  6
CONTINUOUS
 10
5.003240
 20
2.063600
  0
VERTEX
  8
0
  6
CONTINUOUS
 10
4.359960
 20
1.694880
  0
VERTEX
  8
0
  6
CONTINUOUS
 10
4.322560
 20
1.739320
  0
SEQEND
  8
0
  0
SOLID
  8
0
 62
     7
 10
4.359960
 20
1.694880
 11
5.003240
 21
2.063600
 12
4.390320
 22
1.649560
 13
5.033600
 23
2.018280
  0
POLYLINE
  8
0
  6
CONTINUOUS
 66
     1
 40
0.000000
 41
0.000000
  0
VERTEX
  8
0
  6
CONTINUOUS
 10
4.359960
 20
1.694880
  0
VERTEX
  8
0
  6
CONTINUOUS
 10
5.003240
 20
2.063600
  0
VERTEX
  8
0
  6
CONTINUOUS
 10
5.033600
 20
2.018280
  0
VERTEX
  8
0
  6
CONTINUOUS
 10
4.390320
 20
1.649560
  0
VERTEX
  8
0
  6
CONTINUOUS
 10
4.359960
 20
1.694880
  0
SEQEND
  8
0
  0
SOLID
  8
0
 62
     7
 10
4.390320
 20
1.649560
 11
5.033600
 21
2.018280
 12
4.414520
 22
1.604240
 13
5.057360
 23
1.972960
  0
POLYLINE
  8
0
  6
CONTINUOUS
 66
     1
 40
0.000000
 41
0.000000
  0
VERTEX
  8
0
  6
CONTINUOUS
 10
4.390320
 20
1.649560
  0
VERTEX
  8
0
  6
CONTINUOUS
 10
5.033600
 20
2.018280
  0
VERTEX
  8
0
  6
CONTINUOUS
 10
5.057360
 20
1.972960
  0
VERTEX
  8
0
  6
CONTINUOUS
 10
4.414520
 20
1.604240
  0
VERTEX
  8
0
  6
CONTINUOUS
 10
4.390320
 20
1.649560
  0
SEQEND
  8
0
  0
SOLID
  8
0
 62
     7
 10
4.414520
 20
1.604240
 11
5.057360
 21
1.972960
 12
4.432120
 22
1.558920
 13
5.075400
 23
1.927640
  0
POLYLINE
  8
0
  6
CONTINUOUS
 66
     1
 40
0.000000
 41
0.000000
  0
VERTEX
  8
0
  6
CONTINUOUS
 10
4.414520
 20
1.604240
  0
VERTEX
  8
0
  6
CONTINUOUS
 10
5.057360
 20
1.972960
  0
VERTEX
  8
0
  6
CONTINUOUS
 10
5.075400
 20
1.927640
  0
VERTEX
  8
0
  6
CONTINUOUS
 10
4.432120
 20
1.558920
  0
VERTEX
  8
0
  6
CONTINUOUS
 10
4.414520
 20
1.604240
  0
SEQEND
  8
0
  0
SOLID
  8
0
 62
     7
 10
4.432120
 20
1.558920
 11
5.075400
 21
1.927640
 12
4.444000
 22
1.514480
 13
5.086840
 23
1.883200
  0
POLYLINE
  8
0
  6
CONTINUOUS
 66
     1
 40
0.000000
 41
0.000000
  0
VERTEX
  8
0
  6
CONTINUOUS
 10
4.432120
 20
1.558920
  0
VERTEX
  8
0
  6
CONTINUOUS
 10
5.075400
 20
1.927640
  0
VERTEX
  8
0
  6
CONTINUOUS
 10
5.086840
 20
1.883200
  0
VERTEX
  8
0
  6
CONTINUOUS
 10
4.444000
 20
1.514480
  0
VERTEX
  8
0
  6
CONTINUOUS
 10
4.432120
 20
1.558920
  0
SEQEND
  8
0
  0
SOLID
  8
0
 62
    15
 10
4.444000
 20
1.514480
 11
5.086840
 21
1.883200
 12
4.450160
 22
1.470920
 13
5.093000
 23
1.839640
  0
POLYLINE
  8
0
  6
CONTINUOUS
 66
     1
 40
0.000000
 41
0.000000
  0
VERTEX
  8
0
  6
CONTINUOUS
 10
4.444000
 20
1.514480
  0
VERTEX
  8
0
  6
CONTINUOUS
 10
5.086840
 20
1.883200
  0
VERTEX
  8
0
  6
CONTINUOUS
 10
5.093000
 20
1.839640
  0
VERTEX
  8
0
  6
CONTINUOUS
 10
4.450160
 20
1.470920
  0
VERTEX
  8
0
  6
CONTINUOUS
 10
4.444000
 20
1.514480
  0
SEQEND
  8
0
  0
SOLID
  8
0
 62
    15
 10
4.450160
 20
1.470920
 11
5.093000
 21
1.839640
 12
4.451040
 22
1.429120
 13
5.093880
 23
1.797840
  0
POLYLINE
  8
0
  6
CONTINUOUS
 66
     1
 40
0.000000
 41
0.000000
  0
VERTEX
  8
0
  6
CONTINUOUS
 10
4.450160
 20
1.470920
  0
VERTEX
  8
0
  6
CONTINUOUS
 10
5.093000
 20
1.839640
  0
VERTEX
  8
0
  6
CONTINUOUS
 10
5.093880
 20
1.797840
  0
VERTEX
  8
0
  6
CONTINUOUS
 10
4.451040
 20
1.429120
  0
VERTEX
  8
0
  6
CONTINUOUS
 10
4.450160
 20
1.470920
  0
SEQEND
  8
0
  0
SOLID
  8
0
 62
    15
 10
4.451040
 20
1.429120
 11
5.093880
 21
1.797840
 12
4.446640
 22
1.389520
 13
5.089920
 23
1.758240
  0
POLYLINE
  8
0
  6
CONTINUOUS
 66
     1
 40
0.000000
 41
0.000000
  0
VERTEX
  8
0
  6
CONTINUOUS
 10
4.451040
 20
1.429120
  0
VERTEX
  8
0
  6
CONTINUOUS
 10
5.093880
 20
1.797840
  0
VERTEX
  8
0
  6
CONTINUOUS
 10
5.089920
 20
1.758240
  0
VERTEX
  8
0
  6
CONTINUOUS
 10
4.446640
 20
1.389520
  0
VERTEX
  8
0
  6
CONTINUOUS
 10
4.451040
 20
1.429120
  0
SEQEND
  8
0
  0
SOLID
  8
0
 62
    15
 10
4.446640
 20
1.389520
 11
5.089920
 21
1.758240
 12
4.437840
 22
1.352120
 13
5.080680
 23
1.720840
  0
POLYLINE
  8
0
  6
CONTINUOUS
 66
     1
 40
0.000000
 41
0.000000
  0
VERTEX
  8
0
  6
CONTINUOUS
 10
4.446640
 20
1.389520
  0
VERTEX
  8
0
  6
CONTINUOUS
 10
5.089920
 20
1.758240
  0
VERTEX
  8
0
  6
CONTINUOUS
 10
5.080680
 20
1.720840
  0
VERTEX
  8
0
  6
CONTINUOUS
 10
4.437840
 20
1.352120
  0
VERTEX
  8
0
  6
CONTINUOUS
 10
4.446640
 20
1.389520
  0
SEQEND
  8
0
  0
SOLID
  8
0
 62
    15
 10
4.437840
 20
1.352120
 11
5.080680
 21
1.720840
 12
4.424200
 22
1.317800
 13
5.067480
 23
1.686520
  0
POLYLINE
  8
0
  6
CONTINUOUS
 66
     1
 40
0.000000
 41
0.000000
  0
VERTEX
  8
0
  6
CONTINUOUS
 10
4.437840
 20
1.352120
  0
VERTEX
  8
0
  6
CONTINUOUS
 10
5.080680
 20
1.720840
  0
VERTEX
  8
0
  6
CONTINUOUS
 10
5.067480
 20
1.686520
  0
VERTEX
  8
0
  6
CONTINUOUS
 10
4.424200
 20
1.317800
  0
VERTEX
  8
0
  6
CONTINUOUS
 10
4.437840
 20
1.352120
  0
SEQEND
  8
0
  0
SOLID
  8
0
 62
    15
 10
4.424200
 20
1.317800
 11
5.067480
 21
1.686520
 12
4.407040
 22
1.286560
 13
5.049880
 23
1.655280
  0
POLYLINE
  8
0
  6
CONTINUOUS
 66
     1
 40
0.000000
 41
0.000000
  0
VERTEX
  8
0
  6
CONTINUOUS
 10
4.424200
 20
1.317800
  0
VERTEX
  8
0
  6
CONTINUOUS
 10
5.067480
 20
1.686520
  0
VERTEX
  8
0
  6
CONTINUOUS
 10
5.049880
 20
1.655280
  0
VERTEX
  8
0
  6
CONTINUOUS
 10
4.407040
 20
1.286560
  0
VERTEX
  8
0
  6
CONTINUOUS
 10
4.424200
 20
1.317800
  0
SEQEND
  8
0
  0
SOLID
  8
0
 62
    15
 10
4.407040
 20
1.286560
 11
5.049880
 21
1.655280
 12
4.385480
 22
1.259280
 13
5.028760
 23
1.628000
  0
POLYLINE
  8
0
  6
CONTINUOUS
 66
     1
 40
0.000000
 41
0.000000
  0
VERTEX
  8
0
  6
CONTINUOUS
 10
4.407040
 20
1.286560
  0
VERTEX
  8
0
  6
CONTINUOUS
 10
5.049880
 20
1.655280
  0
VERTEX
  8
0
  6
CONTINUOUS
 10
5.028760
 20
1.628000
  0
VERTEX
  8
0
  6
CONTINUOUS
 10
4.385480
 20
1.259280
  0
VERTEX
  8
0
  6
CONTINUOUS
 10
4.407040
 20
1.286560
  0
SEQEND
  8
0
  0
SOLID
  8
0
 62
    15
 10
4.385480
 20
1.259280
 11
5.028760
 21
1.628000
 12
4.360840
 22
1.236400
 13
5.003680
 23
1.605120
  0
POLYLINE
  8
0
  6
CONTINUOUS
 66
     1
 40
0.000000
 41
0.000000
  0
VERTEX
  8
0
  6
CONTINUOUS
 10
4.385480
 20
1.259280
  0
VERTEX
  8
0
  6
CONTINUOUS
 10
5.028760
 20
1.628000
  0
VERTEX
  8
0
  6
CONTINUOUS
 10
5.003680
 20
1.605120
  0
VERTEX
  8
0
  6
CONTINUOUS
 10
4.360840
 20
1.236400
  0
VERTEX
  8
0
  6
CONTINUOUS
 10
4.385480
 20
1.259280
  0
SEQEND
  8
0
  0
SOLID
  8
0
 62
    15
 10
4.360840
 20
1.236400
 11
5.003680
 21
1.605120
 12
4.332680
 22
1.217920
 13
4.975520
 23
1.586640
  0
POLYLINE
  8
0
  6
CONTINUOUS
 66
     1
 40
0.000000
 41
0.000000
  0
VERTEX
  8
0
  6
CONTINUOUS
 10
4.360840
 20
1.236400
  0
VERTEX
  8
0
  6
CONTINUOUS
 10
5.003680
 20
1.605120
  0
VERTEX
  8
0
  6
CONTINUOUS
 10
4.975520
 20
1.586640
  0
VERTEX
  8
0
  6
CONTINUOUS
 10
4.332680
 20
1.217920
  0
VERTEX
  8
0
  6
CONTINUOUS
 10
4.360840
 20
1.236400
  0
SEQEND
  8
0
  0
POLYLINE
  8
0
  6
CONTINUOUS
 66
     1
 40
0.000000
 41
0.000000
  0
VERTEX
  8
0
  6
CONTINUOUS
 10
4.300560
 20
1.205160
  0
VERTEX
  8
0
  6
CONTINUOUS
 10
4.300560
 20
1.083720
  0
VERTEX
  8
0
  6
CONTINUOUS
 10
3.564880
 20
1.083720
  0
VERTEX
  8
0
  6
CONTINUOUS
 10
3.564880
 20
2.603480
  0
VERTEX
  8
0
  6
CONTINUOUS
 10
3.868040
 20
2.603480
  0
VERTEX
  8
0
  6
CONTINUOUS
 10
3.868040
 20
2.389200
  0
VERTEX
  8
0
  6
CONTINUOUS
 10
3.961320
 20
2.389200
  0
VERTEX
  8
0
  6
CONTINUOUS
 10
3.968360
 20
2.314840
  0
VERTEX
  8
0
  6
CONTINUOUS
 10
3.980680
 20
2.241800
  0
VERTEX
  8
0
  6
CONTINUOUS
 10
4.000040
 20
2.169640
  0
VERTEX
  8
0
  6
CONTINUOUS
 10
4.028640
 20
2.096600
  0
VERTEX
  8
0
  6
CONTINUOUS
 10
4.069120
 20
2.022240
  0
VERTEX
  8
0
  6
CONTINUOUS
 10
4.122360
 20
1.945680
  0
VERTEX
  8
0
  6
CONTINUOUS
 10
4.154920
 20
1.906520
  0
VERTEX
  8
0
  6
CONTINUOUS
 10
4.191440
 20
1.866480
  0
VERTEX
  8
0
  6
CONTINUOUS
 10
4.232800
 20
1.825120
  0
VERTEX
  8
0
  6
CONTINUOUS
 10
4.278120
 20
1.782880
  0
VERTEX
  8
0
  6
CONTINUOUS
 10
4.322560
 20
1.739320
  0
VERTEX
  8
0
  6
CONTINUOUS
 10
4.359960
 20
1.694880
  0
VERTEX
  8
0
  6
CONTINUOUS
 10
4.390320
 20
1.649560
  0
VERTEX
  8
0
  6
CONTINUOUS
 10
4.414520
 20
1.604240
  0
VERTEX
  8
0
  6
CONTINUOUS
 10
4.432120
 20
1.558920
  0
VERTEX
  8
0
  6
CONTINUOUS
 10
4.444000
 20
1.514480
  0
VERTEX
  8
0
  6
CONTINUOUS
 10
4.450160
 20
1.470920
  0
VERTEX
  8
0
  6
CONTINUOUS
 10
4.451040
 20
1.429120
  0
VERTEX
  8
0
  6
CONTINUOUS
 10
4.446640
 20
1.389520
  0
VERTEX
  8
0
  6
CONTINUOUS
 10
4.437840
 20
1.352120
  0
VERTEX
  8
0
  6
CONTINUOUS
 10
4.424200
 20
1.317800
  0
VERTEX
  8
0
  6
CONTINUOUS
 10
4.407040
 20
1.286560
  0
VERTEX
  8
0
  6
CONTINUOUS
 10
4.385480
 20
1.259280
  0
VERTEX
  8
0
  6
CONTINUOUS
 10
4.360840
 20
1.236400
  0
VERTEX
  8
0
  6
CONTINUOUS
 10
4.332680
 20
1.217920
  0
VERTEX
  8
0
  6
CONTINUOUS
 10
4.301440
 20
1.204720
  0
VERTEX
  8
0
  6
CONTINUOUS
 10
4.300560
 20
1.205160
  0
SEQEND
  8
0
  0
TEXT
  8
0
 10
4.033040
 20
0.840400
 40
0.138123
  1
BA  837
 41
1.000000
  7
SN0
 71
     0
 72
     5
 11
4.623457
 21
0.840400
  0
TEXT
  8
0
 10
3.876840
 20
0.648560
 40
0.138123
  1
7/8" x 1-1/2"
 41
1.000000
  7
SN0
 71
     0
 72
     5
 11
4.777892
 21
0.648560
  0
POLYLINE
  8
0
  6
CONTINUOUS
 66
     1
 40
0.014080
 41
0.014080
  0
VERTEX
  8
0
  6
CONTINUOUS
 10
6.403320
 20
1.566400
  0
VERTEX
  8
0
  6
CONTINUOUS
 10
6.434560
 20
1.579600
  0
VERTEX
  8
0
  6
CONTINUOUS
 10
6.462280
 20
1.598080
  0
VERTEX
  8
0
  6
CONTINUOUS
 10
6.487360
 20
1.620960
  0
VERTEX
  8
0
  6
CONTINUOUS
 10
6.508920
 20
1.648240
  0
VERTEX
  8
0
  6
CONTINUOUS
 10
6.526080
 20
1.679480
  0
VERTEX
  8
0
  6
CONTINUOUS
 10
6.539720
 20
1.713800
  0
VERTEX
  8
0
  6
CONTINUOUS
 10
6.548520
 20
1.751200
  0
VERTEX
  8
0
  6
CONTINUOUS
 10
6.552920
 20
1.790800
  0
VERTEX
  8
0
  6
CONTINUOUS
 10
6.552040
 20
1.833040
  0
VERTEX
  8
0
  6
CONTINUOUS
 10
6.545880
 20
1.876160
  0
VERTEX
  8
0
  6
CONTINUOUS
 10
6.534000
 20
1.920600
  0
VERTEX
  8
0
  6
CONTINUOUS
 10
6.516400
 20
1.965920
  0
VERTEX
  8
0
  6
CONTINUOUS
 10
6.492200
 20
2.011680
  0
VERTEX
  8
0
  6
CONTINUOUS
 10
6.461840
 20
2.056560
  0
VERTEX
  8
0
  6
CONTINUOUS
 10
6.424440
 20
2.101440
  0
VERTEX
  8
0
  6
CONTINUOUS
 10
6.380000
 20
2.145000
  0
VERTEX
  8
0
  6
CONTINUOUS
 10
6.313560
 20
2.207920
  0
VERTEX
  8
0
  6
CONTINUOUS
 10
6.274840
 20
2.248400
  0
VERTEX
  8
0
  6
CONTINUOUS
 10
6.224240
 20
2.307800
  0
VERTEX
  8
0
  6
CONTINUOUS
 10
6.182880
 20
2.365440
  0
VERTEX
  8
0
  6
CONTINUOUS
 10
6.149440
 20
2.421320
  0
VERTEX
  8
0
  6
CONTINUOUS
 10
6.122600
 20
2.476760
  0
VERTEX
  8
0
  6
CONTINUOUS
 10
6.101920
 20
2.531320
  0
VERTEX
  8
0
  6
CONTINUOUS
 10
6.091360
 20
2.567400
  0
VERTEX
  8
0
  6
CONTINUOUS
 10
6.082560
 20
2.603480
  0
VERTEX
  8
0
  6
CONTINUOUS
 10
6.075520
 20
2.640000
  0
VERTEX
  8
0
  6
CONTINUOUS
 10
6.066280
 20
2.713480
  0
VERTEX
  8
0
  6
CONTINUOUS
 10
6.063200
 20
2.750880
  0
VERTEX
  8
0
  6
CONTINUOUS
 10
5.969920
 20
2.750880
  0
VERTEX
  8
0
  6
CONTINUOUS
 10
5.969920
 20
2.965600
  0
VERTEX
  8
0
  6
CONTINUOUS
 10
5.666760
 20
2.965600
  0
VERTEX
  8
0
  6
CONTINUOUS
 10
5.666760
 20
1.445400
  0
VERTEX
  8
0
  6
CONTINUOUS
 10
6.402440
 20
1.445400
  0
VERTEX
  8
0
  6
CONTINUOUS
 10
6.402440
 20
1.566840
  0
VERTEX
  8
0
  6
CONTINUOUS
 10
6.403320
 20
1.566400
  0
SEQEND
  8
0
  0
ENDSEC
  0
EOF
